  0
SECTION
  2
HEADER
  9
$ACADVER
  1
AC1015
  9
$ACADMAINTVER
 70
     6
  9
$DWGCODEPAGE
  3
ANSI_1252
  9
$INSBASE
 10
0.0
 20
0.0
 30
0.0
  9
$EXTMIN
 10
0.0
 20
0.0
 30
0.0
  9
$EXTMAX
 10
1500.0
 20
1000.0
 30
0.0
  9
$LIMMIN
 10
0.0
 20
0.0
  9
$LIMMAX
 10
1500.0
 20
1000.0
  9
$ORTHOMODE
 70
     0
  9
$REGENMODE
 70
     1
  9
$FILLMODE
 70
     1
  9
$QTEXTMODE
 70
     0
  9
$MIRRTEXT
 70
     1
  9
$LTSCALE
 40
1.0
  9
$ATTMODE
 70
     1
  9
$TEXTSIZE
 40
5.0
  9
$TRACEWID
 40
1.0
  9
$TEXTSTYLE
  7
Standard
  9
$CLAYER
  8
0
  9
$CELTYPE
  6
ByLayer
  9
$CECOLOR
 62
   256
  9
$CELTSCALE
 40
1.0
  9
$DISPSILH
 70
     0
  9
$DIMSCALE
 40
1.0
  9
$DIMASZ
 40
6.0
  9
$DIMEXO
 40
1.0
  9
$DIMDLI
 40
3.75
  9
$DIMRND
 40
0.0
  9
$DIMDLE
 40
0.0
  9
$DIMEXE
 40
1.0
  9
$DIMTP
 40
0.0
  9
$DIMTM
 40
0.0
  9
$DIMTXT
 40
5.0
  9
$DIMCEN
 40
2.5
  9
$DIMTSZ
 40
0.0
  9
$DIMTOL
 70
     0
  9
$DIMLIM
 70
     0
  9
$DIMTIH
 70
     1
  9
$DIMTOH
 70
     1
  9
$DIMSE1
 70
     0
  9
$DIMSE2
 70
     0
  9
$DIMTAD
 70
     1
  9
$DIMZIN
 70
     0
  9
$DIMBLK
  1

  9
$DIMASO
 70
     1
  9
$DIMSHO
 70
     1
  9
$DIMPOST
  1

  9
$DIMAPOST
  1

  9
$DIMALT
 70
     0
  9
$DIMALTD
 70
     3
  9
$DIMALTF
 40
0.0393700787
  9
$DIMLFAC
 40
1.0
  9
$DIMTOFL
 70
     1
  9
$DIMTVP
 40
0.0
  9
$DIMTIX
 70
     0
  9
$DIMSOXD
 70
     0
  9
$DIMSAH
 70
     0
  9
$DIMBLK1
  1

  9
$DIMBLK2
  1

  9
$DIMSTYLE
  2
ISO-25
  9
$DIMCLRD
 70
     0
  9
$DIMCLRE
 70
     0
  9
$DIMCLRT
 70
     0
  9
$DIMTFAC
 40
1.0
  9
$DIMGAP
 40
1.524
  9
$DIMJUST
 70
     0
  9
$DIMSD1
 70
     0
  9
$DIMSD2
 70
     0
  9
$DIMTOLJ
 70
     0
  9
$DIMTZIN
 70
     0
  9
$DIMALTZ
 70
     0
  9
$DIMALTTZ
 70
     0
  9
$DIMUPT
 70
     0
  9
$DIMDEC
 70
     2
  9
$DIMTDEC
 70
     2
  9
$DIMALTU
 70
     2
  9
$DIMALTTD
 70
     3
  9
$DIMTXSTY
  7
Standard
  9
$DIMAUNIT
 70
     0
  9
$DIMADEC
 70
     2
  9
$DIMALTRND
 40
0.0
  9
$DIMAZIN
 70
     0
  9
$DIMDSEP
 70
    44
  9
$DIMATFIT
 70
     3
  9
$DIMFRAC
 70
     0
  9
$DIMLDRBLK
  1

  9
$DIMLUNIT
 70
     2
  9
$DIMLWD
 70
    -2
  9
$DIMLWE
 70
    -2
  9
$DIMTMOVE
 70
     0
  9
$LUNITS
 70
     2
  9
$LUPREC
 70
     2
  9
$SKETCHINC
 40
1.0
  9
$FILLETRAD
 40
10.0
  9
$AUNITS
 70
     0
  9
$AUPREC
 70
     2
  9
$MENU
  1
.
  9
$ELEVATION
 40
0.0
  9
$PELEVATION
 40
0.0
  9
$THICKNESS
 40
0.0
  9
$LIMCHECK
 70
     0
  9
$CHAMFERA
 40
0.0
  9
$CHAMFERB
 40
0.0
  9
$CHAMFERC
 40
0.0
  9
$CHAMFERD
 40
0.0
  9
$SKPOLY
 70
     0
  9
$TDCREATE
 40
2458460.588268275
  9
$TDUCREATE
 40
2458460.504934942
  9
$TDUPDATE
 40
2458460.588269051
  9
$TDUUPDATE
 40
2458460.504935718
  9
$TDINDWG
 40
0.0000000116
  9
$TDUSRTIMER
 40
0.0000000116
  9
$USRTIMER
 70
     1
  9
$ANGBASE
 50
0.0
  9
$ANGDIR
 70
     0
  9
$PDMODE
 70
     0
  9
$PDSIZE
 40
-1.0
  9
$PLINEWID
 40
0.0
  9
$SPLFRAME
 70
     0
  9
$SPLINETYPE
 70
     6
  9
$SPLINESEGS
 70
     8
  9
$HANDSEED
  5
266
  9
$SURFTAB1
 70
     6
  9
$SURFTAB2
 70
     6
  9
$SURFTYPE
 70
     6
  9
$SURFU
 70
     6
  9
$SURFV
 70
     6
  9
$UCSBASE
  2

  9
$UCSNAME
  2

  9
$UCSORG
 10
0.0
 20
0.0
 30
0.0
  9
$UCSXDIR
 10
1.0
 20
0.0
 30
0.0
  9
$UCSYDIR
 10
0.0
 20
1.0
 30
0.0
  9
$UCSORTHOREF
  2

  9
$UCSORTHOVIEW
 70
     0
  9
$UCSORGTOP
 10
0.0
 20
0.0
 30
0.0
  9
$UCSORGBOTTOM
 10
0.0
 20
0.0
 30
0.0
  9
$UCSORGLEFT
 10
0.0
 20
0.0
 30
0.0
  9
$UCSORGRIGHT
 10
0.0
 20
0.0
 30
0.0
  9
$UCSORGFRONT
 10
0.0
 20
0.0
 30
0.0
  9
$UCSORGBACK
 10
0.0
 20
0.0
 30
0.0
  9
$PUCSBASE
  2

  9
$PUCSNAME
  2

  9
$PUCSORG
 10
0.0
 20
0.0
 30
0.0
  9
$PUCSXDIR
 10
1.0
 20
0.0
 30
0.0
  9
$PUCSYDIR
 10
0.0
 20
1.0
 30
0.0
  9
$PUCSORTHOREF
  2

  9
$PUCSORTHOVIEW
 70
     0
  9
$PUCSORGTOP
 10
0.0
 20
0.0
 30
0.0
  9
$PUCSORGBOTTOM
 10
0.0
 20
0.0
 30
0.0
  9
$PUCSORGLEFT
 10
0.0
 20
0.0
 30
0.0
  9
$PUCSORGRIGHT
 10
0.0
 20
0.0
 30
0.0
  9
$PUCSORGFRONT
 10
0.0
 20
0.0
 30
0.0
  9
$PUCSORGBACK
 10
0.0
 20
0.0
 30
0.0
  9
$USERI1
 70
     0
  9
$USERI2
 70
     0
  9
$USERI3
 70
     0
  9
$USERI4
 70
     0
  9
$USERI5
 70
     0
  9
$USERR1
 40
0.0
  9
$USERR2
 40
0.0
  9
$USERR3
 40
0.0
  9
$USERR4
 40
0.0
  9
$USERR5
 40
0.0
  9
$WORLDVIEW
 70
     1
  9
$SHADEDGE
 70
     3
  9
$SHADEDIF
 70
    70
  9
$TILEMODE
 70
     1
  9
$MAXACTVP
 70
    64
  9
$PINSBASE
 10
0.0
 20
0.0
 30
0.0
  9
$PLIMCHECK
 70
     0
  9
$PEXTMIN
 10
1.0000000000E+20
 20
1.0000000000E+20
 30
1.0000000000E+20
  9
$PEXTMAX
 10
-1.0000000000E+20
 20
-1.0000000000E+20
 30
-1.0000000000E+20
  9
$PLIMMIN
 10
0.0
 20
0.0
  9
$PLIMMAX
 10
420.0
 20
297.0
  9
$UNITMODE
 70
     0
  9
$VISRETAIN
 70
     1
  9
$PLINEGEN
 70
     0
  9
$PSLTSCALE
 70
     1
  9
$TREEDEPTH
 70
  3020
  9
$CMLSTYLE
  2
Standard
  9
$CMLJUST
 70
     0
  9
$CMLSCALE
 40
20.0
  9
$PROXYGRAPHICS
 70
     1
  9
$MEASUREMENT
 70
     1
  9
$CELWEIGHT
370
    -1
  9
$ENDCAPS
280
     0
  9
$JOINSTYLE
280
     0
  9
$LWDISPLAY
290
     1
  9
$INSUNITS
 70
     4
  9
$HYPERLINKBASE
  1

  9
$STYLESHEET
  1

  9
$XEDIT
290
     1
  9
$CEPSNTYPE
380
     0
  9
$PSTYLEMODE
290
     1
  9
$FINGERPRINTGUID
  2
{C53901B3-5F73-45FA-8A32-089939869C72}
  9
$VERSIONGUID
  2
{FAEB1C32-E019-11D5-929B-00C0DF256EC4}
  9
$EXTNAMES
290
     1
  9
$PSVPSCALE
 40
0.0
  9
$OLESTARTUP
290
     0
  0
ENDSEC
  0
SECTION
  2
CLASSES
  0
CLASS
  1
ACDBDICTIONARYWDFLT
  2
AcDbDictionaryWithDefault
  3
ObjectDBX Classes
 90
        0
280
     0
281
     0
  0
CLASS
  1
VISUALSTYLE
  2
AcDbVisualStyle
  3
ObjectDBX Classes
 90
     4095
280
     0
281
     0
  0
CLASS
  1
MATERIAL
  2
AcDbMaterial
  3
ObjectDBX Classes
 90
     1153
280
     0
281
     0
  0
CLASS
  1
SCALE
  2
AcDbScale
  3
ObjectDBX Classes
 90
     1153
280
     0
281
     0
  0
CLASS
  1
TABLESTYLE
  2
AcDbTableStyle
  3
ObjectDBX Classes
 90
     4095
280
     0
281
     0
  0
CLASS
  1
MLEADERSTYLE
  2
AcDbMLeaderStyle
  3
ACDB_MLEADERSTYLE_CLASS
 90
     4095
280
     0
281
     0
  0
CLASS
  1
SUN
  2
AcDbSun
  3
SCENEOE
 90
     1153
280
     0
281
     0
  0
CLASS
  1
ACDBPLACEHOLDER
  2
AcDbPlaceHolder
  3
ObjectDBX Classes
 90
        0
280
     0
281
     0
  0
CLASS
  1
LAYOUT
  2
AcDbLayout
  3
ObjectDBX Classes
 90
        0
280
     0
281
     0
  0
ENDSEC
  0
SECTION
  2
TABLES
  0
TABLE
  2
VPORT
  5
8
330
0
100
AcDbSymbolTable
 70
     1
  0
VPORT
  5
29
330
8
100
AcDbSymbolTableRecord
100
AcDbViewportTableRecord
  2
*Active
 70
     0
 10
0.0
 20
0.0
 11
1.0
 21
1.0
 12
750.0
 22
500.0
 13
0.0
 23
0.0
 14
10.0
 24
10.0
 15
10.0
 25
10.0
 16
0.0
 26
0.0
 36
1.0
 17
0.0
 27
0.0
 37
0.0
 40
1000.0
 41
1.5
 42
50.0
 43
0.0
 44
0.0
 50
0.0
 51
0.0
 71
     0
 72
  2000
 73
     1
 74
     3
 75
     0
 76
     0
 77
     0
 78
     0
281
     0
 65
     1
110
0.0
120
0.0
130
0.0
111
1.0
121
0.0
131
0.0
112
0.0
122
1.0
132
0.0
 79
     0
146
0.0
  0
ENDTAB
  0
TABLE
  2
LTYPE
  5
5
330
0
100
AcDbSymbolTable
 70
     6
  0
LTYPE
  5
14
330
5
100
AcDbSymbolTableRecord
100
AcDbLinetypeTableRecord
  2
ByBlock
 70
     0
  3

 72
    65
 73
     0
 40
0.0
  0
LTYPE
  5
15
330
5
100
AcDbSymbolTableRecord
100
AcDbLinetypeTableRecord
  2
ByLayer
 70
     0
  3

 72
    65
 73
     0
 40
0.0
  0
LTYPE
  5
16
330
5
100
AcDbSymbolTableRecord
100
AcDbLinetypeTableRecord
  2
Continuous
 70
     0
  3
Solid line
 72
    65
 73
     0
 40
0.0
  0
LTYPE
  5
6E
330
5
100
AcDbSymbolTableRecord
100
AcDbLinetypeTableRecord
  2
HIDDEN
 70
     0
  3
Hidden __ __ __ __ __ __ __ __ __ __ __ __ __ __
 72
    65
 73
     2
 40
1.905
 49
1.27
 74
     0
 49
-0.635
 74
     0
  0
LTYPE
  5
6F
330
5
100
AcDbSymbolTableRecord
100
AcDbLinetypeTableRecord
  2
PHANTOM
 70
     0
  3
Phantom ______  __  __  ______  __  __  ______
 72
    65
 73
     6
 40
12.7
 49
6.35
 74
     0
 49
-1.27
 74
     0
 49
1.27
 74
     0
 49
-1.27
 74
     0
 49
1.27
 74
     0
 49
-1.27
 74
     0
  0
LTYPE
  5
70
330
5
100
AcDbSymbolTableRecord
100
AcDbLinetypeTableRecord
  2
CENTER
 70
     0
  3
Center ____ _ ____ _ ____ _ ____ _ ____ _ ____
 72
    65
 73
     4
 40
10.16
 49
6.35
 74
     0
 49
-1.27
 74
     0
 49
1.27
 74
     0
 49
-1.27
 74
     0
  0
LTYPE
  5
71
330
5
100
AcDbSymbolTableRecord
100
AcDbLinetypeTableRecord
  2
CENTERX2
 70
     0
  3
Center (2x) ________  __  ________  __  _____
 72
    65
 73
     4
 40
20.32
 49
12.7
 74
     0
 49
-2.54
 74
     0
 49
2.54
 74
     0
 49
-2.54
 74
     0
  0
LTYPE
  5
72
330
5
100
AcDbSymbolTableRecord
100
AcDbLinetypeTableRecord
  2
DOT2
 70
     0
  3
Dot (.5x) ........................................
 72
    65
 73
     2
 40
0.635
 49
0.0
 74
     0
 49
-0.635
 74
     0
  0
ENDTAB
  0
TABLE
  2
LAYER
  5
2
330
0
100
AcDbSymbolTable
 70
     2
  0
LAYER
  5
10
330
2
100
AcDbSymbolTableRecord
100
AcDbLayerTableRecord
  2
0
 70
     0
 62
     7
  6
Continuous
370
    -3
390
F
  0
LAYER
  5
73
330
2
100
AcDbSymbolTableRecord
100
AcDbLayerTableRecord
  2
TABLE_BL1
 70
     0
 62
   179
  6
Continuous
370
    -3
390
F
  0
ENDTAB
  0
TABLE
  2
STYLE
  5
3
330
0
100
AcDbSymbolTable
 70
     1
  0
STYLE
  5
11
330
3
100
AcDbSymbolTableRecord
100
AcDbTextStyleTableRecord
  2
Standard
 70
     0
 40
0.0
 41
1.0
 50
0.0
 71
     0
 42
5.0
  3
txt
  4

  0
ENDTAB
  0
TABLE
  2
VIEW
  5
6
330
0
100
AcDbSymbolTable
 70
     0
  0
ENDTAB
  0
TABLE
  2
UCS
  5
7
330
0
100
AcDbSymbolTable
 70
     0
  0
ENDTAB
  0
TABLE
  2
APPID
  5
9
330
0
100
AcDbSymbolTable
 70
     1
  0
APPID
  5
12
330
9
100
AcDbSymbolTableRecord
100
AcDbRegAppTableRecord
  2
ACAD
 70
     0
  0
ENDTAB
  0
TABLE
  2
DIMSTYLE
  5
A
330
0
100
AcDbSymbolTable
 70
     1
100
AcDbDimStyleTable
  0
DIMSTYLE
105
27
330
A
100
AcDbSymbolTableRecord
100
AcDbDimStyleTableRecord
  2
ISO-25
 70
     0
 41
2.5
 42
0.625
 43
3.75
 44
1.25
 73
     0
 74
     0
 77
     1
 78
     8
140
2.5
141
2.5
143
0.0393700787
147
0.625
171
     3
172
     1
178
     0
271
     2
272
     2
274
     3
278
    44
283
     0
284
     8
340
11
  0
ENDTAB
  0
TABLE
  2
BLOCK_RECORD
  5
1
330
0
100
AcDbSymbolTable
 70
     1
  0
BLOCK_RECORD
  5
1F
330
1
100
AcDbSymbolTableRecord
100
AcDbBlockTableRecord
  2
*Model_Space
340
22
  0
BLOCK_RECORD
  5
1B
330
1
100
AcDbSymbolTableRecord
100
AcDbBlockTableRecord
  2
*Paper_Space
340
1E
  0
BLOCK_RECORD
  5
23
330
1
100
AcDbSymbolTableRecord
100
AcDbBlockTableRecord
  2
*Paper_Space0
340
26
  0
ENDTAB
  0
ENDSEC
  0
SECTION
  2
BLOCKS
  0
BLOCK
  5
20
330
1F
100
AcDbEntity
  8
0
100
AcDbBlockBegin
  2
*Model_Space
 70
     0
 10
0.0
 20
0.0
 30
0.0
  3
*Model_Space
  1

  0
ENDBLK
  5
21
330
1F
100
AcDbEntity
  8
0
100
AcDbBlockEnd
  0
BLOCK
  5
1C
330
1B
100
AcDbEntity
 67
     1
  8
0
100
AcDbBlockBegin
  2
*Paper_Space
 70
     0
 10
0.0
 20
0.0
 30
0.0
  3
*Paper_Space
  1

  0
ENDBLK
  5
1D
330
1B
100
AcDbEntity
 67
     1
  8
0
100
AcDbBlockEnd
  0
BLOCK
  5
24
330
23
100
AcDbEntity
  8
0
100
AcDbBlockBegin
  2
*Paper_Space0
 70
     0
 10
0.0
 20
0.0
 30
0.0
  3
*Paper_Space0
  1

  0
ENDBLK
  5
25
330
23
100
AcDbEntity
  8
0
100
AcDbBlockEnd
  0
ENDSEC
  0
SECTION
  2
ENTITIES
  0
SPLINE
  5
74
330
1F
100
AcDbEntity
  8
0
  6
Continuous
 62
     7
370
    25
100
AcDbSpline
210
0.0
220
0.0
230
1.0
 70
     8
 71
     3
 72
    18
 73
    14
 74
     0
 42
0.000000001
 43
0.00000001
 40
0.0
 40
0.0
 40
0.0
 40
0.0
 40
0.118163460728557
 40
0.2417302751832557
 40
0.3519954655435306
 40
0.4393434997879764
 40
0.5540330811504435
 40
0.6249959874869477
 40
0.7018579280588418
 40
0.7811806935234853
 40
0.8592624532715004
 40
0.9329153102290166
 40
1.0
 40
1.0
 40
1.0
 40
1.0
 10
695.1116880772623
 20
512.3214652985014
 30
0.0
 10
694.7604658719735
 20
511.2583050865152
 30
0.0
 10
694.0419608467191
 20
509.0833686973577
 30
0.0
 10
694.5776048970383
 20
505.7022045472408
 30
0.0
 10
696.0558364000775
 20
503.0259275362977
 30
0.0
 10
698.2165554597846
 20
500.9997201579706
 30
0.0
 10
700.590841105121
 20
499.8944991611509
 30
0.0
 10
703.0426153128499
 20
499.5402654134327
 30
0.0
 10
705.1832305624425
 20
499.7281833068544
 30
0.0
 10
707.2808587023488
 20
500.4517681227376
 30
0.0
 10
709.1033313440366
 20
501.6524629020394
 30
0.0
 10
710.5411422220864
 20
503.1508952420926
 30
0.0
 10
711.1622915426581
 20
504.3193151807607
 30
0.0
 10
711.458371802977
 20
504.8762602954783
 30
0.0
  0
SPLINE
  5
75
330
1F
100
AcDbEntity
  8
0
  6
Continuous
 62
     7
370
    25
100
AcDbSpline
210
0.0
220
0.0
230
1.0
 70
     8
 71
     3
 72
    18
 73
    14
 74
     0
 42
0.000000001
 43
0.00000001
 40
0.0
 40
0.0
 40
0.0
 40
0.0
 40
0.1181634741460141
 40
0.2417301713612148
 40
0.3519953742420984
 40
0.4393434184049106
 40
0.5540330687385753
 40
0.6249959641031753
 40
0.7018579134027401
 40
0.7811806445796952
 40
0.8592623405926684
 40
0.9329153026115522
 40
0.9999999999999999
 40
0.9999999999999999
 40
0.9999999999999999
 40
0.9999999999999999
 10
711.458371802977
 20
504.8762602954783
 30
0.0
 10
711.8095941189214
 20
505.9394205243149
 30
0.0
 10
712.5280989803664
 20
508.1143557668544
 30
0.0
 10
711.9924542954744
 20
511.495518281882
 30
0.0
 10
710.5142236436992
 20
514.1717947660658
 30
0.0
 10
708.3535035175711
 20
516.1980006520998
 30
0.0
 10
705.9792201217106
 20
517.3032290950146
 30
0.0
 10
703.5274440732562
 20
517.6574551405917
 30
0.0
 10
701.3868299944293
 20
517.4695381654338
 30
0.0
 10
699.2892018388993
 20
516.7459574832757
 30
0.0
 10
697.4667261255468
 20
515.5452666927697
 30
0.0
 10
696.028918810821
 20
514.0468304437595
 30
0.0
 10
695.4077685718966
 20
512.8784101837332
 30
0.0
 10
695.1116880772623
 20
512.3214652985014
 30
0.0
  0
LWPOLYLINE
  5
76
330
1F
100
AcDbEntity
  8
0
  6
Continuous
 62
     7
370
    25
100
AcDbPolyline
 90
        3
 70
   128
 43
0.0
 10
712.7383489532
 20
525.4824986905
 10
711.6574783249
 20
526.043765828
 10
711.4349453149
 20
526.1488339156
  0
LWPOLYLINE
  5
77
330
1F
100
AcDbEntity
  8
0
  6
Continuous
 62
     7
370
    25
100
AcDbPolyline
 90
        3
 70
   128
 43
0.0
 10
704.570315047
 20
527.9061278551
 10
704.014265877
 20
527.9351180643
 10
702.9570096601
 20
527.9460853189
  0
LINE
  5
78
330
1F
100
AcDbEntity
  8
0
  6
Continuous
 62
     7
370
    25
100
AcDbLine
 10
695.9715051016
 20
526.513517484
 30
0.0
 11
694.5451245083
 21
525.8625975102
 31
0.0
  0
LINE
  5
79
330
1F
100
AcDbEntity
  8
0
  6
Continuous
 62
     7
370
    25
100
AcDbLine
 10
688.927975334
 20
521.571815595
 30
0.0
 11
687.9885102062
 21
520.4495569914
 31
0.0
  0
LWPOLYLINE
  5
7A
330
1F
100
AcDbEntity
  8
0
  6
Continuous
 62
     7
370
    25
100
AcDbPolyline
 90
        3
 70
   128
 43
0.0
 10
684.7395494951
 20
514.1204228848
 10
684.5015779508
 20
513.2469242662
 10
684.3500331415
 20
512.5848880261
  0
LWPOLYLINE
  5
7B
330
1F
100
AcDbEntity
  8
0
  6
Continuous
 62
     7
370
    25
100
AcDbPolyline
 90
        3
 70
   128
 43
0.0
 10
684.1928221656
 20
505.4508304447
 10
684.2048436774
 20
505.3787684291
 10
684.5094904674
 20
503.9189426452
  0
LINE
  5
7C
330
1F
100
AcDbEntity
  8
0
  6
Continuous
 62
     7
370
    25
100
AcDbLine
 10
687.4428324772
 20
497.4881788939
 30
0.0
 11
688.3277612178
 21
496.3227628022
 31
0.0
  0
LWPOLYLINE
  5
7D
330
1F
100
AcDbEntity
  8
0
  6
Continuous
 62
     7
370
    25
100
AcDbPolyline
 90
        3
 70
   128
 43
0.0
 10
693.7486257775
 20
491.7620128244
 10
694.9125815554
 20
491.153959766
 10
695.1849012075
 20
491.0258582085
  0
LWPOLYLINE
  5
7E
330
1F
100
AcDbEntity
  8
0
  6
Continuous
 62
     7
370
    25
100
AcDbPolyline
 90
        3
 70
   128
 43
0.0
 10
702.1008236006
 20
489.2851343602
 10
702.5557940032
 20
489.2626075297
 10
703.676012632
 20
489.2528137415
  0
LINE
  5
7F
330
1F
100
AcDbEntity
  8
0
  6
Continuous
 62
     7
370
    25
100
AcDbLine
 10
710.5923093295
 20
490.6816600114
 30
0.0
 11
711.9348382948
 21
491.2898099273
 31
0.0
  0
LINE
  5
80
330
1F
100
AcDbEntity
  8
0
  6
Continuous
 62
     7
370
    25
100
AcDbLine
 10
717.5771918518
 20
495.5544552058
 30
0.0
 11
718.6145855485
 21
496.7909312099
 31
0.0
  0
LWPOLYLINE
  5
81
330
1F
100
AcDbEntity
  8
0
  6
Continuous
 62
     7
370
    25
100
AcDbPolyline
 90
        3
 70
   128
 43
0.0
 10
721.8305103851
 20
503.0772989839
 10
722.0684819294
 20
503.9508013278
 10
722.232035212
 20
504.6703113466
  0
LWPOLYLINE
  5
82
330
1F
100
AcDbEntity
  8
0
  6
Continuous
 62
     7
370
    25
100
AcDbPolyline
 90
        3
 70
   128
 43
0.0
 10
722.378968112
 20
511.7363861054
 10
722.3652162028
 20
511.8189534396
 10
722.087385915
 20
513.1698480099
  0
LINE
  5
83
330
1F
100
AcDbEntity
  8
0
  6
Continuous
 62
     7
370
    25
100
AcDbLine
 10
719.183119796
 20
519.6294194311
 30
0.0
 11
718.1564744933
 21
520.978794083
 31
0.0
  0
SPLINE
  5
84
330
1F
100
AcDbEntity
  8
0
  6
Continuous
 62
     7
370
    25
100
AcDbSpline
210
0.0
220
0.0
230
1.0
 70
     8
 71
     3
 72
     9
 73
     5
 74
     0
 42
0.000000001
 43
0.00000001
 40
0.0
 40
0.0
 40
0.0
 40
0.0
 40
0.5599956321118
 40
1.0
 40
1.0
 40
1.0
 40
1.0
 10
719.7984241319808
 20
521.0098779052175
 30
0.0
 10
719.7270588605821
 20
520.9562407628918
 30
0.0
 10
719.5996198819429
 20
520.86045940452
 30
0.0
 10
719.3997576534726
 20
520.7102510417494
 30
0.0
 10
719.31181739997
 20
520.6441587060369
 30
0.0
  0
SPLINE
  5
85
330
1F
100
AcDbEntity
  8
0
  6
Continuous
 62
     7
370
    25
100
AcDbSpline
210
0.0
220
0.0
230
1.0
 70
     8
 71
     3
 72
     9
 73
     5
 74
     0
 42
0.000000001
 43
0.00000001
 40
0.0
 40
0.0
 40
0.0
 40
0.0
 40
0.5600006404659171
 40
0.9999999999999999
 40
0.9999999999999999
 40
0.9999999999999999
 40
0.9999999999999999
 10
687.2582424802694
 20
496.5535668879427
 30
0.0
 10
687.1466894073492
 20
496.4697269201738
 30
0.0
 10
686.9474877192454
 20
496.3200128632413
 30
0.0
 10
686.8253682406341
 20
496.2282314512537
 30
0.0
 10
686.7716357482585
 20
496.1878476887621
 30
0.0
  0
SPLINE
  5
86
330
1F
100
AcDbEntity
  8
0
  6
Continuous
 62
     7
370
    25
100
AcDbSpline
210
0.0
220
0.0
230
1.0
 70
     8
 71
     3
 72
     9
 73
     5
 74
     0
 42
0.000000001
 43
0.00000001
 40
0.0
 40
0.0
 40
0.0
 40
0.0
 40
0.5600017644456654
 40
1.0
 40
1.0
 40
1.0
 40
1.0
 10
719.7984241319808
 20
521.0098779052175
 30
0.0
 10
719.9607050040607
 20
521.1318445513504
 30
0.0
 10
720.2504913625746
 20
521.3496414474969
 30
0.0
 10
720.7069606073507
 20
521.6927085561666
 30
0.0
 10
720.907806269637
 20
521.8436574786581
 30
0.0
  0
SPLINE
  5
87
330
1F
100
AcDbEntity
  8
0
  6
Continuous
 62
     7
370
    25
100
AcDbSpline
210
0.0
220
0.0
230
1.0
 70
     8
 71
     3
 72
     9
 73
     5
 74
     0
 42
0.000000001
 43
0.00000001
 40
0.0
 40
0.0
 40
0.0
 40
0.0
 40
0.5599962233702945
 40
1.0
 40
1.0
 40
1.0
 40
1.0
 10
685.6622536106023
 20
495.3540643900313
 30
0.0
 10
685.9176824431914
 20
495.5460371061428
 30
0.0
 10
686.3738084346345
 20
495.8888478396798
 30
0.0
 10
686.6500766778713
 20
496.0964860792003
 30
0.0
 10
686.7716357482585
 20
496.1878476887621
 30
0.0
  0
SPLINE
  5
88
330
1F
100
AcDbEntity
  8
0
  6
Continuous
 62
     7
370
    25
100
AcDbSpline
210
0.0
220
0.0
230
1.0
 70
     8
 71
     3
 72
    11
 73
     7
 74
     0
 42
0.000000001
 43
0.00000001
 40
0.0
 40
0.0
 40
0.0
 40
0.0
 40
0.2723653626903403
 40
0.5618904190971189
 40
0.787659478972378
 40
1.0
 40
1.0
 40
1.0
 40
1.0
 10
724.868724904767
 20
524.8205816596426
 30
0.0
 10
724.8642239265723
 20
524.8171959650658
 30
0.0
 10
724.8549383973879
 20
524.8102112687524
 30
0.0
 10
724.7860180199723
 20
524.7584259838152
 30
0.0
 10
724.6983044697095
 20
524.6924906747262
 30
0.0
 10
724.6351171877819
 20
524.6450026609054
 30
0.0
 10
724.6044919265422
 20
524.6219864338316
 30
0.0
  0
SPLINE
  5
89
330
1F
100
AcDbEntity
  8
0
  6
Continuous
 62
     7
370
    25
100
AcDbSpline
210
0.0
220
0.0
230
1.0
 70
     8
 71
     3
 72
    11
 73
     7
 74
     0
 42
0.000000001
 43
0.00000001
 40
0.0
 40
0.0
 40
0.0
 40
0.0
 40
0.2723393573136783
 40
0.5618785320944514
 40
0.7876559041998175
 40
1.0
 40
1.0
 40
1.0
 40
1.0
 10
681.9655679536971
 20
492.5757354348578
 30
0.0
 10
681.92638110155
 20
492.5462840709024
 30
0.0
 10
681.8455325191821
 20
492.4855213177306
 30
0.0
 10
681.7594811294207
 20
492.4208458196133
 30
0.0
 10
681.7096927817026
 20
492.3834293994739
 30
0.0
 10
681.7040633763376
 20
492.3791958206868
 30
0.0
 10
681.7013349754724
 20
492.3771439343371
 30
0.0
  0
LINE
  5
8A
330
1F
100
AcDbEntity
  8
0
  6
Continuous
 62
     7
370
    25
100
AcDbLine
 10
724.8687249048
 20
524.8205816596
 30
0.0
 11
723.9437055213
 21
525.983311817
 31
0.0
  0
LWPOLYLINE
  5
8B
330
1F
100
AcDbEntity
  8
0
  6
Continuous
 62
     7
370
    25
100
AcDbPolyline
 90
        3
 70
   128
 43
0.0
 10
716.7265748976
 20
532.0151975602
 10
715.2926314993
 20
532.7818623036
 10
714.3549628926
 20
533.2252016514
  0
LWPOLYLINE
  5
8C
330
1F
100
AcDbEntity
  8
0
  6
Continuous
 62
     7
370
    25
100
AcDbPolyline
 90
        3
 70
   128
 43
0.0
 10
705.235356665
 20
535.5283325761
 10
703.1621036985
 20
535.5985841006
 10
702.5738308111
 20
535.5894943922
  0
LWPOLYLINE
  5
8D
330
1F
100
AcDbEntity
  8
0
  6
Continuous
 62
     7
370
    25
100
AcDbPolyline
 90
        3
 70
   128
 43
0.0
 10
693.357709646
 20
533.7075894922
 10
691.0577265916
 20
532.6715266555
 10
690.9337247161
 20
532.6081371158
  0
LINE
  5
8E
330
1F
100
AcDbEntity
  8
0
  6
Continuous
 62
     7
370
    25
100
AcDbLine
 10
683.4462870283
 20
526.9134571999
 30
0.0
 11
681.7399531974
 21
524.8718342036
 31
0.0
  0
LWPOLYLINE
  5
8F
330
1F
100
AcDbEntity
  8
0
  6
Continuous
 62
     7
370
    25
100
AcDbPolyline
 90
        3
 70
   128
 43
0.0
 10
677.464389093
 20
516.491547808
 10
677.3843251539
 20
516.2247052639
 10
676.8131506069
 20
513.9129540175
  0
LWPOLYLINE
  5
90
330
1F
100
AcDbEntity
  8
0
  6
Continuous
 62
     7
370
    25
100
AcDbPolyline
 90
        3
 70
   128
 43
0.0
 10
676.597018577
 20
504.5061825066
 10
676.7168425394
 20
503.7893509715
 10
677.1287534757
 20
501.9019065648
  0
LINE
  5
91
330
1F
100
AcDbEntity
  8
0
  6
Continuous
 62
     7
370
    25
100
AcDbLine
 10
681.0161702706
 20
493.3313174396
 30
0.0
 11
681.7013349755
 21
492.3771439343
 31
0.0
  0
LINE
  5
92
330
1F
100
AcDbEntity
  8
0
  6
Continuous
 62
     7
370
    25
100
AcDbLine
 10
681.7013349755
 20
492.3771439343
 30
0.0
 11
682.6263543589
 21
491.2144100517
 31
0.0
  0
LWPOLYLINE
  5
93
330
1F
100
AcDbEntity
  8
0
  6
Continuous
 62
     7
370
    25
100
AcDbPolyline
 90
        3
 70
   128
 43
0.0
 10
689.8434849827
 20
485.1825243085
 10
691.277428381
 20
484.4158632904
 10
692.2150969876
 20
483.9725239426
  0
LWPOLYLINE
  5
94
330
1F
100
AcDbEntity
  8
0
  6
Continuous
 62
     7
370
    25
100
AcDbPolyline
 90
        3
 70
   128
 43
0.0
 10
701.3347032152
 20
481.6693930179
 10
703.4079561817
 20
481.5991414934
 10
703.9962290691
 20
481.6082312017
  0
LWPOLYLINE
  5
95
330
1F
100
AcDbEntity
  8
0
  6
Continuous
 62
     7
370
    25
100
AcDbPolyline
 90
        3
 70
   128
 43
0.0
 10
713.2123502342
 20
483.4901323765
 10
715.5123332886
 20
484.5261989385
 10
715.6363351641
 20
484.5895884782
  0
LINE
  5
96
330
1F
100
AcDbEntity
  8
0
  6
Continuous
 62
     7
370
    25
100
AcDbLine
 10
723.1237728519
 20
490.2842721194
 30
0.0
 11
724.8301066829
 21
492.3258876651
 31
0.0
  0
LWPOLYLINE
  5
97
330
1F
100
AcDbEntity
  8
0
  6
Continuous
 62
     7
370
    25
100
AcDbPolyline
 90
        3
 70
   128
 43
0.0
 10
729.1056707872
 20
500.7061740607
 10
729.1857347263
 20
500.9730166047
 10
729.7569092734
 20
503.2847715765
  0
LWPOLYLINE
  5
98
330
1F
100
AcDbEntity
  8
0
  6
Continuous
 62
     7
370
    25
100
AcDbPolyline
 90
        3
 70
   128
 43
0.0
 10
729.9730413033
 20
512.6915430873
 10
729.8532173408
 20
513.4083708971
 10
729.4413064046
 20
515.2958190292
  0
LINE
  5
99
330
1F
100
AcDbEntity
  8
0
  6
Continuous
 62
     7
370
    25
100
AcDbLine
 10
725.5538896097
 20
523.8664081543
 30
0.0
 11
724.8687249048
 21
524.8205816596
 31
0.0
  0
SPLINE
  5
9A
330
1F
100
AcDbEntity
  8
0
  6
Continuous
 62
     7
370
    25
100
AcDbSpline
210
0.0
220
0.0
230
1.0
 70
     8
 71
     3
 72
     9
 73
     5
 74
     0
 42
0.000000001
 43
0.00000001
 40
0.0
 40
0.0
 40
0.0
 40
0.0
 40
0.5600001251115571
 40
1.0
 40
1.0
 40
1.0
 40
1.0
 10
672.8009477628383
 20
485.4140809029021
 30
0.0
 10
672.6460866172113
 20
485.2963018044838
 30
0.0
 10
672.3695489189452
 20
485.0859820328681
 30
0.0
 10
672.0052859800959
 20
484.8089403695723
 30
0.0
 10
671.8450103325757
 20
484.6870420723833
 30
0.0
  0
SPLINE
  5
9B
330
1F
100
AcDbEntity
  8
0
  6
Continuous
 62
     7
370
    25
100
AcDbSpline
210
0.0
220
0.0
230
1.0
 70
     8
 71
     3
 72
     9
 73
     5
 74
     0
 42
0.000000001
 43
0.00000001
 40
0.0
 40
0.0
 40
0.0
 40
0.0
 40
0.5599958531316087
 40
1.0
 40
1.0
 40
1.0
 40
1.0
 10
734.7250495476636
 20
532.5106835215963
 30
0.0
 10
734.5201645060819
 20
532.3548596384421
 30
0.0
 10
734.1542956510966
 20
532.0766006436961
 30
0.0
 10
733.8868078563335
 20
531.8731570087969
 30
0.0
 10
733.769112117401
 20
531.7836409657873
 30
0.0
  0
ARC
  5
9C
330
1F
100
AcDbEntity
  8
0
  6
Continuous
 62
     7
370
    25
100
AcDbCircle
 10
703.2850299401
 20
508.5988622754
 30
0.0
 40
38.29899805700022
100
AcDbArc
 50
37.2549368278
 51
217.2549368278
  0
ARC
  5
9D
330
1F
100
AcDbEntity
  8
0
  6
Continuous
 62
     7
370
    25
100
AcDbCircle
 10
703.2850299401
 20
508.5988622754
 30
0.0
 40
39.50000000000034
100
AcDbArc
 50
37.2549368278
 51
217.2549368513
  0
ARC
  5
9E
330
1F
100
AcDbEntity
  8
0
  6
Continuous
 62
     7
370
    25
100
AcDbCircle
 10
703.2850299401
 20
508.5988622754
 30
0.0
 40
38.29899805700022
100
AcDbArc
 50
217.2549368278
 51
37.2549368278
  0
ARC
  5
9F
330
1F
100
AcDbEntity
  8
0
  6
Continuous
 62
     7
370
    25
100
AcDbCircle
 10
703.2850299401
 20
508.5988622754
 30
0.0
 40
39.50000000000034
100
AcDbArc
 50
217.2549368513
 51
37.2549368176
  0
SPLINE
  5
A0
330
1F
100
AcDbEntity
  8
0
  6
Continuous
 62
     7
370
    25
100
AcDbSpline
210
0.0
220
0.0
230
1.0
 70
     8
 71
     3
 72
    12
 73
     8
 74
     0
 42
0.000000001
 43
0.00000001
 40
0.0
 40
0.0
 40
0.0
 40
0.0
 40
0.3203776718375385
 40
0.5620035187559889
 40
0.7625104391705972
 40
0.896461976749167
 40
1.0
 40
1.0
 40
1.0
 40
1.0
 10
721.345986090413
 20
540.0980195253767
 30
0.0
 10
721.3867822624326
 20
540.1962826348048
 30
0.0
 10
721.4583465262443
 20
540.368654863324
 30
0.0
 10
721.4249059579954
 20
540.6435865653609
 30
0.0
 10
721.3225275348401
 20
540.849978409068
 30
0.0
 10
721.1896611316009
 20
540.9909733199935
 30
0.0
 10
721.0969708857242
 20
541.0454725487328
 30
0.0
 10
721.0565608365449
 20
541.0692325085081
 30
0.0
  0
LINE
  5
A1
330
1F
100
AcDbEntity
  8
0
  6
Continuous
 62
     7
370
    25
100
AcDbLine
 10
719.1442091389
 20
542.04491584
 30
0.0
 11
721.0565608365
 21
541.0692325085
 31
0.0
  0
SPLINE
  5
A2
330
1F
100
AcDbEntity
  8
0
  6
Continuous
 62
     7
370
    25
100
AcDbSpline
210
0.0
220
0.0
230
1.0
 70
     8
 71
     3
 72
    12
 73
     8
 74
     0
 42
0.000000001
 43
0.00000001
 40
0.0
 40
0.0
 40
0.0
 40
0.0
 40
0.1369211770380811
 40
0.2732896186500516
 40
0.4609256991288925
 40
0.7173044871021413
 40
1.0
 40
1.0
 40
1.0
 40
1.0
 10
719.1442091388616
 20
542.0449158399977
 30
0.0
 10
719.0866979262964
 20
542.0687521015489
 30
0.0
 10
718.9719076674772
 20
542.1163284003381
 30
0.0
 10
718.7719126415192
 20
542.1283988583554
 30
0.0
 10
718.5498255721012
 20
542.0801831737679
 30
0.0
 10
718.3271400676562
 20
541.9430607077535
 30
0.0
 10
718.2358663832081
 20
541.7896696239258
 30
0.0
 10
718.1880016250524
 20
541.7092299312033
 30
0.0
  0
SPLINE
  5
A3
330
1F
100
AcDbEntity
  8
0
  6
Continuous
 62
     7
370
    25
100
AcDbSpline
210
0.0
220
0.0
230
1.0
 70
     8
 71
     3
 72
    11
 73
     7
 74
     0
 42
0.000000001
 43
0.00000001
 40
0.0
 40
0.0
 40
0.0
 40
0.0
 40
0.2603296347196679
 40
0.5282088634201298
 40
0.7614184601242087
 40
1.0
 40
1.0
 40
1.0
 40
1.0
 10
711.3540692625555
 20
526.5602028220571
 30
0.0
 10
712.010684644324
 20
528.0157451324542
 30
0.0
 10
713.3429573411366
 20
530.9690406735577
 30
0.0
 10
715.1599220147622
 20
534.9967804438548
 30
0.0
 10
716.8089409846558
 20
538.6522161029766
 30
0.0
 10
717.7248385247913
 20
540.6825194583303
 30
0.0
 10
718.1880016250524
 20
541.7092299312033
 30
0.0
  0
SPLINE
  5
A4
330
1F
100
AcDbEntity
  8
0
  6
Continuous
 62
     7
370
    25
100
AcDbSpline
210
0.0
220
0.0
230
1.0
 70
     8
 71
     3
 72
    12
 73
     8
 74
     0
 42
0.000000001
 43
0.00000001
 40
0.0
 40
0.0
 40
0.0
 40
0.0
 40
0.2229039177678846
 40
0.44583515174703
 40
0.6679338732502443
 40
0.8889144564417135
 40
1.0
 40
1.0
 40
1.0
 40
1.0
 10
711.3540692625555
 20
526.5602028220571
 30
0.0
 10
711.3286975045318
 20
526.4850413752644
 30
0.0
 10
711.277950879251
 20
526.334709270867
 30
0.0
 10
711.3022295390948
 20
526.0928756717386
 30
0.0
 10
711.4000603429903
 20
525.8749795674098
 30
0.0
 10
711.5375839798268
 20
525.72743220035
 30
0.0
 10
711.6398190220402
 20
525.6685243491667
 30
0.0
 10
711.6740195451292
 20
525.648818001119
 30
0.0
  0
LINE
  5
A5
330
1F
100
AcDbEntity
  8
0
  6
Continuous
 62
     7
370
    25
100
AcDbLine
 10
712.1658640353
 20
525.3978824466
 30
0.0
 11
711.6740195451
 21
525.6488180011
 31
0.0
  0
SPLINE
  5
A6
330
1F
100
AcDbEntity
  8
0
  6
Continuous
 62
     7
370
    25
100
AcDbSpline
210
0.0
220
0.0
230
1.0
 70
     8
 71
     3
 72
    12
 73
     8
 74
     0
 42
0.000000001
 43
0.00000001
 40
0.0
 40
0.0
 40
0.0
 40
0.0
 40
0.2201348682958061
 40
0.4402564043166793
 40
0.6607467677289575
 40
0.8821621119503646
 40
1.0
 40
1.0
 40
1.0
 40
1.0
 10
712.1658640352997
 20
525.3978824466146
 30
0.0
 10
712.239230630166
 20
525.3690839340595
 30
0.0
 10
712.3859593765155
 20
525.311488653106
 30
0.0
 10
712.6267001813908
 20
525.3232119919786
 30
0.0
 10
712.8479827010415
 20
525.4084271891579
 30
0.0
 10
713.0039622856297
 20
525.538084783531
 30
0.0
 10
713.0689659610756
 20
525.6387627589525
 30
0.0
 10
713.0915446577582
 20
525.6737327426351
 30
0.0
  0
SPLINE
  5
A7
330
1F
100
AcDbEntity
  8
0
  6
Continuous
 62
     7
370
    25
100
AcDbSpline
210
0.0
220
0.0
230
1.0
 70
     8
 71
     3
 72
    11
 73
     7
 74
     0
 42
0.000000001
 43
0.00000001
 40
0.0
 40
0.0
 40
0.0
 40
0.0
 40
0.2832273728794311
 40
0.5762691222815665
 40
0.7861906279075918
 40
1.0
 40
1.0
 40
1.0
 40
1.0
 10
721.345986090413
 20
540.0980195253767
 30
0.0
 10
720.6767472933423
 20
538.9285531491503
 30
0.0
 10
719.3150792798876
 20
536.5490961238128
 30
0.0
 10
717.1326950260991
 20
532.7354701187287
 30
0.0
 10
715.0350290637207
 20
529.0698953683633
 30
0.0
 10
713.7433233974275
 20
526.8126904770622
 30
0.0
 10
713.0915446577582
 20
525.6737327426351
 30
0.0
  0
SPLINE
  5
A8
330
1F
100
AcDbEntity
  8
0
  6
Continuous
 62
     7
370
    25
100
AcDbSpline
210
0.0
220
0.0
230
1.0
 70
     8
 71
     3
 72
    13
 73
     9
 74
     0
 42
0.000000001
 43
0.00000001
 40
0.0
 40
0.0
 40
0.0
 40
0.0
 40
0.320180653944071
 40
0.4946673499631907
 40
0.6890179562739754
 40
0.8387702258334478
 40
0.9672346013770845
 40
1.0
 40
1.0
 40
1.0
 40
1.0
 10
705.8904160184774
 20
544.8149746507086
 30
0.0
 10
705.8847798756606
 20
544.9213601516658
 30
0.0
 10
705.8760722420267
 20
545.0857218430571
 30
0.0
 10
705.7536808310368
 20
545.2975068976964
 30
0.0
 10
705.6121442232627
 20
545.4378606355219
 30
0.0
 10
705.4337230925588
 20
545.5300142096177
 30
0.0
 10
705.2955768863125
 20
545.5607008250627
 30
0.0
 10
705.2230082849925
 20
545.5638051393232
 30
0.0
 10
705.208260766043
 20
545.5644360035337
 30
0.0
  0
LINE
  5
A9
330
1F
100
AcDbEntity
  8
0
  6
Continuous
 62
     7
370
    25
100
AcDbLine
 10
703.0619560209
 20
545.6137588471
 30
0.0
 11
705.208260766
 21
545.5644360035
 31
0.0
  0
SPLINE
  5
AA
330
1F
100
AcDbEntity
  8
0
  6
Continuous
 62
     7
370
    25
100
AcDbSpline
210
0.0
220
0.0
230
1.0
 70
     8
 71
     3
 72
    12
 73
     8
 74
     0
 42
0.000000001
 43
0.00000001
 40
0.0
 40
0.0
 40
0.0
 40
0.0
 40
0.136920361971302
 40
0.2732893293816487
 40
0.4609255473949422
 40
0.7173045640740274
 40
1.0
 40
1.0
 40
1.0
 40
1.0
 10
703.0619560209324
 20
545.6137588470854
 30
0.0
 10
702.9997987577732
 20
545.6102798372027
 30
0.0
 10
702.8757345461368
 20
545.603335827823
 30
0.0
 10
702.6903089568569
 20
545.5274364988784
 30
0.0
 10
702.5111361434409
 20
545.3876354370226
 30
0.0
 10
702.3699986909509
 20
545.1674741756066
 30
0.0
 10
702.3543164365361
 20
544.9896725839147
 30
0.0
 10
702.3460925228882
 20
544.8964318483747
 30
0.0
  0
SPLINE
  5
AB
330
1F
100
AcDbEntity
  8
0
  6
Continuous
 62
     7
370
    25
100
AcDbSpline
210
0.0
220
0.0
230
1.0
 70
     8
 71
     3
 72
    11
 73
     7
 74
     0
 42
0.000000001
 43
0.00000001
 40
0.0
 40
0.0
 40
0.0
 40
0.0
 40
0.2603296592890705
 40
0.5282085862533993
 40
0.7614183211179307
 40
1.0
 40
1.0
 40
1.0
 40
1.0
 10
702.7618506944726
 20
528.2824939340032
 30
0.0
 10
702.7219039798482
 20
529.878787491019
 30
0.0
 10
702.64085214075
 20
533.1176653249903
 30
0.0
 10
702.5303126039648
 20
537.5348834126341
 30
0.0
 10
702.4299909056045
 20
541.5438013853295
 30
0.0
 10
702.3742701343597
 20
543.7704373352877
 30
0.0
 10
702.3460925228882
 20
544.8964318483747
 30
0.0
  0
SPLINE
  5
AC
330
1F
100
AcDbEntity
  8
0
  6
Continuous
 62
     7
370
    25
100
AcDbSpline
210
0.0
220
0.0
230
1.0
 70
     8
 71
     3
 72
    12
 73
     8
 74
     0
 42
0.000000001
 43
0.00000001
 40
0.0
 40
0.0
 40
0.0
 40
0.0
 40
0.2228974437791256
 40
0.4458335450305019
 40
0.667930302616271
 40
0.8889148236201972
 40
1.0
 40
1.0
 40
1.0
 40
1.0
 10
702.7618506944726
 20
528.2824939340032
 30
0.0
 10
702.7716023956137
 20
528.2037703015692
 30
0.0
 10
702.7911074891498
 20
528.0463093835311
 30
0.0
 10
702.9179051375849
 20
527.8389574156491
 30
0.0
 10
703.1005951758891
 20
527.6850941103291
 30
0.0
 10
703.2885140086686
 20
527.6118169464783
 30
0.0
 10
703.406185224225
 20
527.6031060993087
 30
0.0
 10
703.4455490319978
 20
527.6001921146787
 30
0.0
  0
LINE
  5
AD
330
1F
100
AcDbEntity
  8
0
  6
Continuous
 62
     7
370
    25
100
AcDbLine
 10
703.9975644111
 20
527.5875037759
 30
0.0
 11
703.445549032
 21
527.6001921147
 31
0.0
  0
SPLINE
  5
AE
330
1F
100
AcDbEntity
  8
0
  6
Continuous
 62
     7
370
    25
100
AcDbSpline
210
0.0
220
0.0
230
1.0
 70
     8
 71
     3
 72
    12
 73
     8
 74
     0
 42
0.000000001
 43
0.00000001
 40
0.0
 40
0.0
 40
0.0
 40
0.0
 40
0.2201346354297664
 40
0.4402560626624384
 40
0.660744647926705
 40
0.8821631240702884
 40
1.0
 40
1.0
 40
1.0
 40
1.0
 10
703.997564411069
 20
527.5875037759222
 30
0.0
 10
704.0761605674318
 20
527.593390916439
 30
0.0
 10
704.2333481643454
 20
527.6051648442411
 30
0.0
 10
704.4451601206846
 20
527.7201808703636
 30
0.0
 10
704.6075595381476
 20
527.8929656388556
 30
0.0
 10
704.6918318097025
 20
528.0774630152973
 30
0.0
 10
704.7067151255523
 20
528.1963756162563
 30
0.0
 10
704.7118846930551
 20
528.2376786917127
 30
0.0
  0
SPLINE
  5
AF
330
1F
100
AcDbEntity
  8
0
  6
Continuous
 62
     7
370
    25
100
AcDbSpline
210
0.0
220
0.0
230
1.0
 70
     8
 71
     3
 72
    11
 73
     7
 74
     0
 42
0.000000001
 43
0.00000001
 40
0.0
 40
0.0
 40
0.0
 40
0.0
 40
0.2832271094886442
 40
0.5762691143227924
 40
0.7861907209606691
 40
1.0
 40
1.0
 40
1.0
 40
1.0
 10
705.8904160184774
 20
544.8149746507086
 30
0.0
 10
705.7948650851529
 20
543.4709528598077
 30
0.0
 10
705.6004520156591
 20
540.7363338169082
 30
0.0
 10
705.2888617745721
 20
536.3534725824784
 30
0.0
 10
704.9893664202586
 20
532.1407601310485
 30
0.0
 10
704.8049426230858
 20
529.546639404717
 30
0.0
 10
704.7118846930551
 20
528.2376786917127
 30
0.0
  0
SPLINE
  5
B0
330
1F
100
AcDbEntity
  8
0
  6
Continuous
 62
     7
370
    25
100
AcDbSpline
210
0.0
220
0.0
230
1.0
 70
     8
 71
     3
 72
    13
 73
     9
 74
     0
 42
0.000000001
 43
0.00000001
 40
0.0
 40
0.0
 40
0.0
 40
0.0
 40
0.1923237639759501
 40
0.454085027362719
 40
0.6566885912455394
 40
0.8131117910950466
 40
0.944196111439668
 40
1.0
 40
1.0
 40
1.0
 40
1.0
 10
689.9188178030762
 20
542.3588907569326
 30
0.0
 10
689.8907848200321
 20
542.415824209127
 30
0.0
 10
689.8245976905299
 20
542.5502466417116
 30
0.0
 10
689.6533817997725
 20
542.702093510961
 30
0.0
 10
689.4370001205706
 20
542.7914771857943
 30
0.0
 10
689.2328447219362
 20
542.8078705659369
 30
0.0
 10
689.0802178796315
 20
542.7801070073955
 30
0.0
 10
689.0023050616169
 20
542.7477956665412
 30
0.0
 10
688.9790406821284
 20
542.7381476610578
 30
0.0
  0
LINE
  5
B1
330
1F
100
AcDbEntity
  8
0
  6
Continuous
 62
     7
370
    25
100
AcDbLine
 10
687.0238863302
 20
541.8513423055
 30
0.0
 11
688.9790406821
 21
542.7381476611
 31
0.0
  0
SPLINE
  5
B2
330
1F
100
AcDbEntity
  8
0
  6
Continuous
 62
     7
370
    25
100
AcDbSpline
210
0.0
220
0.0
230
1.0
 70
     8
 71
     3
 72
    12
 73
     8
 74
     0
 42
0.000000001
 43
0.00000001
 40
0.0
 40
0.0
 40
0.0
 40
0.0
 40
0.1369199805965993
 40
0.2732870493643306
 40
0.4609235637486404
 40
0.7173061731475847
 40
1.0
 40
1.0
 40
1.0
 40
1.0
 10
687.0238863302383
 20
541.851342305509
 30
0.0
 10
686.9693944294138
 20
541.8212384872977
 30
0.0
 10
686.8606306775813
 20
541.7611524164577
 30
0.0
 10
686.7264931783827
 20
541.612323283295
 30
0.0
 10
686.6257257237957
 20
541.4086220450694
 30
0.0
 10
686.5940899867538
 20
541.1490212906367
 30
0.0
 10
686.6571064104066
 20
540.9820235943158
 30
0.0
 10
686.6901524735603
 20
540.8944493382849
 30
0.0
  0
SPLINE
  5
B3
330
1F
100
AcDbEntity
  8
0
  6
Continuous
 62
     7
370
    25
100
AcDbSpline
210
0.0
220
0.0
230
1.0
 70
     8
 71
     3
 72
    11
 73
     7
 74
     0
 42
0.000000001
 43
0.00000001
 40
0.0
 40
0.0
 40
0.0
 40
0.0
 40
0.2603296821811515
 40
0.5282089031784052
 40
0.7614185485395459
 40
1.0
 40
1.0
 40
1.0
 40
1.0
 10
694.2732546849164
 20
526.1062016933836
 30
0.0
 10
693.5446576951723
 20
527.5270799850962
 30
0.0
 10
692.0663344644621
 20
530.4100419190843
 30
0.0
 10
690.0501830265562
 20
534.3418592949705
 30
0.0
 10
688.2203930907385
 20
537.9102413104334
 30
0.0
 10
687.2040898834631
 20
539.8921911788633
 30
0.0
 10
686.6901524735603
 20
540.8944493382849
 30
0.0
  0
SPLINE
  5
B4
330
1F
100
AcDbEntity
  8
0
  6
Continuous
 62
     7
370
    25
100
AcDbSpline
210
0.0
220
0.0
230
1.0
 70
     8
 71
     3
 72
    12
 73
     8
 74
     0
 42
0.000000001
 43
0.00000001
 40
0.0
 40
0.0
 40
0.0
 40
0.0
 40
0.2229011282658774
 40
0.4458314400359833
 40
0.6679312970503039
 40
0.8889144167805155
 40
1.0
 40
1.0
 40
1.0
 40
1.0
 10
694.2732546849164
 20
526.1062016933836
 30
0.0
 10
694.316197262896
 20
526.0395028444781
 30
0.0
 10
694.4020880411462
 20
525.9060964140683
 30
0.0
 10
694.6063021396612
 20
525.7743073030564
 30
0.0
 10
694.8376538190679
 20
525.7149302047779
 30
0.0
 10
695.0387561563324
 20
525.7304610759537
 30
0.0
 10
695.1485552144786
 20
525.7736621706719
 30
0.0
 10
695.1852858437213
 20
525.7881140559591
 30
0.0
  0
LINE
  5
B5
330
1F
100
AcDbEntity
  8
0
  6
Continuous
 62
     7
370
    25
100
AcDbLine
 10
695.6881385667
 20
526.0161912292
 30
0.0
 11
695.1852858437
 21
525.788114056
 31
0.0
  0
SPLINE
  5
B6
330
1F
100
AcDbEntity
  8
0
  6
Continuous
 62
     7
370
    25
100
AcDbSpline
210
0.0
220
0.0
230
1.0
 70
     8
 71
     3
 72
    12
 73
     8
 74
     0
 42
0.000000001
 43
0.00000001
 40
0.0
 40
0.0
 40
0.0
 40
0.0
 40
0.2201342860029334
 40
0.4402540384711093
 40
0.6607457675186874
 40
0.8821622156784702
 40
1.0
 40
1.0
 40
1.0
 40
1.0
 10
695.6881385667238
 20
526.0161912291921
 30
0.0
 10
695.7563972908066
 20
526.0555968132604
 30
0.0
 10
695.8929102324481
 20
526.1344053797919
 30
0.0
 10
696.0338455055934
 20
526.3299336340408
 30
0.0
 10
696.1051891451182
 20
526.5560722758012
 30
0.0
 10
696.1010687569357
 20
526.7588647016339
 30
0.0
 10
696.0628822307757
 20
526.8724587609267
 30
0.0
 10
696.0496183855447
 20
526.9119149297155
 30
0.0
  0
SPLINE
  5
B7
330
1F
100
AcDbEntity
  8
0
  6
Continuous
 62
     7
370
    25
100
AcDbSpline
210
0.0
220
0.0
230
1.0
 70
     8
 71
     3
 72
    11
 73
     7
 74
     0
 42
0.000000001
 43
0.00000001
 40
0.0
 40
0.0
 40
0.0
 40
0.0
 40
0.283227282815335
 40
0.5762690132422065
 40
0.786190863483524
 40
1.0
 40
1.0
 40
1.0
 40
1.0
 10
689.9188178030762
 20
542.3588907569326
 30
0.0
 10
690.4158795413349
 20
541.106509322356
 30
0.0
 10
691.4272272991481
 20
538.5583486849612
 30
0.0
 10
693.0481457485661
 20
534.4743343922798
 30
0.0
 10
694.6061377218473
 20
530.5488646590252
 30
0.0
 10
695.5655243763734
 20
528.1316233885085
 30
0.0
 10
696.0496183855446
 20
526.9119149297155
 30
0.0
  0
SPLINE
  5
B8
330
1F
100
AcDbEntity
  8
0
  6
Continuous
 62
     7
370
    25
100
AcDbSpline
210
0.0
220
0.0
230
1.0
 70
     8
 71
     3
 72
    12
 73
     8
 74
     0
 42
0.000000001
 43
0.00000001
 40
0.0
 40
0.0
 40
0.0
 40
0.0
 40
0.3203294131191162
 40
0.5619225620104299
 40
0.7389269968622763
 40
0.8801329527584713
 40
1.0
 40
1.0
 40
1.0
 40
1.0
 10
676.5945617480191
 20
533.216216251222
 30
0.0
 10
676.5078815197812
 20
533.2778663836815
 30
0.0
 10
676.3558268724956
 20
533.3860131818246
 30
0.0
 10
676.0884263410511
 20
533.4135803259609
 30
0.0
 10
675.8725409275916
 20
533.3654515999358
 30
0.0
 10
675.7030246519922
 20
533.2747828712983
 30
0.0
 10
675.6209714458046
 20
533.1893735715198
 30
0.0
 10
675.583298168889
 20
533.1501594036497
 30
0.0
  0
LINE
  5
B9
330
1F
100
AcDbEntity
  8
0
  6
Continuous
 62
     7
370
    25
100
AcDbLine
 10
674.2065351827
 20
531.502865836
 30
0.0
 11
675.5832981689
 21
533.1501594036
 31
0.0
  0
SPLINE
  5
BA
330
1F
100
AcDbEntity
  8
0
  6
Continuous
 62
     7
370
    25
100
AcDbSpline
210
0.0
220
0.0
230
1.0
 70
     8
 71
     3
 72
    12
 73
     8
 74
     0
 42
0.000000001
 43
0.00000001
 40
0.0
 40
0.0
 40
0.0
 40
0.0
 40
0.1369184239599364
 40
0.2732870284191684
 40
0.4609255348627848
 40
0.7173065871350097
 40
1.0
 40
1.0
 40
1.0
 40
1.0
 10
674.2065351827058
 20
531.5028658359922
 30
0.0
 10
674.1705011584899
 20
531.4521010440867
 30
0.0
 10
674.0985778108853
 20
531.3507753150361
 30
0.0
 10
674.0423019410807
 20
531.1584828424566
 30
0.0
 10
674.039895735806
 20
530.9312317302811
 30
0.0
 10
674.1240264900014
 20
530.6836147919456
 30
0.0
 10
674.2532596078977
 20
530.5604978991631
 30
0.0
 10
674.3210301173839
 20
530.4959347694792
 30
0.0
  0
SPLINE
  5
BB
330
1F
100
AcDbEntity
  8
0
  6
Continuous
 62
     7
370
    25
100
AcDbSpline
210
0.0
220
0.0
230
1.0
 70
     8
 71
     3
 72
    11
 73
     7
 74
     0
 42
0.000000001
 43
0.00000001
 40
0.0
 40
0.0
 40
0.0
 40
0.0
 40
0.2603296871921252
 40
0.5282089447426949
 40
0.7614185314292363
 40
1.0
 40
1.0
 40
1.0
 40
1.0
 10
687.5695500893505
 20
520.462364539472
 30
0.0
 10
686.2966107535507
 20
521.4264054938892
 30
0.0
 10
683.7138167951032
 20
523.3824446253219
 30
0.0
 10
680.1913784802568
 20
526.0501199776986
 30
0.0
 10
676.9945292706267
 20
528.4712018663297
 30
0.0
 10
675.218935558273
 20
529.8159200824052
 30
0.0
 10
674.3210301173839
 20
530.4959347694792
 30
0.0
  0
SPLINE
  5
BC
330
1F
100
AcDbEntity
  8
0
  6
Continuous
 62
     7
370
    25
100
AcDbSpline
210
0.0
220
0.0
230
1.0
 70
     8
 71
     3
 72
    12
 73
     8
 74
     0
 42
0.000000001
 43
0.00000001
 40
0.0
 40
0.0
 40
0.0
 40
0.0
 40
0.2229006243041422
 40
0.4458332161574031
 40
0.667931793521927
 40
0.8889146264064929
 40
1.0
 40
1.0
 40
1.0
 40
1.0
 10
687.5695500893506
 20
520.462364539472
 30
0.0
 10
687.6371794621464
 20
520.420903293226
 30
0.0
 10
687.7724479068823
 20
520.3379748545221
 30
0.0
 10
688.01362051644
 20
520.3078453262915
 30
0.0
 10
688.2478224638334
 20
520.3547296743707
 30
0.0
 10
688.4222739839578
 20
520.4559713076696
 30
0.0
 10
688.5024538935719
 20
520.5425353052395
 30
0.0
 10
688.5292761398467
 20
520.5714931934751
 30
0.0
  0
LINE
  5
BD
330
1F
100
AcDbEntity
  8
0
  6
Continuous
 62
     7
370
    25
100
AcDbLine
 10
688.8833696393
 20
520.9951704591
 30
0.0
 11
688.5292761398
 21
520.5714931935
 31
0.0
  0
SPLINE
  5
BE
330
1F
100
AcDbEntity
  8
0
  6
Continuous
 62
     7
370
    25
100
AcDbSpline
210
0.0
220
0.0
230
1.0
 70
     8
 71
     3
 72
    12
 73
     8
 74
     0
 42
0.000000001
 43
0.00000001
 40
0.0
 40
0.0
 40
0.0
 40
0.0
 40
0.2201364103223283
 40
0.4402607627684708
 40
0.6607551138772423
 40
0.883418257944347
 40
1.0
 40
1.0
 40
1.0
 40
1.0
 10
688.8833696393284
 20
520.9951704591192
 30
0.0
 10
688.9277719853764
 20
521.060288891759
 30
0.0
 10
689.0165742453534
 20
521.1905221902049
 30
0.0
 10
689.0587114902938
 20
521.4278365810146
 30
0.0
 10
689.0248198365537
 20
521.662974449417
 30
0.0
 10
688.9329168174087
 20
521.843845733017
 30
0.0
 10
688.8491876744026
 20
521.9295648382415
 30
0.0
 10
688.8204140959296
 20
521.9590222686209
 30
0.0
  0
SPLINE
  5
BF
330
1F
100
AcDbEntity
  8
0
  6
Continuous
 62
     7
370
    25
100
AcDbSpline
210
0.0
220
0.0
230
1.0
 70
     8
 71
     3
 72
    11
 73
     7
 74
     0
 42
0.000000001
 43
0.00000001
 40
0.0
 40
0.0
 40
0.0
 40
0.0
 40
0.2832273552435761
 40
0.5762691299692262
 40
0.7861909182881263
 40
1.0
 40
1.0
 40
1.0
 40
1.0
 10
676.5945617480191
 20
533.216216251222
 30
0.0
 10
677.5857864706218
 20
532.3035248649462
 30
0.0
 10
679.6025839229972
 20
530.4465154293738
 30
0.0
 10
682.8349721744157
 20
527.4702382698256
 30
0.0
 10
685.9418684717217
 20
524.609495945828
 30
0.0
 10
687.8550484041084
 20
522.8479004345714
 30
0.0
 10
688.8204140959296
 20
521.9590222686209
 30
0.0
  0
SPLINE
  5
C0
330
1F
100
AcDbEntity
  8
0
  6
Continuous
 62
     7
370
    25
100
AcDbSpline
210
0.0
220
0.0
230
1.0
 70
     8
 71
     3
 72
    12
 73
     8
 74
     0
 42
0.000000001
 43
0.00000001
 40
0.0
 40
0.0
 40
0.0
 40
0.0
 40
0.3203322199814717
 40
0.561925792397555
 40
0.7389308967885795
 40
0.8801325772521164
 40
1.0
 40
1.0
 40
1.0
 40
1.0
 10
668.5566816849622
 20
519.1977700441755
 30
0.0
 10
668.4518347486753
 20
519.2157098943203
 30
0.0
 10
668.2679125763855
 20
519.2471799241182
 30
0.0
 10
668.0150345644091
 20
519.1559819429026
 30
0.0
 10
667.8414163071119
 20
519.0189494997127
 30
0.0
 10
667.7280150274266
 20
518.8637206310774
 30
0.0
 10
667.6911499819955
 20
518.7511677236331
 30
0.0
 10
667.6742237431916
 20
518.6994901150144
 30
0.0
  0
LINE
  5
C1
330
1F
100
AcDbEntity
  8
0
  6
Continuous
 62
     7
370
    25
100
AcDbLine
 10
667.1485368533
 20
516.6179692596
 30
0.0
 11
667.6742237432
 21
518.699490115
 31
0.0
  0
SPLINE
  5
C2
330
1F
100
AcDbEntity
  8
0
  6
Continuous
 62
     7
370
    25
100
AcDbSpline
210
0.0
220
0.0
230
1.0
 70
     8
 71
     3
 72
    12
 73
     8
 74
     0
 42
0.000000001
 43
0.00000001
 40
0.0
 40
0.0
 40
0.0
 40
0.0
 40
0.1369176958056372
 40
0.2732883249290468
 40
0.460924307169467
 40
0.7173063779520226
 40
1.0
 40
1.0
 40
1.0
 40
1.0
 10
667.1485368533048
 20
516.6179692595877
 30
0.0
 10
667.1380982040558
 20
516.5565975670352
 30
0.0
 10
667.117262614098
 20
516.4340993979195
 30
0.0
 10
667.1499905163893
 20
516.2364323958379
 30
0.0
 10
667.2464214549182
 20
516.0306438425717
 30
0.0
 10
667.4296573977122
 20
515.8440494679207
 30
0.0
 10
667.5995121640677
 20
515.7892003497258
 30
0.0
 10
667.6885847372922
 20
515.7604372352041
 30
0.0
  0
SPLINE
  5
C3
330
1F
100
AcDbEntity
  8
0
  6
Continuous
 62
     7
370
    25
100
AcDbSpline
210
0.0
220
0.0
230
1.0
 70
     8
 71
     3
 72
    11
 73
     7
 74
     0
 42
0.000000001
 43
0.00000001
 40
0.0
 40
0.0
 40
0.0
 40
0.0
 40
0.2603296722819631
 40
0.5282087440792841
 40
0.7614185296634643
 40
1.0
 40
1.0
 40
1.0
 40
1.0
 10
683.9784894509228
 20
512.4688228815473
 30
0.0
 10
682.4133296226812
 20
512.7850877351557
 30
0.0
 10
679.2376212990315
 20
513.4267889275571
 30
0.0
 10
674.9065508775948
 20
514.3019310369376
 30
0.0
 10
670.9758231343492
 20
515.0962059730315
 30
0.0
 10
668.7926166646562
 20
515.5373525568162
 30
0.0
 10
667.6885847372922
 20
515.7604372352041
 30
0.0
  0
SPLINE
  5
C4
330
1F
100
AcDbEntity
  8
0
  6
Continuous
 62
     7
370
    25
100
AcDbSpline
210
0.0
220
0.0
230
1.0
 70
     8
 71
     3
 72
    12
 73
     8
 74
     0
 42
0.000000001
 43
0.00000001
 40
0.0
 40
0.0
 40
0.0
 40
0.0
 40
0.2229000378784013
 40
0.4458311771523348
 40
0.6679317052228048
 40
0.8889121295172309
 40
1.0
 40
1.0
 40
1.0
 40
1.0
 10
683.9784894509229
 20
512.4688228815473
 30
0.0
 10
684.0574104916933
 20
512.460812305514
 30
0.0
 10
684.2152635851414
 20
512.444790035726
 30
0.0
 10
684.4456342690087
 20
512.522264215102
 30
0.0
 10
684.636292970445
 20
512.6661363541782
 30
0.0
 10
684.74954305573
 20
512.833042824998
 30
0.0
 10
684.7842223536928
 20
512.9458244832263
 30
0.0
 10
684.7958237303409
 20
512.9835536926664
 30
0.0
  0
LINE
  5
C5
330
1F
100
AcDbEntity
  8
0
  6
Continuous
 62
     7
370
    25
100
AcDbLine
 10
684.9310275538
 20
513.5189002603
 30
0.0
 11
684.7958237303
 21
512.9835536927
 31
0.0
  0
SPLINE
  5
C6
330
1F
100
AcDbEntity
  8
0
  6
Continuous
 62
     7
370
    25
100
AcDbSpline
210
0.0
220
0.0
230
1.0
 70
     8
 71
     3
 72
    12
 73
     8
 74
     0
 42
0.000000001
 43
0.00000001
 40
0.0
 40
0.0
 40
0.0
 40
0.0
 40
0.2200856040249165
 40
0.440159083555312
 40
0.5885359092603211
 40
0.8110264030446839
 40
1.0
 40
1.0
 40
1.0
 40
1.0
 10
684.931027553788
 20
513.5189002602972
 30
0.0
 10
684.9428039973388
 20
513.5968133977373
 30
0.0
 10
684.9663562356773
 20
513.7526353803901
 30
0.0
 10
684.908100867152
 20
513.9597106649654
 30
0.0
 10
684.8008367464408
 20
514.1397177744565
 30
0.0
 10
684.6540600021858
 20
514.2811871142907
 30
0.0
 10
684.5184055239442
 20
514.3351878650031
 30
0.0
 10
684.4561033321532
 20
514.3599888533033
 30
0.0
  0
SPLINE
  5
C7
330
1F
100
AcDbEntity
  8
0
  6
Continuous
 62
     7
370
    25
100
AcDbSpline
210
0.0
220
0.0
230
1.0
 70
     8
 71
     3
 72
    11
 73
     7
 74
     0
 42
0.000000001
 43
0.00000001
 40
0.0
 40
0.0
 40
0.0
 40
0.0
 40
0.2832272322429453
 40
0.5762691305237903
 40
0.7861908287229725
 40
1.0
 40
1.0
 40
1.0
 40
1.0
 10
668.5566816849622
 20
519.1977700441755
 30
0.0
 10
669.845745734723
 20
518.8055433811801
 30
0.0
 10
672.4685437378047
 20
518.0074982346641
 30
0.0
 10
676.6721781587033
 20
516.7284298578894
 30
0.0
 10
680.7126283018758
 20
515.4990367176318
 30
0.0
 10
683.20066956681
 20
514.7419866328141
 30
0.0
 10
684.4561033321532
 20
514.3599888533033
 30
0.0
  0
SPLINE
  5
C8
330
1F
100
AcDbEntity
  8
0
  6
Continuous
 62
     7
370
    25
100
AcDbSpline
210
0.0
220
0.0
230
1.0
 70
     8
 71
     3
 72
    12
 73
     8
 74
     0
 42
0.000000001
 43
0.00000001
 40
0.0
 40
0.0
 40
0.0
 40
0.0
 40
0.3203302966149828
 40
0.5619231999456664
 40
0.738929156802966
 40
0.8801336844095327
 40
1.0
 40
1.0
 40
1.0
 40
1.0
 10
667.3971739036949
 20
503.0800817757525
 30
0.0
 10
667.2949280523802
 20
503.0507522832897
 30
0.0
 10
667.115568445877
 20
502.9993025065073
 30
0.0
 10
666.9273043603151
 20
502.8074202357139
 30
0.0
 10
666.8303226449264
 20
502.6086307112043
 30
0.0
 10
666.7955165031647
 20
502.419567341378
 30
0.0
 10
666.8111341759798
 20
502.3021650195
 30
0.0
 10
666.8183047695072
 20
502.2482617050089
 30
0.0
  0
LINE
  5
C9
330
1F
100
AcDbEntity
  8
0
  6
Continuous
 62
     7
370
    25
100
AcDbLine
 10
667.2478121145
 20
500.1447914391
 30
0.0
 11
666.8183047695
 21
502.248261705
 31
0.0
  0
SPLINE
  5
CA
330
1F
100
AcDbEntity
  8
0
  6
Continuous
 62
     7
370
    25
100
AcDbSpline
210
0.0
220
0.0
230
1.0
 70
     8
 71
     3
 72
    12
 73
     8
 74
     0
 42
0.000000001
 43
0.00000001
 40
0.0
 40
0.0
 40
0.0
 40
0.0
 40
0.1369203832528798
 40
0.2732897009038309
 40
0.460926939083564
 40
0.7173051891125021
 40
1.0
 40
1.0
 40
1.0
 40
1.0
 10
667.2478121144685
 20
500.1447914391436
 30
0.0
 10
667.2650349941132
 20
500.0849665822187
 30
0.0
 10
667.2994114362106
 20
499.9655576464037
 30
0.0
 10
667.4146690186041
 20
499.8016690482899
 30
0.0
 10
667.5908377108843
 20
499.6580983291358
 30
0.0
 10
667.8368845594873
 20
499.5694903327953
 30
0.0
 10
668.0137176636383
 20
499.5937671718956
 30
0.0
 10
668.1064505500707
 20
499.6064981668868
 30
0.0
  0
SPLINE
  5
CB
330
1F
100
AcDbEntity
  8
0
  6
Continuous
 62
     7
370
    25
100
AcDbSpline
210
0.0
220
0.0
230
1.0
 70
     8
 71
     3
 72
    11
 73
     7
 74
     0
 42
0.000000001
 43
0.00000001
 40
0.0
 40
0.0
 40
0.0
 40
0.0
 40
0.2603297256162371
 40
0.528208793927872
 40
0.7614185082425472
 40
1.0
 40
1.0
 40
1.0
 40
1.0
 10
684.2113275451574
 20
503.7087803929724
 30
0.0
 10
682.6639449454354
 20
503.3146263991171
 30
0.0
 10
679.5243069543866
 20
502.5148882776892
 30
0.0
 10
675.2424336097013
 20
501.4241957091166
 30
0.0
 10
671.356351069578
 20
500.4343213269125
 30
0.0
 10
669.1979425462811
 20
499.8845258628184
 30
0.0
 10
668.1064505500707
 20
499.6064981668868
 30
0.0
  0
SPLINE
  5
CC
330
1F
100
AcDbEntity
  8
0
  6
Continuous
 62
     7
370
    25
100
AcDbSpline
210
0.0
220
0.0
230
1.0
 70
     8
 71
     3
 72
    12
 73
     8
 74
     0
 42
0.000000001
 43
0.00000001
 40
0.0
 40
0.0
 40
0.0
 40
0.0
 40
0.2228981951554736
 40
0.4458334361863974
 40
0.6679328029870819
 40
0.8889160051926959
 40
1.0
 40
1.0
 40
1.0
 40
1.0
 10
684.2113275451572
 20
503.7087803929724
 30
0.0
 10
684.285908284068
 20
503.7358045049452
 30
0.0
 10
684.4350821572735
 20
503.789857220322
 30
0.0
 10
684.6090156757257
 20
503.9596207917847
 30
0.0
 10
684.7183766165211
 20
504.1719653128568
 30
0.0
 10
684.747989922528
 20
504.3714796600785
 30
0.0
 10
684.730302533105
 20
504.4881383641525
 30
0.0
 10
684.7243857009324
 20
504.5271633416094
 30
0.0
  0
LINE
  5
CD
330
1F
100
AcDbEntity
  8
0
  6
Continuous
 62
     7
370
    25
100
AcDbLine
 10
684.6139196677
 20
505.0681611746
 30
0.0
 11
684.7243857009
 21
504.5271633416
 31
0.0
  0
SPLINE
  5
CE
330
1F
100
AcDbEntity
  8
0
  6
Continuous
 62
     7
370
    25
100
AcDbSpline
210
0.0
220
0.0
230
1.0
 70
     8
 71
     3
 72
    13
 73
     9
 74
     0
 42
0.000000001
 43
0.00000001
 40
0.0
 40
0.0
 40
0.0
 40
0.0
 40
0.2200609629211784
 40
0.2941793530336476
 40
0.5152203713127073
 40
0.7362298099472743
 40
0.9580126132809739
 40
1.0
 40
1.0
 40
1.0
 40
1.0
 10
684.613919667712
 20
505.068161174623
 30
0.0
 10
684.5910902724313
 20
505.1436801481743
 30
0.0
 10
684.5605717440893
 20
505.2446345495649
 30
0.0
 10
684.4567841627698
 20
505.3958410726747
 30
0.0
 10
684.3210860549452
 20
505.5237394240131
 30
0.0
 10
684.10228166689
 20
505.6195727678522
 30
0.0
 10
683.9279300397305
 20
505.6342312944492
 30
0.0
 10
683.8357650523496
 20
505.6218639492798
 30
0.0
 10
683.8210940731677
 20
505.6198952942767
 30
0.0
  0
SPLINE
  5
CF
330
1F
100
AcDbEntity
  8
0
  6
Continuous
 62
     7
370
    25
100
AcDbSpline
210
0.0
220
0.0
230
1.0
 70
     8
 71
     3
 72
    11
 73
     7
 74
     0
 42
0.000000001
 43
0.00000001
 40
0.0
 40
0.0
 40
0.0
 40
0.0
 40
0.2832274043406114
 40
0.5762691299281526
 40
0.7861908550086665
 40
1.0
 40
1.0
 40
1.0
 40
1.0
 10
667.397173903695
 20
503.0800817757525
 30
0.0
 10
668.7287631645559
 20
503.2860005086866
 30
0.0
 10
671.4380835658233
 20
503.7049734161287
 30
0.0
 10
675.780391212444
 20
504.3764728960415
 30
0.0
 10
679.9541260753908
 20
505.0219034330154
 30
0.0
 10
682.5242450883528
 20
505.4193492492486
 30
0.0
 10
683.8210940731676
 20
505.6198952942767
 30
0.0
  0
ARC
  5
D0
330
1F
100
AcDbEntity
  8
0
  6
Continuous
 62
     7
370
    25
100
AcDbCircle
 10
703.2850299401
 20
508.5988622754
 30
0.0
 40
16.42261912900003
100
AcDbArc
 50
307.2549368278
 51
127.2549368278
  0
ARC
  5
D1
330
1F
100
AcDbEntity
  8
0
  6
Continuous
 62
     7
370
    25
100
AcDbCircle
 10
703.2850299401
 20
508.5988622754
 30
0.0
 40
16.42261912900003
100
AcDbArc
 50
127.2549368278
 51
307.2549368278
  0
SPLINE
  5
D2
330
1F
100
AcDbEntity
  8
0
  6
Continuous
 62
     7
370
    25
100
AcDbSpline
210
0.0
220
0.0
230
1.0
 70
     8
 71
     3
 72
    12
 73
     8
 74
     0
 42
0.000000001
 43
0.00000001
 40
0.0
 40
0.0
 40
0.0
 40
0.0
 40
0.3203302431497463
 40
0.5619225133180341
 40
0.738927559018096
 40
0.8801318282626175
 40
1.0
 40
1.0
 40
1.0
 40
1.0
 10
700.679643861762
 20
472.3827453553357
 30
0.0
 10
700.6854860213524
 20
472.2765364527848
 30
0.0
 10
700.69573432313
 20
472.0902250609183
 30
0.0
 10
700.8409112936747
 20
471.8639815217775
 30
0.0
 10
701.0131388513258
 20
471.725201759598
 30
0.0
 10
701.1897153517301
 20
471.6491926173999
 30
0.0
 10
701.3076506057312
 20
471.6382949718301
 30
0.0
 10
701.3617991141963
 20
471.6332914530911
 30
0.0
  0
LINE
  5
D3
330
1F
100
AcDbEntity
  8
0
  6
Continuous
 62
     7
370
    25
100
AcDbLine
 10
703.5081038593
 20
471.5839667469
 30
0.0
 11
701.3617991142
 21
471.6332914531
 31
0.0
  0
SPLINE
  5
D4
330
1F
100
AcDbEntity
  8
0
  6
Continuous
 62
     7
370
    25
100
AcDbSpline
210
0.0
220
0.0
230
1.0
 70
     8
 71
     3
 72
    12
 73
     8
 74
     0
 42
0.000000001
 43
0.00000001
 40
0.0
 40
0.0
 40
0.0
 40
0.0
 40
0.1369203019658632
 40
0.2732887434258045
 40
0.4609248792074019
 40
0.7173046879654883
 40
0.9999999999999999
 40
0.9999999999999999
 40
0.9999999999999999
 40
0.9999999999999999
 10
703.508103859307
 20
471.5839667468943
 30
0.0
 10
703.5702610659082
 20
471.5874459274829
 30
0.0
 10
703.694324953024
 20
471.5943902657407
 30
0.0
 10
703.8797513450633
 20
471.6702865420768
 30
0.0
 10
704.0589239937619
 20
471.8100886115217
 30
0.0
 10
704.2000609550006
 20
472.0302514369129
 30
0.0
 10
704.2157433721575
 20
472.2080531190632
 30
0.0
 10
704.2239673573512
 20
472.3012937456049
 30
0.0
  0
SPLINE
  5
D5
330
1F
100
AcDbEntity
  8
0
  6
Continuous
 62
     7
370
    25
100
AcDbSpline
210
0.0
220
0.0
230
1.0
 70
     8
 71
     3
 72
    11
 73
     7
 74
     0
 42
0.000000001
 43
0.00000001
 40
0.0
 40
0.0
 40
0.0
 40
0.0
 40
0.2603298453405307
 40
0.5282087615663276
 40
0.76141848708212
 40
1.0
 40
1.0
 40
1.0
 40
1.0
 10
703.8082091857667
 20
488.9152316599764
 30
0.0
 10
703.8481558924827
 20
487.3189368222813
 30
0.0
 10
703.9292076845105
 20
484.080057629576
 30
0.0
 10
704.0397472864636
 20
479.6628385867505
 30
0.0
 10
704.1400689379619
 20
475.6539209226625
 30
0.0
 10
704.1957897396268
 20
473.4272869127558
 30
0.0
 10
704.2239673573512
 20
472.3012937456049
 30
0.0
  0
SPLINE
  5
D6
330
1F
100
AcDbEntity
  8
0
  6
Continuous
 62
     7
370
    25
100
AcDbSpline
210
0.0
220
0.0
230
1.0
 70
     8
 71
     3
 72
    12
 73
     8
 74
     0
 42
0.000000001
 43
0.00000001
 40
0.0
 40
0.0
 40
0.0
 40
0.0
 40
0.2228409223036469
 40
0.4114701638211969
 40
0.6322883002104523
 40
0.8531344879822987
 40
1.0
 40
1.0
 40
1.0
 40
1.0
 10
703.8082091857667
 20
488.9152316599764
 30
0.0
 10
703.7985158528151
 20
488.9939849229734
 30
0.0
 10
703.7806173570796
 20
489.1394008443035
 30
0.0
 10
703.6669033107556
 20
489.3374530836392
 30
0.0
 10
703.5020573823889
 20
489.4921165967349
 30
0.0
 10
703.3070125497395
 20
489.5811753183497
 30
0.0
 10
703.1765986695044
 20
489.5928646956303
 30
0.0
 10
703.1245108482416
 20
489.5975334793009
 30
0.0
  0
LINE
  5
D7
330
1F
100
AcDbEntity
  8
0
  6
Continuous
 62
     7
370
    25
100
AcDbLine
 10
702.5724954692
 20
489.6102218181
 30
0.0
 11
703.1245108482
 21
489.5975334793
 31
0.0
  0
SPLINE
  5
D8
330
1F
100
AcDbEntity
  8
0
  6
Continuous
 62
     7
370
    25
100
AcDbSpline
210
0.0
220
0.0
230
1.0
 70
     8
 71
     3
 72
    12
 73
     8
 74
     0
 42
0.000000001
 43
0.00000001
 40
0.0
 40
0.0
 40
0.0
 40
0.0
 40
0.2201336252704268
 40
0.4402545485553576
 40
0.6607451740305688
 40
0.8821599589252004
 40
1.0
 40
1.0
 40
1.0
 40
1.0
 10
702.5724954691703
 20
489.6102218180575
 30
0.0
 10
702.493899331501
 20
489.6043361744611
 30
0.0
 10
702.3367115912577
 20
489.5925652268774
 30
0.0
 10
702.124898241462
 20
489.4775483674817
 30
0.0
 10
701.962502752485
 20
489.3047607757481
 30
0.0
 10
701.8782268616034
 20
489.1202643034694
 30
0.0
 10
701.8633445520306
 20
489.001351293324
 30
0.0
 10
701.8581751871842
 20
488.9600469022669
 30
0.0
  0
SPLINE
  5
D9
330
1F
100
AcDbEntity
  8
0
  6
Continuous
 62
     7
370
    25
100
AcDbSpline
210
0.0
220
0.0
230
1.0
 70
     8
 71
     3
 72
    11
 73
     7
 74
     0
 42
0.000000001
 43
0.00000001
 40
0.0
 40
0.0
 40
0.0
 40
0.0
 40
0.2832273573966272
 40
0.576269025707724
 40
0.7861907721110981
 40
1.0
 40
1.0
 40
1.0
 40
1.0
 10
700.679643861762
 20
472.3827453553357
 30
0.0
 10
700.7751947140226
 20
473.7267699500059
 30
0.0
 10
700.9696074185155
 20
476.4613918834839
 30
0.0
 10
701.2811985079226
 20
480.8442512524691
 30
0.0
 10
701.5806932791752
 20
485.0569645462622
 30
0.0
 10
701.7651172242485
 20
487.6510862719113
 30
0.0
 10
701.8581751871842
 20
488.9600469022669
 30
0.0
  0
SPLINE
  5
DA
330
1F
100
AcDbEntity
  8
0
  6
Continuous
 62
     7
370
    25
100
AcDbSpline
210
0.0
220
0.0
230
1.0
 70
     8
 71
     3
 72
    12
 73
     8
 74
     0
 42
0.000000001
 43
0.00000001
 40
0.0
 40
0.0
 40
0.0
 40
0.0
 40
0.3203308787073611
 40
0.561922514651597
 40
0.7389276809464131
 40
0.8801319916784762
 40
0.9999999999999999
 40
0.9999999999999999
 40
0.9999999999999999
 40
0.9999999999999999
 10
685.2240737898263
 20
477.0997042059578
 30
0.0
 10
685.1832546707823
 20
477.0014777545506
 30
0.0
 10
685.1116500158964
 20
476.8291695000271
 30
0.0
 10
685.1442869512799
 20
476.562341380697
 30
0.0
 10
685.2392452630296
 20
476.3625782104357
 30
0.0
 10
685.3653569614037
 20
476.2174833563171
 30
0.0
 10
685.4668841408429
 20
476.156493797065
 30
0.0
 10
685.5134990436944
 20
476.1284912228264
 30
0.0
  0
LINE
  5
DB
330
1F
100
AcDbEntity
  8
0
  6
Continuous
 62
     7
370
    25
100
AcDbLine
 10
687.4258507414
 20
475.1528060287
 30
0.0
 11
685.5134990437
 21
476.1284912228
 31
0.0
  0
SPLINE
  5
DC
330
1F
100
AcDbEntity
  8
0
  6
Continuous
 62
     7
370
    25
100
AcDbSpline
210
0.0
220
0.0
230
1.0
 70
     8
 71
     3
 72
    12
 73
     8
 74
     0
 42
0.000000001
 43
0.00000001
 40
0.0
 40
0.0
 40
0.0
 40
0.0
 40
0.1369204877182023
 40
0.2732892628701764
 40
0.4609258882643154
 40
0.7173056613557917
 40
0.9999999999999999
 40
0.9999999999999999
 40
0.9999999999999999
 40
0.9999999999999999
 10
687.4258507413778
 20
475.1528060286917
 30
0.0
 10
687.4833620718597
 20
475.1289715645591
 30
0.0
 10
687.5981529945042
 20
475.0813986757807
 30
0.0
 10
687.7981471532871
 20
475.0693232566326
 30
0.0
 10
688.0202345290836
 20
475.1175434312445
 30
0.0
 10
688.2429188414741
 20
475.254666986431
 30
0.0
 10
688.3341932823703
 20
475.4080556713302
 30
0.0
 10
688.382058255187
 20
475.4884938001313
 30
0.0
  0
SPLINE
  5
DD
330
1F
100
AcDbEntity
  8
0
  6
Continuous
 62
     7
370
    25
100
AcDbSpline
210
0.0
220
0.0
230
1.0
 70
     8
 71
     3
 72
    11
 73
     7
 74
     0
 42
0.000000001
 43
0.00000001
 40
0.0
 40
0.0
 40
0.0
 40
0.0
 40
0.2603296161568931
 40
0.5282088257562574
 40
0.7614184058313526
 40
1.0
 40
1.0
 40
1.0
 40
1.0
 10
695.2159906176838
 20
490.6375227719225
 30
0.0
 10
694.5593752331743
 20
489.1819804680587
 30
0.0
 10
693.2271025308006
 20
486.2286849402112
 30
0.0
 10
691.410137897955
 20
482.2009450727087
 30
0.0
 10
689.7611186313683
 20
478.5455093894907
 30
0.0
 10
688.8452213121541
 20
476.5152049652253
 30
0.0
 10
688.382058255187
 20
475.4884938001313
 30
0.0
  0
SPLINE
  5
DE
330
1F
100
AcDbEntity
  8
0
  6
Continuous
 62
     7
370
    25
100
AcDbSpline
210
0.0
220
0.0
230
1.0
 70
     8
 71
     3
 72
    13
 73
     9
 74
     0
 42
0.000000001
 43
0.00000001
 40
0.0
 40
0.0
 40
0.0
 40
0.0
 40
0.2228788463400128
 40
0.4457883745283193
 40
0.6678654712986126
 40
0.7058059977243546
 40
0.9258788514203931
 40
1.0
 40
1.0
 40
1.0
 40
1.0
 10
695.2159906176838
 20
490.6375227719225
 30
0.0
 10
695.2413629216344
 20
490.7127065636375
 30
0.0
 10
695.2921110223266
 20
490.863084496985
 30
0.0
 10
695.2678231798826
 20
491.1045635142628
 30
0.0
 10
695.1969030221923
 20
491.2635452694218
 30
0.0
 10
695.0977946939042
 20
491.4017557775591
 30
0.0
 10
695.0103510154162
 20
491.4855406315492
 30
0.0
 10
694.9190446532858
 20
491.5361524077928
 30
0.0
 10
694.89604033511
 20
491.5489038675703
 30
0.0
  0
LINE
  5
DF
330
1F
100
AcDbEntity
  8
0
  6
Continuous
 62
     7
370
    25
100
AcDbLine
 10
694.4041958449
 20
491.7998431474
 30
0.0
 11
694.8960403351
 21
491.5489038676
 31
0.0
  0
SPLINE
  5
E0
330
1F
100
AcDbEntity
  8
0
  6
Continuous
 62
     7
370
    25
100
AcDbSpline
210
0.0
220
0.0
230
1.0
 70
     8
 71
     3
 72
    12
 73
     8
 74
     0
 42
0.000000001
 43
0.00000001
 40
0.0
 40
0.0
 40
0.0
 40
0.0
 40
0.2201340199786592
 40
0.4402547077337629
 40
0.6607429650596568
 40
0.8821597120118708
 40
1.0
 40
1.0
 40
1.0
 40
1.0
 10
694.4041958449396
 20
491.799843147365
 30
0.0
 10
694.3308292049433
 20
491.828641767738
 30
0.0
 10
694.1841003683369
 20
491.8862372643207
 30
0.0
 10
693.9433606985004
 20
491.8745123296958
 30
0.0
 10
693.7220752065522
 20
491.7893033803969
 30
0.0
 10
693.5660967870924
 20
491.6596408816087
 30
0.0
 10
693.5010938644433
 20
491.558960326144
 30
0.0
 10
693.4785152224812
 20
491.5239891260542
 30
0.0
  0
SPLINE
  5
E1
330
1F
100
AcDbEntity
  8
0
  6
Continuous
 62
     7
370
    25
100
AcDbSpline
210
0.0
220
0.0
230
1.0
 70
     8
 71
     3
 72
    11
 73
     7
 74
     0
 42
0.000000001
 43
0.00000001
 40
0.0
 40
0.0
 40
0.0
 40
0.0
 40
0.2832273252965029
 40
0.57626909651327
 40
0.7861907830772942
 40
1.0
 40
1.0
 40
1.0
 40
1.0
 10
685.2240737898263
 20
477.0997042059578
 30
0.0
 10
685.8933125565662
 20
478.2691699473387
 30
0.0
 10
687.2549806761843
 20
480.6486259743419
 30
0.0
 10
689.4373661971001
 20
484.462251917143
 30
0.0
 10
691.5350289339018
 20
488.1278291161025
 30
0.0
 10
692.8267361921759
 20
490.385032864281
 30
0.0
 10
693.4785152224812
 20
491.5239891260542
 30
0.0
  0
SPLINE
  5
E2
330
1F
100
AcDbEntity
  8
0
  6
Continuous
 62
     7
370
    25
100
AcDbSpline
210
0.0
220
0.0
230
1.0
 70
     8
 71
     3
 72
    12
 73
     8
 74
     0
 42
0.000000001
 43
0.00000001
 40
0.0
 40
0.0
 40
0.0
 40
0.0
 40
0.3203307397700814
 40
0.561923404622774
 40
0.7389276063738869
 40
0.8801320744219959
 40
1.0
 40
1.0
 40
1.0
 40
1.0
 10
716.6512420771631
 20
474.838834837047
 30
0.0
 10
716.7025878241348
 20
474.7456782193025
 30
0.0
 10
716.7926584085936
 20
474.5822631070228
 30
0.0
 10
717.0216223071652
 20
474.4414127251136
 30
0.0
 10
717.2370085477946
 20
474.3911068656858
 30
0.0
 10
717.4290772787936
 20
474.3992378898037
 30
0.0
 10
717.5400620246271
 20
474.4405885847125
 30
0.0
 10
717.591019198111
 20
474.4595742076315
 30
0.0
  0
LINE
  5
E3
330
1F
100
AcDbEntity
  8
0
  6
Continuous
 62
     7
370
    25
100
AcDbLine
 10
719.54617355
 20
475.3463814258
 30
0.0
 11
717.5910191981
 21
474.4595742076
 31
0.0
  0
SPLINE
  5
E4
330
1F
100
AcDbEntity
  8
0
  6
Continuous
 62
     7
370
    25
100
AcDbSpline
210
0.0
220
0.0
230
1.0
 70
     8
 71
     3
 72
    12
 73
     8
 74
     0
 42
0.000000001
 43
0.00000001
 40
0.0
 40
0.0
 40
0.0
 40
0.0
 40
0.1369201720626219
 40
0.2732893287970806
 40
0.4609261055683477
 40
0.7173048035304209
 40
1.0
 40
1.0
 40
1.0
 40
1.0
 10
719.5461735500011
 20
475.3463814258255
 30
0.0
 10
719.6006656117323
 20
475.376485056399
 30
0.0
 10
719.709430439814
 20
475.436571169861
 30
0.0
 10
719.8435654470397
 20
475.5854043960051
 30
0.0
 10
719.9443338351776
 20
475.789104293796
 30
0.0
 10
719.975969633098
 20
476.0486991497191
 30
0.0
 10
719.9129535874997
 20
476.2156972338089
 30
0.0
 10
719.8799074066791
 20
476.3032725304045
 30
0.0
  0
SPLINE
  5
E5
330
1F
100
AcDbEntity
  8
0
  6
Continuous
 62
     7
370
    25
100
AcDbSpline
210
0.0
220
0.0
230
1.0
 70
     8
 71
     3
 72
    11
 73
     7
 74
     0
 42
0.000000001
 43
0.00000001
 40
0.0
 40
0.0
 40
0.0
 40
0.0
 40
0.2603298186754074
 40
0.5282088335590353
 40
0.7614184445193506
 40
1.0
 40
1.0
 40
1.0
 40
1.0
 10
712.2968051953229
 20
491.0915239005961
 30
0.0
 10
713.0254019252031
 20
489.6706441580997
 30
0.0
 10
714.5037236586995
 20
486.7876811720291
 30
0.0
 10
716.5198777058409
 20
482.855865725799
 30
0.0
 10
718.3496672384907
 20
479.2874840408423
 30
0.0
 10
719.3659700491215
 20
477.3055320514592
 30
0.0
 10
719.8799074066791
 20
476.3032725304045
 30
0.0
  0
SPLINE
  5
E6
330
1F
100
AcDbEntity
  8
0
  6
Continuous
 62
     7
370
    25
100
AcDbSpline
210
0.0
220
0.0
230
1.0
 70
     8
 71
     3
 72
    12
 73
     8
 74
     0
 42
0.000000001
 43
0.00000001
 40
0.0
 40
0.0
 40
0.0
 40
0.0
 40
0.1165855648839248
 40
0.3388926887880847
 40
0.5612368306862071
 40
0.7827183496874982
 40
1.0
 40
1.0
 40
1.0
 40
1.0
 10
712.2968051953229
 20
491.0915239005961
 30
0.0
 10
712.2761003941216
 20
491.1271202672407
 30
0.0
 10
712.215915363866
 20
491.2305923258555
 30
0.0
 10
712.0658196338684
 20
491.3678600541541
 30
0.0
 10
711.847181748347
 20
491.4635787296448
 30
0.0
 10
711.6069803989549
 20
491.485545634262
 30
0.0
 10
711.4583686503246
 20
491.4347608650982
 30
0.0
 10
711.384774036518
 20
491.4096115380206
 30
0.0
  0
LINE
  5
E7
330
1F
100
AcDbEntity
  8
0
  6
Continuous
 62
     7
370
    25
100
AcDbLine
 10
710.8819213135
 20
491.1815306395
 30
0.0
 11
711.3847740365
 21
491.409611538
 31
0.0
  0
SPLINE
  5
E8
330
1F
100
AcDbEntity
  8
0
  6
Continuous
 62
     7
370
    25
100
AcDbSpline
210
0.0
220
0.0
230
1.0
 70
     8
 71
     3
 72
    12
 73
     8
 74
     0
 42
0.000000001
 43
0.00000001
 40
0.0
 40
0.0
 40
0.0
 40
0.0
 40
0.2201328744316992
 40
0.4402559768362983
 40
0.660744924359711
 40
0.8821619228126011
 40
1.0
 40
1.0
 40
1.0
 40
1.0
 10
710.8819213135156
 20
491.1815306394972
 30
0.0
 10
710.8136622838575
 20
491.1421266005756
 30
0.0
 10
710.6771472546619
 20
491.0633202719366
 30
0.0
 10
710.5362165351469
 20
490.8677893521496
 30
0.0
 10
710.4648700024062
 20
490.6416524745015
 30
0.0
 10
710.4689912139669
 20
490.4388608489332
 30
0.0
 10
710.5071776728363
 20
490.3252668218614
 30
0.0
 10
710.5204414946946
 20
490.2858106642641
 30
0.0
  0
SPLINE
  5
E9
330
1F
100
AcDbEntity
  8
0
  6
Continuous
 62
     7
370
    25
100
AcDbSpline
210
0.0
220
0.0
230
1.0
 70
     8
 71
     3
 72
    11
 73
     7
 74
     0
 42
0.000000001
 43
0.00000001
 40
0.0
 40
0.0
 40
0.0
 40
0.0
 40
0.283227282815335
 40
0.5762690132422065
 40
0.786190863483524
 40
1.0
 40
1.0
 40
1.0
 40
1.0
 10
716.6512420771631
 20
474.838834837047
 30
0.0
 10
716.1541803389043
 20
476.0912162716236
 30
0.0
 10
715.1428325810912
 20
478.6393769090184
 30
0.0
 10
713.521914131673
 20
482.7233912016998
 30
0.0
 10
711.9639221583919
 20
486.6488609349545
 30
0.0
 10
711.0045355038658
 20
489.0661022054712
 30
0.0
 10
710.5204414946946
 20
490.2858106642641
 30
0.0
  0
SPLINE
  5
EA
330
1F
100
AcDbEntity
  8
0
  6
Continuous
 62
     7
370
    25
100
AcDbSpline
210
0.0
220
0.0
230
1.0
 70
     8
 71
     3
 72
    12
 73
     8
 74
     0
 42
0.000000001
 43
0.00000001
 40
0.0
 40
0.0
 40
0.0
 40
0.0
 40
0.3203308248854155
 40
0.5619238463021211
 40
0.7389279515807045
 40
0.8801327981938695
 40
1.0
 40
1.0
 40
1.0
 40
1.0
 10
729.9754981322202
 20
483.9815093427576
 30
0.0
 10
730.0621781716317
 20
483.9198560993987
 30
0.0
 10
730.2142321650654
 20
483.8117040735745
 30
0.0
 10
730.481633577094
 20
483.7841522864694
 30
0.0
 10
730.6975181578155
 20
483.8322739438151
 30
0.0
 10
730.8670360207013
 20
483.9229388362926
 30
0.0
 10
730.9490885560798
 20
484.008348113544
 30
0.0
 10
730.9867617113504
 20
484.0475624650397
 30
0.0
  0
LINE
  5
EB
330
1F
100
AcDbEntity
  8
0
  6
Continuous
 62
     7
370
    25
100
AcDbLine
 10
732.3635246975
 20
485.694859758
 30
0.0
 11
730.9867617114
 21
484.047562465
 31
0.0
  0
SPLINE
  5
EC
330
1F
100
AcDbEntity
  8
0
  6
Continuous
 62
     7
370
    25
100
AcDbSpline
210
0.0
220
0.0
230
1.0
 70
     8
 71
     3
 72
    13
 73
     9
 74
     0
 42
0.000000001
 43
0.00000001
 40
0.0
 40
0.0
 40
0.0
 40
0.0
 40
0.1368242579196294
 40
0.273099074478499
 40
0.4606085319990422
 40
0.7168112206562929
 40
0.8076496684443518
 40
1.0
 40
1.0
 40
1.0
 40
1.0
 10
732.3635246975335
 20
485.6948597579874
 30
0.0
 10
732.3995664495777
 20
485.7456324183134
 30
0.0
 10
732.4715052218066
 20
485.8469738526079
 30
0.0
 10
732.5276513292625
 20
486.0391342020782
 30
0.0
 10
732.5308262295475
 20
486.2671672046395
 30
0.0
 10
732.465755814431
 20
486.4462320846544
 30
0.0
 10
732.3668390843936
 20
486.5978763971103
 30
0.0
 10
732.2966823355647
 20
486.6597585834003
 30
0.0
 10
732.2490297628555
 20
486.7017908245005
 30
0.0
  0
SPLINE
  5
ED
330
1F
100
AcDbEntity
  8
0
  6
Continuous
 62
     7
370
    25
100
AcDbSpline
210
0.0
220
0.0
230
1.0
 70
     8
 71
     3
 72
    11
 73
     7
 74
     0
 42
0.000000001
 43
0.00000001
 40
0.0
 40
0.0
 40
0.0
 40
0.0
 40
0.2603297187814021
 40
0.5282087827686508
 40
0.7614185024789614
 40
1.0
 40
1.0
 40
1.0
 40
1.0
 10
719.0005097908887
 20
496.7353573292174
 30
0.0
 10
720.2734487410181
 20
495.7713157141026
 30
0.0
 10
722.8562408115281
 20
493.8152760792821
 30
0.0
 10
726.3786843891376
 20
491.1476109172314
 30
0.0
 10
729.5755295020763
 20
488.7265227373734
 30
0.0
 10
731.3511240823678
 20
487.3818050787364
 30
0.0
 10
732.2490297628555
 20
486.7017908245005
 30
0.0
  0
SPLINE
  5
EE
330
1F
100
AcDbEntity
  8
0
  6
Continuous
 62
     7
370
    25
100
AcDbSpline
210
0.0
220
0.0
230
1.0
 70
     8
 71
     3
 72
    12
 73
     8
 74
     0
 42
0.000000001
 43
0.00000001
 40
0.0
 40
0.0
 40
0.0
 40
0.0
 40
0.2228998546002937
 40
0.4458326499649602
 40
0.6679311506992744
 40
0.8889150099982384
 40
1.0
 40
1.0
 40
1.0
 40
1.0
 10
719.0005097908887
 20
496.7353573292174
 30
0.0
 10
718.9328803060683
 20
496.7768176496848
 30
0.0
 10
718.7976113419533
 20
496.8597444177418
 30
0.0
 10
718.5564397261927
 20
496.8898876875059
 30
0.0
 10
718.3222365593988
 20
496.8429948962344
 30
0.0
 10
718.1477865836965
 20
496.741750802689
 30
0.0
 10
718.0676060506703
 20
496.6551865070943
 30
0.0
 10
718.0407837403926
 20
496.6262286752142
 30
0.0
  0
LINE
  5
EF
330
1F
100
AcDbEntity
  8
0
  6
Continuous
 62
     7
370
    25
100
AcDbLine
 10
717.6866902409
 20
496.2025551349
 30
0.0
 11
718.0407837404
 21
496.6262286752
 31
0.0
  0
SPLINE
  5
F0
330
1F
100
AcDbEntity
  8
0
  6
Continuous
 62
     7
370
    25
100
AcDbSpline
210
0.0
220
0.0
230
1.0
 70
     8
 71
     3
 72
    12
 73
     8
 74
     0
 42
0.000000001
 43
0.00000001
 40
0.0
 40
0.0
 40
0.0
 40
0.0
 40
0.220133160135717
 40
0.4402542625732758
 40
0.6607419036256654
 40
0.8821599788659424
 40
1.0
 40
1.0
 40
1.0
 40
1.0
 10
717.6866902409109
 20
496.2025551348605
 30
0.0
 10
717.6422880756203
 20
496.1374366855342
 30
0.0
 10
717.5534861771483
 20
496.0072033537164
 30
0.0
 10
717.5113464398362
 20
495.7698904540794
 30
0.0
 10
717.5451842078447
 20
495.5351930581047
 30
0.0
 10
717.6368842017823
 20
495.3542715121058
 30
0.0
 10
717.7205758171425
 20
495.2684940709607
 30
0.0
 10
717.7496457843098
 20
495.2386996000685
 30
0.0
  0
SPLINE
  5
F1
330
1F
100
AcDbEntity
  8
0
  6
Continuous
 62
     7
370
    25
100
AcDbSpline
210
0.0
220
0.0
230
1.0
 70
     8
 71
     3
 72
    11
 73
     7
 74
     0
 42
0.000000001
 43
0.00000001
 40
0.0
 40
0.0
 40
0.0
 40
0.0
 40
0.2832272807998691
 40
0.5762692100073887
 40
0.7861908935754275
 40
1.0
 40
1.0
 40
1.0
 40
1.0
 10
729.9754981322202
 20
483.9815093427576
 30
0.0
 10
728.9842730424285
 20
484.8941989049832
 30
0.0
 10
726.9674740327407
 20
486.7512053752652
 30
0.0
 10
723.7350900423558
 20
489.7274882041868
 30
0.0
 10
720.6281901865286
 20
492.5882255663153
 30
0.0
 10
718.7150112616714
 20
494.349821134669
 30
0.0
 10
717.7496457843098
 20
495.2386996000685
 30
0.0
  0
SPLINE
  5
F2
330
1F
100
AcDbEntity
  8
0
  6
Continuous
 62
     7
370
    25
100
AcDbSpline
210
0.0
220
0.0
230
1.0
 70
     8
 71
     3
 72
    12
 73
     8
 74
     0
 42
0.000000001
 43
0.00000001
 40
0.0
 40
0.0
 40
0.0
 40
0.0
 40
0.3203310898304379
 40
0.5619224275844992
 40
0.7389269816727738
 40
0.8801303800518663
 40
1.0
 40
1.0
 40
1.0
 40
1.0
 10
738.0133781952771
 20
497.9999555498042
 30
0.0
 10
738.1182249155835
 20
497.9820184819453
 30
0.0
 10
738.3021462565622
 20
497.9505534102274
 30
0.0
 10
738.5550259174385
 20
498.0417386207399
 30
0.0
 10
738.7286447453706
 20
498.1787726848178
 30
0.0
 10
738.842045037252
 20
498.3340052227178
 30
0.0
 10
738.8789099176087
 20
498.4465603871018
 30
0.0
 10
738.8958361370477
 20
498.4982392042555
 30
0.0
  0
LINE
  5
F3
330
1F
100
AcDbEntity
  8
0
  6
Continuous
 62
     7
370
    25
100
AcDbLine
 10
739.4215230269
 20
500.5797526091
 30
0.0
 11
738.895836137
 21
498.4982392043
 31
0.0
  0
SPLINE
  5
F4
330
1F
100
AcDbEntity
  8
0
  6
Continuous
 62
     7
370
    25
100
AcDbSpline
210
0.0
220
0.0
230
1.0
 70
     8
 71
     3
 72
    13
 73
     9
 74
     0
 42
0.000000001
 43
0.00000001
 40
0.0
 40
0.0
 40
0.0
 40
0.0
 40
0.136852170577697
 40
0.2731522405204391
 40
0.4606968654707436
 40
0.5051879836958446
 40
0.7677992095127639
 40
1.0
 40
1.0
 40
1.0
 40
1.0
 10
739.4215230269346
 20
500.5797526091017
 30
0.0
 10
739.4319644153172
 20
500.6411412926861
 30
0.0
 10
739.4528050685481
 20
500.7636710004202
 30
0.0
 10
739.420032975754
 20
500.9610749659735
 30
0.0
 10
739.3589674097552
 20
501.0927307525072
 30
0.0
 10
739.2540889411526
 20
501.2404539511701
 30
0.0
 10
739.1113222598767
 20
501.3679351419916
 30
0.0
 10
738.9548860674091
 20
501.4151376186377
 30
0.0
 10
738.8814751429471
 20
501.4372883587756
 30
0.0
  0
SPLINE
  5
F5
330
1F
100
AcDbEntity
  8
0
  6
Continuous
 62
     7
370
    25
100
AcDbSpline
210
0.0
220
0.0
230
1.0
 70
     8
 71
     3
 72
    11
 73
     7
 74
     0
 42
0.000000001
 43
0.00000001
 40
0.0
 40
0.0
 40
0.0
 40
0.0
 40
0.2603296340016528
 40
0.5282087806301418
 40
0.7614184980825692
 40
1.0
 40
1.0
 40
1.0
 40
1.0
 10
722.5915704293164
 20
504.7289027124323
 30
0.0
 10
724.1567304929986
 20
504.4126404909096
 30
0.0
 10
727.3324399810828
 20
503.7709445002456
 30
0.0
 10
731.663507303368
 20
502.8957852551828
 30
0.0
 10
735.5942378280369
 20
502.1015272564983
 30
0.0
 10
737.7774434251622
 20
501.6603756326837
 30
0.0
 10
738.8814751429471
 20
501.4372883587756
 30
0.0
  0
SPLINE
  5
F6
330
1F
100
AcDbEntity
  8
0
  6
Continuous
 62
     7
370
    25
100
AcDbSpline
210
0.0
220
0.0
230
1.0
 70
     8
 71
     3
 72
    12
 73
     8
 74
     0
 42
0.000000001
 43
0.00000001
 40
0.0
 40
0.0
 40
0.0
 40
0.0
 40
0.2229010092646268
 40
0.4458341797219503
 40
0.6679335676044158
 40
0.8889149549194959
 40
1.0
 40
1.0
 40
1.0
 40
1.0
 10
722.5915704293164
 20
504.7289027124323
 30
0.0
 10
722.5126492139674
 20
504.7369137261749
 30
0.0
 10
722.3547953961499
 20
504.7529369095263
 30
0.0
 10
722.1244277043231
 20
504.6754560519136
 30
0.0
 10
721.9337654760639
 20
504.5315899433248
 30
0.0
 10
721.8205181240729
 20
504.3646834449287
 30
0.0
 10
721.7858376799595
 20
504.2519035111608
 30
0.0
 10
721.7742361498985
 20
504.2141756266035
 30
0.0
  0
LINE
  5
F7
330
1F
100
AcDbEntity
  8
0
  6
Continuous
 62
     7
370
    25
100
AcDbLine
 10
721.6390323265
 20
503.6788216084
 30
0.0
 11
721.7742361499
 21
504.2141756266
 31
0.0
  0
SPLINE
  5
F8
330
1F
100
AcDbEntity
  8
0
  6
Continuous
 62
     7
370
    25
100
AcDbSpline
210
0.0
220
0.0
230
1.0
 70
     8
 71
     3
 72
    12
 73
     8
 74
     0
 42
0.000000001
 43
0.00000001
 40
0.0
 40
0.0
 40
0.0
 40
0.0
 40
0.2201338444626278
 40
0.4402521797766288
 40
0.6607417196560876
 40
0.882158713843472
 40
1.0
 40
1.0
 40
1.0
 40
1.0
 10
721.6390323264512
 20
503.6788216083922
 30
0.0
 10
721.6272818818098
 20
503.6008862227836
 30
0.0
 10
721.6037818203845
 20
503.4450209423692
 30
0.0
 10
721.6687791014452
 20
503.2129249908022
 30
0.0
 10
721.8010991468618
 20
503.016153426504
 30
0.0
 10
721.9622159079175
 20
502.8929333400612
 30
0.0
 10
722.0748374731402
 20
502.8519637820127
 30
0.0
 10
722.1139565480861
 20
502.837733015386
 30
0.0
  0
SPLINE
  5
F9
330
1F
100
AcDbEntity
  8
0
  6
Continuous
 62
     7
370
    25
100
AcDbSpline
210
0.0
220
0.0
230
1.0
 70
     8
 71
     3
 72
    11
 73
     7
 74
     0
 42
0.000000001
 43
0.00000001
 40
0.0
 40
0.0
 40
0.0
 40
0.0
 40
0.2832272951674346
 40
0.5762691072310823
 40
0.786190873373215
 40
1.0
 40
1.0
 40
1.0
 40
1.0
 10
738.0133781952771
 20
497.9999555498042
 30
0.0
 10
736.7243144551479
 20
498.392184732298
 30
0.0
 10
734.1015177707783
 20
499.1902347955595
 30
0.0
 10
729.8978798225123
 20
500.4692882551662
 30
0.0
 10
725.857432892613
 20
501.698691129068
 30
0.0
 10
723.3693905340655
 20
502.4557373076722
 30
0.0
 10
722.1139565480861
 20
502.837733015386
 30
0.0
  0
SPLINE
  5
FA
330
1F
100
AcDbEntity
  8
0
  6
Continuous
 62
     7
370
    25
100
AcDbSpline
210
0.0
220
0.0
230
1.0
 70
     8
 71
     3
 72
    12
 73
     8
 74
     0
 42
0.000000001
 43
0.00000001
 40
0.0
 40
0.0
 40
0.0
 40
0.0
 40
0.3203302506991163
 40
0.561923119400083
 40
0.7389290508855025
 40
0.8801309628976767
 40
1.0
 40
1.0
 40
1.0
 40
1.0
 10
739.1728859765443
 20
514.1176438182272
 30
0.0
 10
739.2751318239524
 20
514.146973318716
 30
0.0
 10
739.4544914236029
 20
514.1984231095777
 30
0.0
 10
739.642755547577
 20
514.3903053014527
 30
0.0
 10
739.7397367179402
 20
514.5890941003358
 30
0.0
 10
739.7745434601172
 20
514.7781567371301
 30
0.0
 10
739.7589258399722
 20
514.8955592738533
 30
0.0
 10
739.751755110732
 20
514.9494638889707
 30
0.0
  0
LINE
  5
FB
330
1F
100
AcDbEntity
  8
0
  6
Continuous
 62
     7
370
    25
100
AcDbLine
 10
739.3222477658
 20
517.0529341548
 30
0.0
 11
739.7517551107
 21
514.949463889
 31
0.0
  0
SPLINE
  5
FC
330
1F
100
AcDbEntity
  8
0
  6
Continuous
 62
     7
370
    25
100
AcDbSpline
210
0.0
220
0.0
230
1.0
 70
     8
 71
     3
 72
    12
 73
     8
 74
     0
 42
0.000000001
 43
0.00000001
 40
0.0
 40
0.0
 40
0.0
 40
0.0
 40
0.1335496471651118
 40
0.2374528635508006
 40
0.431421297568089
 40
0.6784672896734085
 40
1.0
 40
1.0
 40
1.0
 40
1.0
 10
739.3222477657708
 20
517.0529341548361
 30
0.0
 10
739.305643196617
 20
517.1113039610683
 30
0.0
 10
739.2761200748621
 20
517.2150861718711
 30
0.0
 10
739.1745673750307
 20
517.3731419786794
 30
0.0
 10
739.0131228160161
 20
517.520143881442
 30
0.0
 10
738.756960067401
 20
517.6273596706662
 30
0.0
 10
738.5695756802982
 20
517.6042817663143
 30
0.0
 10
738.4636093301687
 20
517.5912311523832
 30
0.0
  0
SPLINE
  5
FD
330
1F
100
AcDbEntity
  8
0
  6
Continuous
 62
     7
370
    25
100
AcDbSpline
210
0.0
220
0.0
230
1.0
 70
     8
 71
     3
 72
    11
 73
     7
 74
     0
 42
0.000000001
 43
0.00000001
 40
0.0
 40
0.0
 40
0.0
 40
0.0
 40
0.2603297055093452
 40
0.5282087531310053
 40
0.7614184494334367
 40
1.0
 40
1.0
 40
1.0
 40
1.0
 10
722.358732335082
 20
513.488941475717
 30
0.0
 10
723.9061149418002
 20
513.8830954209184
 30
0.0
 10
727.0457529470448
 20
514.6828334436273
 30
0.0
 10
731.3276261876332
 20
515.7735267361019
 30
0.0
 10
735.2137094851064
 20
516.763398776841
 30
0.0
 10
737.3721174444713
 20
517.3132003318351
 30
0.0
 10
738.4636093301687
 20
517.5912311523832
 30
0.0
  0
SPLINE
  5
FE
330
1F
100
AcDbEntity
  8
0
  6
Continuous
 62
     7
370
    25
100
AcDbSpline
210
0.0
220
0.0
230
1.0
 70
     8
 71
     3
 72
    12
 73
     8
 74
     0
 42
0.000000001
 43
0.00000001
 40
0.0
 40
0.0
 40
0.0
 40
0.0
 40
0.2228971743416105
 40
0.4458352060011943
 40
0.667928749134255
 40
0.8889158086881163
 40
1.0
 40
1.0
 40
1.0
 40
1.0
 10
722.358732335082
 20
513.488941475717
 30
0.0
 10
722.2841512308695
 20
513.4619190730693
 30
0.0
 10
722.1349753516392
 20
513.4078693145353
 30
0.0
 10
721.9610479898005
 20
513.2381019517354
 30
0.0
 10
721.8516807244895
 20
513.0257616077913
 30
0.0
 10
721.822070088208
 20
512.8262470347195
 30
0.0
 10
721.8397574261277
 20
512.7095872005056
 30
0.0
 10
721.8456741793069
 20
512.6705622523702
 30
0.0
  0
LINE
  5
FF
330
1F
100
AcDbEntity
  8
0
  6
Continuous
 62
     7
370
    25
100
AcDbLine
 10
721.9561402125
 20
512.1295606941
 30
0.0
 11
721.8456741793
 21
512.6705622524
 31
0.0
  0
SPLINE
  5
100
330
1F
100
AcDbEntity
  8
0
  6
Continuous
 62
     7
370
    25
100
AcDbSpline
210
0.0
220
0.0
230
1.0
 70
     8
 71
     3
 72
    12
 73
     8
 74
     0
 42
0.000000001
 43
0.00000001
 40
0.0
 40
0.0
 40
0.0
 40
0.0
 40
0.2201305054885274
 40
0.4402516115487791
 40
0.660742065830054
 40
0.8821594997405481
 40
1.0
 40
1.0
 40
1.0
 40
1.0
 10
721.9561402125272
 20
512.1295606940664
 30
0.0
 10
721.9793677460256
 20
512.0542461811865
 30
0.0
 10
722.0258218212218
 20
511.9036203713071
 30
0.0
 10
722.1850882851742
 20
511.7227137982616
 30
0.0
 10
722.3896784307815
 20
511.6028370515737
 30
0.0
 10
722.5883028211949
 20
511.5617217621722
 30
0.0
 10
722.7075467051827
 20
511.5736775002662
 30
0.0
 10
722.7489658070716
 20
511.5778302997031
 30
0.0
  0
SPLINE
  5
101
330
1F
100
AcDbEntity
  8
0
  6
Continuous
 62
     7
370
    25
100
AcDbSpline
210
0.0
220
0.0
230
1.0
 70
     8
 71
     3
 72
    11
 73
     7
 74
     0
 42
0.000000001
 43
0.00000001
 40
0.0
 40
0.0
 40
0.0
 40
0.0
 40
0.2832274040915098
 40
0.5762691022094426
 40
0.7861908853212644
 40
1.0
 40
1.0
 40
1.0
 40
1.0
 10
739.1728859765443
 20
514.1176438182272
 30
0.0
 10
737.8412968196262
 20
513.9117243074497
 30
0.0
 10
735.1319767577825
 20
513.4927498371516
 30
0.0
 10
730.789667497794
 20
512.8212613557323
 30
0.0
 10
726.6159348328852
 20
512.1758149540561
 30
0.0
 10
724.0458149580716
 20
511.7783739001644
 30
0.0
 10
722.7489658070716
 20
511.5778302997031
 30
0.0
  0
SPLINE
  5
102
330
1F
100
AcDbEntity
  8
0
  6
Continuous
 62
     7
370
    25
100
AcDbSpline
210
0.0
220
0.0
230
1.0
 70
     8
 71
     3
 72
    12
 73
     8
 74
     0
 42
0.000000001
 43
0.00000001
 40
0.0
 40
0.0
 40
0.0
 40
0.0
 40
0.1369200109815089
 40
0.2732890961658866
 40
0.4609255165294002
 40
0.7173045600126787
 40
1.0
 40
1.0
 40
1.0
 40
1.0
 10
674.484702609292
 20
485.3460459261813
 30
0.0
 10
674.5261777106134
 20
485.2996195044998
 30
0.0
 10
674.6089610296643
 20
485.2069534673839
 30
0.0
 10
674.7839094652068
 20
485.1092993373403
 30
0.0
 10
675.0049248468292
 20
485.0563832740651
 30
0.0
 10
675.2650508838593
 20
485.0833088541565
 30
0.0
 10
675.4138401143971
 20
485.1819046858451
 30
0.0
 10
675.4918665064487
 20
485.2336092143931
 30
0.0
  0
SPLINE
  5
103
330
1F
100
AcDbEntity
  8
0
  6
Continuous
 62
     7
370
    25
100
AcDbSpline
210
0.0
220
0.0
230
1.0
 70
     8
 71
     3
 72
    11
 73
     7
 74
     0
 42
0.000000001
 43
0.00000001
 40
0.0
 40
0.0
 40
0.0
 40
0.0
 40
0.260329668723368
 40
0.5282087798914894
 40
0.7614184761247074
 40
1.0
 40
1.0
 40
1.0
 40
1.0
 10
688.2219443468365
 20
495.9172798543848
 30
0.0
 10
686.9988178641029
 20
494.8907760792446
 30
0.0
 10
684.5170947848015
 20
492.808000384566
 30
0.0
 10
681.1324941465145
 20
489.9674857632148
 30
0.0
 10
678.0607452809681
 20
487.3895326270097
 30
0.0
 10
676.3546347050687
 20
485.9576847050375
 30
0.0
 10
675.4918665064487
 20
485.2336092143931
 30
0.0
  0
SPLINE
  5
104
330
1F
100
AcDbEntity
  8
0
  6
Continuous
 62
     7
370
    25
100
AcDbSpline
210
0.0
220
0.0
230
1.0
 70
     8
 71
     3
 72
    12
 73
     8
 74
     0
 42
0.000000001
 43
0.00000001
 40
0.0
 40
0.0
 40
0.0
 40
0.0
 40
0.2228995734168227
 40
0.4458327945591014
 40
0.6679325585608783
 40
0.8889143747020365
 40
0.9999999999999999
 40
0.9999999999999999
 40
0.9999999999999999
 40
0.9999999999999999
 10
688.2219443468364
 20
495.9172798543848
 30
0.0
 10
688.2774138306704
 20
495.97398806775
 30
0.0
 10
688.3883611717146
 20
496.0874130548484
 30
0.0
 10
688.4714150179316
 20
496.3158308195767
 30
0.0
 10
688.4778127531927
 20
496.5545964107534
 30
0.0
 10
688.4179277030464
 20
496.7472021031775
 30
0.0
 10
688.3513752485484
 20
496.8446339476007
 30
0.0
 10
688.3291116354975
 20
496.8772275596537
 30
0.0
  0
SPLINE
  5
105
330
1F
100
AcDbEntity
  8
0
  6
Continuous
 62
     7
370
    25
100
AcDbSpline
210
0.0
220
0.0
230
1.0
 70
     8
 71
     3
 72
     9
 73
     5
 74
     0
 42
0.000000001
 43
0.00000001
 40
0.0
 40
0.0
 40
0.0
 40
0.0
 40
0.4999973149610002
 40
1.0
 40
1.0
 40
1.0
 40
1.0
 10
687.9948543755326
 20
497.3167186826147
 30
0.0
 10
688.0505640684406
 20
497.2434708967675
 30
0.0
 10
688.161984052591
 20
497.096974538376
 30
0.0
 10
688.2734022417538
 20
496.9504768147959
 30
0.0
 10
688.3291116354975
 20
496.8772275596537
 30
0.0
  0
SPLINE
  5
106
330
1F
100
AcDbEntity
  8
0
  6
Continuous
 62
     7
370
    25
100
AcDbSpline
210
0.0
220
0.0
230
1.0
 70
     8
 71
     3
 72
    12
 73
     8
 74
     0
 42
0.000000001
 43
0.00000001
 40
0.0
 40
0.0
 40
0.0
 40
0.0
 40
0.2201354726503156
 40
0.4402544191355021
 40
0.6607435616591413
 40
0.8821616507476601
 40
1.0
 40
1.0
 40
1.0
 40
1.0
 10
687.9948543755324
 20
497.3167186826147
 30
0.0
 10
687.9412487016418
 20
497.3744991121663
 30
0.0
 10
687.8340413781835
 20
497.4900556335366
 30
0.0
 10
687.612053797564
 20
497.5839438326229
 30
0.0
 10
687.3757105790262
 20
497.6031844083294
 30
0.0
 10
687.1789213097785
 20
497.5540352521358
 30
0.0
 10
687.0766708833432
 20
497.4915310577325
 30
0.0
 10
687.0411549134168
 20
497.4698206633009
 30
0.0
  0
SPLINE
  5
107
330
1F
100
AcDbEntity
  8
0
  6
Continuous
 62
     7
370
    25
100
AcDbSpline
210
0.0
220
0.0
230
1.0
 70
     8
 71
     3
 72
    11
 73
     7
 74
     0
 42
0.000000001
 43
0.00000001
 40
0.0
 40
0.0
 40
0.0
 40
0.0
 40
0.2832272883406583
 40
0.5762690821553923
 40
0.786190891689139
 40
1.0
 40
1.0
 40
1.0
 40
1.0
 10
673.3456988258275
 20
488.0554570108332
 30
0.0
 10
674.456074295085
 20
488.8187366443741
 30
0.0
 10
676.7153024092465
 20
490.3717453831347
 30
0.0
 10
680.3362332432876
 20
492.8608041180059
 30
0.0
 10
683.8165965143542
 20
495.2532337785762
 30
0.0
 10
685.9597483699603
 20
496.7264532732181
 30
0.0
 10
687.0411549134168
 20
497.4698206633009
 30
0.0
  0
SPLINE
  5
108
330
1F
100
AcDbEntity
  8
0
  6
Continuous
 62
     7
370
    25
100
AcDbSpline
210
0.0
220
0.0
230
1.0
 70
     8
 71
     3
 72
    12
 73
     8
 74
     0
 42
0.000000001
 43
0.00000001
 40
0.0
 40
0.0
 40
0.0
 40
0.0
 40
0.3203308343597242
 40
0.5619242249904917
 40
0.7389278734205926
 40
0.8801308772658402
 40
1.0
 40
1.0
 40
1.0
 40
1.0
 10
673.3456988258275
 20
488.0554570108332
 30
0.0
 10
673.2663035061207
 20
487.9846690102522
 30
0.0
 10
673.1270282671846
 20
487.8604927271772
 30
0.0
 10
673.0406609787054
 20
487.6059258836886
 30
0.0
 10
673.0395417182626
 20
487.3847467709127
 30
0.0
 10
673.0902081462726
 20
487.1993033791057
 30
0.0
 10
673.1552188861613
 20
487.1003029814501
 30
0.0
 10
673.1850680334481
 20
487.0548477619566
 30
0.0
  0
LINE
  5
109
330
1F
100
AcDbEntity
  8
0
  6
Continuous
 62
     7
370
    25
100
AcDbLine
 10
673.1850680334
 20
487.054847762
 30
0.0
 11
673.8348853214
 21
486.2004487067
 31
0.0
  0
LINE
  5
10A
330
1F
100
AcDbEntity
  8
0
  6
Continuous
 62
     7
370
    25
100
AcDbLine
 10
674.4847026093
 20
485.3460459262
 30
0.0
 11
673.8348853214
 21
486.2004487067
 31
0.0
  0
SPLINE
  5
10B
330
1F
100
AcDbEntity
  8
0
  6
Continuous
 62
     7
370
    25
100
AcDbSpline
210
0.0
220
0.0
230
1.0
 70
     8
 71
     3
 72
    12
 73
     8
 74
     0
 42
0.000000001
 43
0.00000001
 40
0.0
 40
0.0
 40
0.0
 40
0.0
 40
0.2201313747089555
 40
0.4402538362259278
 40
0.660743385015785
 40
0.8821612834384015
 40
0.9999999999999999
 40
0.9999999999999999
 40
0.9999999999999999
 40
0.9999999999999999
 10
718.5752055047068
 20
519.8810031860746
 30
0.0
 10
718.6288119529092
 20
519.8232266169392
 30
0.0
 10
718.7360226787716
 20
519.7076758180609
 30
0.0
 10
718.9580037683512
 20
519.6137740624673
 30
0.0
 10
719.1943491770572
 20
519.5945445818408
 30
0.0
 10
719.3911389402299
 20
519.6436859410379
 30
0.0
 10
719.4933890237816
 20
519.7061905949729
 30
0.0
 10
719.5289049668226
 20
519.7279012053884
 30
0.0
  0
SPLINE
  5
10C
330
1F
100
AcDbEntity
  8
0
  6
Continuous
 62
     7
370
    25
100
AcDbSpline
210
0.0
220
0.0
230
1.0
 70
     8
 71
     3
 72
    11
 73
     7
 74
     0
 42
0.000000001
 43
0.00000001
 40
0.0
 40
0.0
 40
0.0
 40
0.0
 40
0.2832273495301738
 40
0.5762690130475321
 40
0.786190801498609
 40
1.0
 40
1.0
 40
1.0
 40
1.0
 10
733.2243610544118
 20
529.1422685831465
 30
0.0
 10
732.113985840744
 20
528.3789871676945
 30
0.0
 10
729.8547590056444
 20
526.8259753251245
 30
0.0
 10
726.2338259291383
 20
524.336921743688
 30
0.0
 10
722.7534624661185
 20
521.9444919168593
 30
0.0
 10
720.61031139449
 20
520.4712700066631
 30
0.0
 10
719.5289049668226
 20
519.7279012053884
 30
0.0
  0
SPLINE
  5
10D
330
1F
100
AcDbEntity
  8
0
  6
Continuous
 62
     7
370
    25
100
AcDbSpline
210
0.0
220
0.0
230
1.0
 70
     8
 71
     3
 72
    12
 73
     8
 74
     0
 42
0.000000001
 43
0.00000001
 40
0.0
 40
0.0
 40
0.0
 40
0.0
 40
0.3203297666900178
 40
0.5619234818677072
 40
0.7389273680774473
 40
0.8801330813305662
 40
1.0
 40
1.0
 40
1.0
 40
1.0
 10
733.2243610544118
 20
529.1422685831465
 30
0.0
 10
733.3037563802322
 20
529.2130551004095
 30
0.0
 10
733.4430319099155
 20
529.3372290311082
 30
0.0
 10
733.5293991724969
 20
529.5917962432068
 30
0.0
 10
733.5305174107914
 20
529.8129756746554
 30
0.0
 10
733.4798534099021
 20
529.9984207554925
 30
0.0
 10
733.4148411056896
 20
530.0974202333355
 30
0.0
 10
733.3849918467912
 20
530.1428741067327
 30
0.0
  0
LINE
  5
10E
330
1F
100
AcDbEntity
  8
0
  6
Continuous
 62
     7
370
    25
100
AcDbLine
 10
732.7351745589
 20
530.9972768873
 30
0.0
 11
733.3849918468
 21
530.1428741067
 31
0.0
  0
LINE
  5
10F
330
1F
100
AcDbEntity
  8
0
  6
Continuous
 62
     7
370
    25
100
AcDbLine
 10
732.7351745589
 20
530.9972768873
 30
0.0
 11
732.0853572709
 21
531.8516796678
 31
0.0
  0
SPLINE
  5
110
330
1F
100
AcDbEntity
  8
0
  6
Continuous
 62
     7
370
    25
100
AcDbSpline
210
0.0
220
0.0
230
1.0
 70
     8
 71
     3
 72
    12
 73
     8
 74
     0
 42
0.000000001
 43
0.00000001
 40
0.0
 40
0.0
 40
0.0
 40
0.0
 40
0.1369218727550766
 40
0.2732895491362788
 40
0.460925852543046
 40
0.7173047362212146
 40
1.0
 40
1.0
 40
1.0
 40
1.0
 10
732.0853572709474
 20
531.8516796677984
 30
0.0
 10
732.0438825360541
 20
531.8981078859427
 30
0.0
 10
731.9611009367999
 20
531.9907764022911
 30
0.0
 10
731.7861490217193
 20
532.0884248421085
 30
0.0
 10
731.5651354105038
 20
532.141342970979
 30
0.0
 10
731.3050088775972
 20
532.1144165347412
 30
0.0
 10
731.1562197249799
 20
532.0158208375848
 30
0.0
 10
731.0781933737907
 20
531.9641163795866
 30
0.0
  0
SPLINE
  5
111
330
1F
100
AcDbEntity
  8
0
  6
Continuous
 62
     7
370
    25
100
AcDbSpline
210
0.0
220
0.0
230
1.0
 70
     8
 71
     3
 72
    11
 73
     7
 74
     0
 42
0.000000001
 43
0.00000001
 40
0.0
 40
0.0
 40
0.0
 40
0.0
 40
0.2603296710265651
 40
0.5282086642065942
 40
0.761418474013921
 40
1.0
 40
1.0
 40
1.0
 40
1.0
 10
718.3481155334028
 20
521.2804457395948
 30
0.0
 10
719.5712417954011
 20
522.3069498709652
 30
0.0
 10
722.0529638613434
 20
524.389725813852
 30
0.0
 10
725.4375677884668
 20
527.2302351388748
 30
0.0
 10
728.5093135879121
 20
529.8081936695711
 30
0.0
 10
730.2154249709346
 20
531.2400412385754
 30
0.0
 10
731.0781933737907
 20
531.9641163795866
 30
0.0
  0
SPLINE
  5
112
330
1F
100
AcDbEntity
  8
0
  6
Continuous
 62
     7
370
    25
100
AcDbSpline
210
0.0
220
0.0
230
1.0
 70
     8
 71
     3
 72
    12
 73
     8
 74
     0
 42
0.000000001
 43
0.00000001
 40
0.0
 40
0.0
 40
0.0
 40
0.0
 40
0.222902378606586
 40
0.445835750148924
 40
0.6679356639884754
 40
0.8889142997590355
 40
0.9999999999999999
 40
0.9999999999999999
 40
0.9999999999999999
 40
0.9999999999999999
 10
718.3481155334028
 20
521.2804457395948
 30
0.0
 10
718.2926461189951
 20
521.2237361961875
 30
0.0
 10
718.181699577566
 20
521.1103092243279
 30
0.0
 10
718.0986448548649
 20
520.8818912223253
 30
0.0
 10
718.0922466552404
 20
520.6431264554341
 30
0.0
 10
718.152132954444
 20
520.4505225465788
 30
0.0
 10
718.2186846592566
 20
520.3530916545685
 30
0.0
 10
718.2409482447418
 20
520.320498034326
 30
0.0
  0
SPLINE
  5
113
330
1F
100
AcDbEntity
  8
0
  6
Continuous
 62
     7
370
    25
100
AcDbSpline
210
0.0
220
0.0
230
1.0
 70
    24
 71
     3
 72
     9
 73
     5
 74
     0
 42
0.000000001
 43
0.00000001
 40
0.0
 40
0.0
 40
0.0
 40
0.0
 40
0.4999999999999999
 40
0.9999999999999999
 40
0.9999999999999999
 40
0.9999999999999999
 40
0.9999999999999999
 10
718.5752055047068
 20
519.8810031860746
 30
0.0
 10
718.5194959613792
 20
519.9542523274498
 30
0.0
 10
718.4080768747242
 20
520.1007506102003
 30
0.0
 10
718.2966577880693
 20
520.2472488929508
 30
0.0
 10
718.2409482447418
 20
520.320498034326
 30
0.0
  0
SPLINE
  5
114
330
1F
100
AcDbEntity
  8
0
  6
Continuous
 62
     7
370
    25
100
AcDbSpline
210
0.0
220
0.0
230
1.0
 70
     8
 71
     3
 72
    19
 73
    15
 74
     0
 42
0.000000001
 43
0.00000001
 40
0.0
 40
0.0
 40
0.0
 40
0.0
 40
0.0903185374914314
 40
0.2045632318995751
 40
0.2714199557082139
 40
0.3439361990411834
 40
0.4207855409090051
 40
0.4999999698189933
 40
0.5792144383613751
 40
0.6560637695671369
 40
0.7285800625086855
 40
0.7954368413959033
 40
0.9096815961607848
 40
1.0
 40
1.0
 40
1.0
 40
1.0
 10
695.8225884845468
 20
511.9976779669203
 30
0.0
 10
696.202567265278
 20
512.6764516866882
 30
0.0
 10
697.0631844718735
 20
514.2138121190069
 30
0.0
 10
698.9553443997747
 20
515.6901482500431
 30
0.0
 10
700.9650404922601
 20
516.5329028319384
 30
0.0
 10
702.8050205910495
 20
516.8603177108182
 30
0.0
 10
704.7767998078115
 20
516.7458414914774
 30
0.0
 10
706.7190852248453
 20
516.138671940376
 30
0.0
 10
708.4520567887406
 20
515.0719292402404
 30
0.0
 10
709.8326851094711
 20
513.6595240470144
 30
0.0
 10
710.7934314367973
 20
512.0564974479812
 30
0.0
 10
711.4768053205381
 20
509.9871687816913
 30
0.0
 10
711.6050329310168
 20
507.5906306074908
 30
0.0
 10
711.0101313884795
 20
505.932249651464
 30
0.0
 10
710.7474713956925
 20
505.2000439017691
 30
0.0
  0
SPLINE
  5
115
330
1F
100
AcDbEntity
  8
0
  6
Continuous
 62
     7
370
    25
100
AcDbSpline
210
0.0
220
0.0
230
1.0
 70
     8
 71
     3
 72
    19
 73
    15
 74
     0
 42
0.000000001
 43
0.00000001
 40
0.0
 40
0.0
 40
0.0
 40
0.0
 40
0.0903184369374616
 40
0.2045632499070928
 40
0.2714199339031644
 40
0.3439361946083812
 40
0.4207855464700884
 40
0.5000000376472548
 40
0.5792146012075976
 40
0.6560639508236564
 40
0.7285801366846756
 40
0.7954369315883394
 40
0.9096817137220978
 40
1.0
 40
1.0
 40
1.0
 40
1.0
 10
710.7474713956925
 20
505.2000439017691
 30
0.0
 10
710.3674921680482
 20
504.5212719108882
 30
0.0
 10
709.5068729153264
 20
502.9839135474276
 30
0.0
 10
707.6147179140485
 20
501.5075718171879
 30
0.0
 10
705.6050183056205
 20
500.6648235764669
 30
0.0
 10
703.7650396620085
 20
500.3374090278199
 30
0.0
 10
701.7932592689577
 20
500.4518781661875
 30
0.0
 10
699.8509742397813
 20
501.059054364619
 30
0.0
 10
698.1180038921134
 20
502.1258000891823
 30
0.0
 10
696.7373759780955
 20
503.5382046975902
 30
0.0
 10
695.7766275207431
 20
505.1412288481712
 30
0.0
 10
695.0932549088479
 20
507.2105569400283
 30
0.0
 10
694.9650264511183
 20
509.6070938585355
 30
0.0
 10
695.5599284960311
 20
511.2654734499551
 30
0.0
 10
695.8225884845468
 20
511.9976779669203
 30
0.0
  0
SPLINE
  5
116
330
1F
100
AcDbEntity
  8
0
  6
Continuous
 62
     7
370
    25
100
AcDbSpline
210
0.0
220
0.0
230
1.0
 70
     8
 71
     3
 72
     9
 73
     5
 74
     0
 42
0.000000001
 43
0.00000001
 40
0.0
 40
0.0
 40
0.0
 40
0.0
 40
0.7733796717704216
 40
1.0
 40
1.0
 40
1.0
 40
1.0
 10
711.456524058989
 20
504.8771022110857
 30
0.0
 10
711.4715902283407
 20
504.87024048708
 30
0.0
 10
711.4910711765758
 20
504.8613680997439
 30
0.0
 10
711.4644130714993
 20
504.8735089353322
 30
0.0
 10
711.458371802977
 20
504.8762602954783
 30
0.0
  0
ARC
  5
117
330
1F
100
AcDbEntity
  8
0
  6
Continuous
 62
     7
370
    25
100
AcDbCircle
 10
703.2850299401
 20
508.5988622754
 30
0.0
 40
8.91131119600001
100
AcDbArc
 50
157.3074712684
 51
213.6929108093
  0
SPLINE
  5
118
330
1F
100
AcDbEntity
  8
0
  6
Continuous
 62
     7
370
    25
100
AcDbSpline
210
0.0
220
0.0
230
1.0
 70
     8
 71
     3
 72
     9
 73
     5
 74
     0
 42
0.000000001
 43
0.00000001
 40
0.0
 40
0.0
 40
0.0
 40
0.0
 40
0.2266203282295784
 40
1.0
 40
1.0
 40
1.0
 40
1.0
 10
695.1116880772622
 20
512.3214652985014
 30
0.0
 10
695.1056468087398
 20
512.3242166586475
 30
0.0
 10
695.0789887036634
 20
512.3363574942359
 30
0.0
 10
695.0984696518984
 20
512.3274851068998
 30
0.0
 10
695.1135358212503
 20
512.3206233828939
 30
0.0
  0
ARC
  5
119
330
1F
100
AcDbEntity
  8
0
  6
Continuous
 62
     7
370
    25
100
AcDbCircle
 10
703.2850299401
 20
508.5988622754
 30
0.0
 40
8.911311196000069
100
AcDbArc
 50
337.3074712698
 51
33.6929108129
  0
CIRCLE
  5
11A
330
1F
100
AcDbEntity
  8
0
  6
Continuous
 62
     7
370
    25
100
AcDbCircle
 10
703.2850299401
 20
508.5988622754
 30
0.0
 40
57.00000000000012
  0
SPLINE
  5
11B
330
1F
100
AcDbEntity
  8
0
  6
Continuous
 62
     7
370
    25
100
AcDbSpline
210
0.0
220
0.0
230
1.0
 70
     8
 71
     3
 72
    35
 73
    31
 74
     0
 42
0.000000001
 43
0.00000001
 40
0.0
 40
0.0
 40
0.0
 40
0.0
 40
0.0282546045320069
 40
0.0583834345360691
 40
0.0903495200177339
 40
0.1258616740106122
 40
0.1640104980987543
 40
0.2048405395250376
 40
0.2374624693212385
 40
0.2716126903981788
 40
0.3071914228265689
 40
0.3440549913966255
 40
0.3820151163558663
 40
0.4208413653533347
 40
0.4602672693049566
 40
0.5000000025029342
 40
0.539732733341612
 40
0.5791586400228661
 40
0.6179848818364463
 40
0.6559450083492306
 40
0.6928085762377301
 40
0.7283873087095399
 40
0.7625375378333422
 40
0.7951594840727284
 40
0.8359928524625182
 40
0.8741416159322394
 40
0.9096504580346575
 40
0.9416198649435661
 40
0.9717470211580295
 40
1.0
 40
1.0
 40
1.0
 40
1.0
 10
747.2928900642308
 20
503.9532302170672
 30
0.0
 10
747.3968112826152
 20
505.2585886576967
 30
0.0
 10
747.6115471726039
 20
507.9558944712772
 30
0.0
 10
747.4607539068874
 20
512.147075231098
 30
0.0
 10
746.8869977823078
 20
516.637378731045
 30
0.0
 10
745.7465171735156
 20
521.4060099238192
 30
0.0
 10
743.9240498581715
 20
526.3988144165414
 30
0.0
 10
741.5568152278278
 20
531.0106083419073
 30
0.0
 10
738.7812818763977
 20
535.1597839784607
 30
0.0
 10
735.7417095912392
 20
538.8095457681577
 30
0.0
 10
732.1791724977733
 20
542.2421859230486
 30
0.0
 10
728.1088157359634
 20
545.3560712615348
 30
0.0
 10
723.5711363265098
 20
548.048432165526
 30
0.0
 10
718.6330418453375
 20
550.2233976151756
 30
0.0
 10
713.3862857636788
 20
551.8002331959871
 30
0.0
 10
707.9427444286263
 20
552.7211841716891
 30
0.0
 10
702.4268931928793
 20
552.9571465358612
 30
0.0
 10
696.9665408330083
 20
552.5105954537999
 30
0.0
 10
691.6831562773488
 20
551.4146495166713
 30
0.0
 10
686.683328039718
 20
549.7291056147097
 30
0.0
 10
682.0525095522615
 20
547.5337453904317
 30
0.0
 10
677.8517598509828
 20
544.920625213252
 30
0.0
 10
674.1171165567068
 20
541.9859693746746
 30
0.0
 10
670.5362882931678
 20
538.5076834798135
 30
0.0
 10
667.2582341480336
 20
534.4916652356249
 30
0.0
 10
664.4334534361628
 20
529.9894348964693
 30
0.0
 10
662.3224649475668
 20
525.5640293932356
 30
0.0
 10
660.8237898651228
 20
521.2925746454322
 30
0.0
 10
659.8012937857591
 20
517.2252376211111
 30
0.0
 10
659.4480982608211
 20
514.5427036640182
 30
0.0
 10
659.2771698160085
 20
513.2444953769125
 30
0.0
  0
SPLINE
  5
11C
330
1F
100
AcDbEntity
  8
0
  6
Continuous
 62
     7
370
    25
100
AcDbSpline
210
0.0
220
0.0
230
1.0
 70
     8
 71
     3
 72
    35
 73
    31
 74
     0
 42
0.000000001
 43
0.00000001
 40
0.0
 40
0.0
 40
0.0
 40
0.0
 40
0.0282546309286537
 40
0.058383460544051
 40
0.0903495456133501
 40
0.1258616469930045
 40
0.164010470589023
 40
0.2048405353411357
 40
0.2374624870011326
 40
0.2716127076375317
 40
0.3071914396069525
 40
0.3440550158465859
 40
0.3820151266353851
 40
0.4208413697285888
 40
0.4602672808882206
 40
0.5000000091013511
 40
0.5397327405734172
 40
0.579158650024031
 40
0.6179848913367488
 40
0.6559450173598438
 40
0.69280857903033
 40
0.7283873110431707
 40
0.7625375314439147
 40
0.7951594959433582
 40
0.8359928534210245
 40
0.8741415936894945
 40
0.9096504837391142
 40
0.9416198396621595
 40
0.9717470215224956
 40
1.0
 40
1.0
 40
1.0
 40
1.0
 10
659.2771698160084
 20
513.2444953769125
 30
0.0
 10
659.1732485723473
 20
511.9391356921092
 30
0.0
 10
658.9585127350861
 20
509.2418286260233
 30
0.0
 10
659.1093060867347
 20
505.0506466720642
 30
0.0
 10
659.6830611978786
 20
500.5603453987706
 30
0.0
 10
660.8235440375104
 20
495.7917172239677
 30
0.0
 10
662.6460105705553
 20
490.798913963113
 30
0.0
 10
665.0132449651608
 20
486.1871175964806
 30
0.0
 10
667.7887768524329
 20
482.0379383654682
 30
0.0
 10
670.8283503229555
 20
478.3881760486001
 30
0.0
 10
674.3908880640786
 20
474.9555362647366
 30
0.0
 10
678.4612424954564
 20
471.8416481628655
 30
0.0
 10
682.9989242501124
 20
469.1492915584001
 30
0.0
 10
687.9370190991375
 20
466.9743297482214
 30
0.0
 10
693.1837729438408
 20
465.3974856372449
 30
0.0
 10
698.6273160524955
 20
464.4765449986556
 30
0.0
 10
704.1431668152651
 20
464.2405714678284
 30
0.0
 10
709.6035187484227
 20
464.6871344945766
 30
0.0
 10
714.8869037223445
 20
465.7830771247584
 30
0.0
 10
719.8867312675102
 20
467.4686225404539
 30
0.0
 10
724.517550965179
 20
469.6639795797105
 30
0.0
 10
728.7182991039198
 20
472.2771009596057
 30
0.0
 10
732.4529452965339
 20
475.2117540054529
 30
0.0
 10
736.0337696615912
 20
478.6900441140952
 30
0.0
 10
739.3118248791964
 20
482.7060599693688
 30
0.0
 10
742.1366099230208
 20
487.2082889747882
 30
0.0
 10
744.2475910943543
 20
491.6336965511101
 30
0.0
 10
745.746272398512
 20
495.9051501421771
 30
0.0
 10
746.7687653771827
 20
499.9724869467283
 30
0.0
 10
747.1219614368581
 20
502.6550219854449
 30
0.0
 10
747.2928900642308
 20
503.9532302170672
 30
0.0
  0
SPLINE
  5
11D
330
1F
100
AcDbEntity
  8
0
  6
Continuous
 62
     7
370
    25
100
AcDbSpline
210
0.0
220
0.0
230
1.0
 70
     8
 71
     3
 72
    11
 73
     7
 74
     0
 42
0.000000001
 43
0.00000001
 40
0.0
 40
0.0
 40
0.0
 40
0.0
 40
0.2706993793482176
 40
0.5623159207614409
 40
0.7892965652065618
 40
0.9999999999999999
 40
0.9999999999999999
 40
0.9999999999999999
 40
0.9999999999999999
 10
659.2771698160085
 20
513.2444953769125
 30
0.0
 10
659.8154246129445
 20
513.18767646009
 30
0.0
 10
660.9335255944545
 20
513.06964818235
 30
0.0
 10
662.2171396358855
 20
512.9341365646809
 30
0.0
 10
662.9867620897187
 20
512.8528999577004
 30
0.0
 10
663.0991513534246
 20
512.8410308111484
 30
0.0
 10
663.1532561404618
 20
512.83531694111
 30
0.0
  0
ARC
  5
11E
330
1F
100
AcDbEntity
  8
0
  6
Continuous
 62
     7
370
    25
100
AcDbCircle
 10
703.2850299401
 20
508.5988622754
 30
0.0
 40
40.35476230894871
100
AcDbArc
 50
173.973964907
 51
353.973964907
  0
SPLINE
  5
11F
330
1F
100
AcDbEntity
  8
0
  6
Continuous
 62
     7
370
    25
100
AcDbSpline
210
0.0
220
0.0
230
1.0
 70
     8
 71
     3
 72
    11
 73
     7
 74
     0
 42
0.000000001
 43
0.00000001
 40
0.0
 40
0.0
 40
0.0
 40
0.0
 40
0.2706995637351315
 40
0.5623161583086377
 40
0.7892981501805714
 40
0.9999999999999999
 40
0.9999999999999999
 40
0.9999999999999999
 40
0.9999999999999999
 10
743.4168037397775
 20
504.3624049275793
 30
0.0
 10
743.5010709675171
 20
504.3535100851644
 30
0.0
 10
743.6761167752014
 20
504.3350330933785
 30
0.0
 10
744.7250155063681
 20
504.2243057451483
 30
0.0
 10
746.0069043929916
 20
504.0889866585925
 30
0.0
 10
746.8749913300067
 20
503.9973461402419
 30
0.0
 10
747.2928900642308
 20
503.9532302170672
 30
0.0
  0
ARC
  5
120
330
1F
100
AcDbEntity
  8
0
  6
Continuous
 62
     7
370
    25
100
AcDbCircle
 10
703.2850299401
 20
508.5988622754
 30
0.0
 40
40.35476230894871
100
AcDbArc
 50
353.973964907
 51
173.973964907
  0
CIRCLE
  5
121
330
1F
100
AcDbEntity
  8
0
  6
Continuous
 62
     7
370
    25
100
AcDbCircle
 10
703.2850299401
 20
508.5988622754
 30
0.0
 40
39.93812333100002
  0
LINE
  5
122
330
1F
100
AcDbEntity
  8
0
  6
Continuous
 62
     7
370
    25
100
AcDbLine
 10
939.2850313706
 20
242.598862037
 30
0.0
 11
467.2850285096
 21
242.598862037
 31
0.0
  0
LINE
  5
123
330
1F
100
AcDbEntity
  8
0
  6
Continuous
 62
     7
370
    25
100
AcDbLine
 10
467.2850285096
 20
242.598862037
 30
0.0
 11
467.2850285096
 21
243.5988640636
 31
0.0
  0
LINE
  5
124
330
1F
100
AcDbEntity
  8
0
  6
Continuous
 62
     7
370
    25
100
AcDbLine
 10
467.2850285096
 20
243.5988640636
 30
0.0
 11
939.2850313706
 21
243.5988640636
 31
0.0
  0
LINE
  5
125
330
1F
100
AcDbEntity
  8
0
  6
Continuous
 62
     7
370
    25
100
AcDbLine
 10
939.2850313706
 20
242.598862037
 30
0.0
 11
939.2850313706
 21
243.5988640636
 31
0.0
  0
ARC
  5
126
330
1F
100
AcDbEntity
  8
0
  6
Continuous
 62
     7
370
    25
100
AcDbCircle
 10
467.2850299401
 20
252.5988622754
 30
0.0
 40
10.0
100
AcDbArc
 50
180.0
 51
270.0
  0
LINE
  5
127
330
1F
100
AcDbEntity
  8
0
  6
Continuous
 62
     7
370
    25
100
AcDbLine
 10
457.2850231452
 20
252.5988674014
 30
0.0
 11
458.2850251717
 21
252.5988674014
 31
0.0
  0
ARC
  5
128
330
1F
100
AcDbEntity
  8
0
  6
Continuous
 62
     7
370
    25
100
AcDbCircle
 10
467.2850299401
 20
252.5988622754
 30
0.0
 40
9.0
100
AcDbArc
 50
180.0
 51
270.0
  0
ARC
  5
129
330
1F
100
AcDbEntity
  8
0
  6
Continuous
 62
     7
370
    25
100
AcDbCircle
 10
505.8350299401
 20
291.0988622754
 30
0.0
 40
29.584994088673
100
AcDbArc
 50
180.0
 51
270.0
  0
LINE
  5
12A
330
1F
100
AcDbEntity
  8
0
  6
Continuous
 62
     7
370
    25
100
AcDbLine
 10
505.8350328727
 20
261.5138745159
 30
0.0
 11
505.8350328727
 21
260.6371199935
 31
0.0
  0
ARC
  5
12B
330
1F
100
AcDbEntity
  8
0
  6
Continuous
 62
     7
370
    25
100
AcDbCircle
 10
505.8350299401
 20
291.0988622754
 30
0.0
 40
30.4617363822511
100
AcDbArc
 50
180.0
 51
270.0
  0
LINE
  5
12C
330
1F
100
AcDbEntity
  8
0
  6
Continuous
 62
     7
370
    25
100
AcDbLine
 10
476.2500290198
 20
291.0988634675
 30
0.0
 11
475.3732893987
 21
291.0988634675
 31
0.0
  0
LINE
  5
12D
330
1F
100
AcDbEntity
  8
0
  6
Continuous
 62
     7
370
    25
100
AcDbLine
 10
457.2850231452
 20
252.5988674014
 30
0.0
 11
457.2850231452
 21
712.5988608449
 31
0.0
  0
LINE
  5
12E
330
1F
100
AcDbEntity
  8
0
  6
Continuous
 62
     7
370
    25
100
AcDbLine
 10
457.2850231452
 20
712.5988608449
 30
0.0
 11
458.2850251717
 21
712.5988608449
 31
0.0
  0
LINE
  5
12F
330
1F
100
AcDbEntity
  8
0
  6
Continuous
 62
     7
370
    25
100
AcDbLine
 10
458.2850251717
 20
712.5988608449
 30
0.0
 11
458.2850251717
 21
252.5988674014
 31
0.0
  0
ARC
  5
130
330
1F
100
AcDbEntity
  8
0
  6
Continuous
 62
     7
370
    25
100
AcDbCircle
 10
467.2850299401
 20
712.5988622754
 30
0.0
 40
9.000000000000114
100
AcDbArc
 50
90.0
 51
180.0
  0
ARC
  5
131
330
1F
100
AcDbEntity
  8
0
  6
Continuous
 62
     7
370
    25
100
AcDbCircle
 10
467.2850299401
 20
712.5988622754
 30
0.0
 40
10.00000000000011
100
AcDbArc
 50
90.0
 51
180.0
  0
LINE
  5
132
330
1F
100
AcDbEntity
  8
0
  6
Continuous
 62
     7
370
    25
100
AcDbLine
 10
467.2850285096
 20
721.5988641828
 30
0.0
 11
467.2850285096
 21
722.5988513082
 31
0.0
  0
ARC
  5
133
330
1F
100
AcDbEntity
  8
0
  6
Continuous
 62
     7
370
    25
100
AcDbCircle
 10
900.7350299401
 20
291.0988622754
 30
0.0
 40
29.584994088673
100
AcDbArc
 50
270.0
 51
0.0
  0
LINE
  5
134
330
1F
100
AcDbEntity
  8
0
  6
Continuous
 62
     7
370
    25
100
AcDbLine
 10
931.1967704816
 20
291.0988634675
 30
0.0
 11
930.3200308604
 21
291.0988634675
 31
0.0
  0
ARC
  5
135
330
1F
100
AcDbEntity
  8
0
  6
Continuous
 62
     7
370
    25
100
AcDbCircle
 10
900.7350299401
 20
291.0988622754
 30
0.0
 40
30.46173638225116
100
AcDbArc
 50
270.0
 51
0.0
  0
LINE
  5
136
330
1F
100
AcDbEntity
  8
0
  6
Continuous
 62
     7
370
    25
100
AcDbLine
 10
900.7350270076
 20
261.5138745159
 30
0.0
 11
900.7350270076
 21
260.6371199935
 31
0.0
  0
LINE
  5
137
330
1F
100
AcDbEntity
  8
0
  6
Continuous
 62
     7
370
    25
100
AcDbLine
 10
900.7350270076
 20
260.6371199935
 30
0.0
 11
505.8350328727
 21
260.6371199935
 31
0.0
  0
LINE
  5
138
330
1F
100
AcDbEntity
  8
0
  6
Continuous
 62
     7
370
    25
100
AcDbLine
 10
931.1967704816
 20
606.0988610834
 30
0.0
 11
931.1967704816
 21
291.0988634675
 31
0.0
  0
ARC
  5
139
330
1F
100
AcDbEntity
  8
0
  6
Continuous
 62
     7
370
    25
100
AcDbCircle
 10
900.7350299401
 20
606.0988622754
 30
0.0
 40
30.46173638225127
100
AcDbArc
 50
0.0
 51
90.0
  0
LINE
  5
13A
330
1F
100
AcDbEntity
  8
0
  6
Continuous
 62
     7
370
    25
100
AcDbLine
 10
505.8350328727
 20
636.5606045574
 30
0.0
 11
900.7350270076
 21
636.5606045574
 31
0.0
  0
ARC
  5
13B
330
1F
100
AcDbEntity
  8
0
  6
Continuous
 62
     7
370
    25
100
AcDbCircle
 10
505.8350299401
 20
606.0988622754
 30
0.0
 40
30.46173638225127
100
AcDbArc
 50
90.0
 51
180.0
  0
LINE
  5
13C
330
1F
100
AcDbEntity
  8
0
  6
Continuous
 62
     7
370
    25
100
AcDbLine
 10
475.3732893987
 20
291.0988634675
 30
0.0
 11
475.3732893987
 21
606.0988610834
 31
0.0
  0
CIRCLE
  5
13D
330
1F
100
AcDbEntity
  8
0
  6
Continuous
 62
     7
370
    25
100
AcDbCircle
 10
703.2850299401
 20
676.5588622754
 30
0.0
 40
17.5
  0
ARC
  5
13E
330
1F
100
AcDbEntity
  8
0
  6
Continuous
 62
     7
370
    25
100
AcDbCircle
 10
939.2850299401
 20
712.5988622754
 30
0.0
 40
9.000000000000114
100
AcDbArc
 50
0.0
 51
90.0
  0
LINE
  5
13F
330
1F
100
AcDbEntity
  8
0
  6
Continuous
 62
     7
370
    25
100
AcDbLine
 10
948.2850347085
 20
252.5988674014
 30
0.0
 11
948.2850347085
 21
712.5988608449
 31
0.0
  0
ARC
  5
140
330
1F
100
AcDbEntity
  8
0
  6
Continuous
 62
     7
370
    25
100
AcDbCircle
 10
939.2850299401
 20
252.5988622754
 30
0.0
 40
9.0
100
AcDbArc
 50
270.0
 51
0.0
  0
LINE
  5
141
330
1F
100
AcDbEntity
  8
0
  6
Continuous
 62
     7
370
    25
100
AcDbLine
 10
939.2850313706
 20
721.5988641828
 30
0.0
 11
467.2850285096
 21
721.5988641828
 31
0.0
  0
LINE
  5
142
330
1F
100
AcDbEntity
  8
0
  6
Continuous
 62
     7
370
    25
100
AcDbLine
 10
930.3200308604
 20
291.0988634675
 30
0.0
 11
930.3200308604
 21
606.0988610834
 31
0.0
  0
LINE
  5
143
330
1F
100
AcDbEntity
  8
0
  6
Continuous
 62
     7
370
    25
100
AcDbLine
 10
931.1967704816
 20
606.0988610834
 30
0.0
 11
930.3200308604
 21
606.0988610834
 31
0.0
  0
ARC
  5
144
330
1F
100
AcDbEntity
  8
0
  6
Continuous
 62
     7
370
    25
100
AcDbCircle
 10
505.8350299401
 20
606.0988622754
 30
0.0
 40
29.58499408867306
100
AcDbArc
 50
90.0
 51
180.0
  0
LINE
  5
145
330
1F
100
AcDbEntity
  8
0
  6
Continuous
 62
     7
370
    25
100
AcDbLine
 10
476.2500290198
 20
606.0988610834
 30
0.0
 11
475.3732893987
 21
606.0988610834
 31
0.0
  0
LINE
  5
146
330
1F
100
AcDbEntity
  8
0
  6
Continuous
 62
     7
370
    25
100
AcDbLine
 10
505.8350328727
 20
636.5606045574
 30
0.0
 11
505.8350328727
 21
635.683850035
 31
0.0
  0
LINE
  5
147
330
1F
100
AcDbEntity
  8
0
  6
Continuous
 62
     7
370
    25
100
AcDbLine
 10
505.8350328727
 20
261.5138745159
 30
0.0
 11
900.7350270076
 21
261.5138745159
 31
0.0
  0
LINE
  5
148
330
1F
100
AcDbEntity
  8
0
  6
Continuous
 62
     7
370
    25
100
AcDbLine
 10
900.7350270076
 20
636.5606045574
 30
0.0
 11
900.7350270076
 21
635.683850035
 31
0.0
  0
LINE
  5
149
330
1F
100
AcDbEntity
  8
0
  6
Continuous
 62
     7
370
    25
100
AcDbLine
 10
900.7350270076
 20
635.683850035
 30
0.0
 11
505.8350328727
 21
635.683850035
 31
0.0
  0
LINE
  5
14A
330
1F
100
AcDbEntity
  8
0
  6
Continuous
 62
     7
370
    25
100
AcDbLine
 10
948.2850347085
 20
252.5988674014
 30
0.0
 11
949.285036735
 21
252.5988674014
 31
0.0
  0
ARC
  5
14B
330
1F
100
AcDbEntity
  8
0
  6
Continuous
 62
     7
370
    25
100
AcDbCircle
 10
939.2850299401
 20
252.5988622754
 30
0.0
 40
10.0
100
AcDbArc
 50
270.0
 51
0.0
  0
ARC
  5
14C
330
1F
100
AcDbEntity
  8
0
  6
Continuous
 62
     7
370
    25
100
AcDbCircle
 10
900.7350299401
 20
606.0988622754
 30
0.0
 40
29.58499408867306
100
AcDbArc
 50
0.0
 51
90.0
  0
LINE
  5
14D
330
1F
100
AcDbEntity
  8
0
  6
Continuous
 62
     7
370
    25
100
AcDbLine
 10
467.2850285096
 20
722.5988513082
 30
0.0
 11
939.2850313706
 21
722.5988513082
 31
0.0
  0
LINE
  5
14E
330
1F
100
AcDbEntity
  8
0
  6
Continuous
 62
     7
370
    25
100
AcDbLine
 10
939.2850313706
 20
721.5988641828
 30
0.0
 11
939.2850313706
 21
722.5988513082
 31
0.0
  0
LINE
  5
14F
330
1F
100
AcDbEntity
  8
0
  6
Continuous
 62
     7
370
    25
100
AcDbLine
 10
476.2500290198
 20
606.0988610834
 30
0.0
 11
476.2500290198
 21
291.0988634675
 31
0.0
  0
LINE
  5
150
330
1F
100
AcDbEntity
  8
0
  6
Continuous
 62
     7
370
    25
100
AcDbLine
 10
948.2850347085
 20
712.5988608449
 30
0.0
 11
949.285036735
 21
712.5988608449
 31
0.0
  0
LINE
  5
151
330
1F
100
AcDbEntity
  8
0
  6
Continuous
 62
     7
370
    25
100
AcDbLine
 10
949.285036735
 20
712.5988608449
 30
0.0
 11
949.285036735
 21
252.5988674014
 31
0.0
  0
ARC
  5
152
330
1F
100
AcDbEntity
  8
0
  6
Continuous
 62
     7
370
    25
100
AcDbCircle
 10
939.2850299401
 20
712.5988622754
 30
0.0
 40
10.00000000000011
100
AcDbArc
 50
0.0
 51
90.0
  0
ARC
  5
153
330
1F
100
AcDbEntity
  8
0
  6
Continuous
 62
     7
370
    25
100
AcDbCircle
 10
505.8350299401
 20
291.0988622754
 30
0.0
 40
26.9270168091366
100
AcDbArc
 50
180.0
 51
270.0
  0
LINE
  5
154
330
1F
100
AcDbEntity
  8
0
  6
Continuous
 62
     7
370
    25
100
AcDbLine
 10
505.8350328727
 20
264.1718393415
 30
0.0
 11
505.8350328727
 21
261.5138745159
 31
0.0
  0
LINE
  5
155
330
1F
100
AcDbEntity
  8
0
  6
Continuous
 62
     7
370
    25
100
AcDbLine
 10
478.9080087466
 20
291.0988634675
 30
0.0
 11
476.2500290198
 21
291.0988634675
 31
0.0
  0
LINE
  5
156
330
1F
100
AcDbEntity
  8
0
  6
Continuous
 62
     7
370
    25
100
AcDbLine
 10
478.9080087466
 20
291.0988634675
 30
0.0
 11
478.9080087466
 21
606.0988610834
 31
0.0
  0
LINE
  5
157
330
1F
100
AcDbEntity
  8
0
  6
Continuous
 62
     7
370
    25
100
AcDbLine
 10
478.9080087466
 20
606.0988610834
 30
0.0
 11
476.2500290198
 21
606.0988610834
 31
0.0
  0
LINE
  5
158
330
1F
100
AcDbEntity
  8
0
  6
Continuous
 62
     7
370
    25
100
AcDbLine
 10
900.7350270076
 20
264.1718393415
 30
0.0
 11
505.8350328727
 21
264.1718393415
 31
0.0
  0
LINE
  5
159
330
1F
100
AcDbEntity
  8
0
  6
Continuous
 62
     7
370
    25
100
AcDbLine
 10
900.7350270076
 20
264.1718393415
 30
0.0
 11
900.7350270076
 21
261.5138745159
 31
0.0
  0
LINE
  5
15A
330
1F
100
AcDbEntity
  8
0
  6
Continuous
 62
     7
370
    25
100
AcDbLine
 10
927.6620511336
 20
606.0988610834
 30
0.0
 11
927.6620511336
 21
291.0988634675
 31
0.0
  0
LINE
  5
15B
330
1F
100
AcDbEntity
  8
0
  6
Continuous
 62
     7
370
    25
100
AcDbLine
 10
927.6620511336
 20
606.0988610834
 30
0.0
 11
930.3200308604
 21
606.0988610834
 31
0.0
  0
LINE
  5
15C
330
1F
100
AcDbEntity
  8
0
  6
Continuous
 62
     7
370
    25
100
AcDbLine
 10
927.6620511336
 20
291.0988634675
 30
0.0
 11
930.3200308604
 21
291.0988634675
 31
0.0
  0
ARC
  5
15D
330
1F
100
AcDbEntity
  8
0
  6
Continuous
 62
     7
370
    25
100
AcDbCircle
 10
900.7350299401
 20
291.0988622754
 30
0.0
 40
26.9270168091366
100
AcDbArc
 50
270.0
 51
0.0
  0
ARC
  5
15E
330
1F
100
AcDbEntity
  8
0
  6
Continuous
 62
     7
370
    25
100
AcDbCircle
 10
505.8350299401
 20
606.0988622754
 30
0.0
 40
26.92701680913694
100
AcDbArc
 50
90.0
 51
180.0
  0
LINE
  5
15F
330
1F
100
AcDbEntity
  8
0
  6
Continuous
 62
     7
370
    25
100
AcDbLine
 10
505.8350328727
 20
633.0258852094
 30
0.0
 11
505.8350328727
 21
635.683850035
 31
0.0
  0
LINE
  5
160
330
1F
100
AcDbEntity
  8
0
  6
Continuous
 62
     7
370
    25
100
AcDbLine
 10
505.8350328727
 20
633.0258852094
 30
0.0
 11
900.7350270076
 21
633.0258852094
 31
0.0
  0
LINE
  5
161
330
1F
100
AcDbEntity
  8
0
  6
Continuous
 62
     7
370
    25
100
AcDbLine
 10
900.7350270076
 20
633.0258852094
 30
0.0
 11
900.7350270076
 21
635.683850035
 31
0.0
  0
ARC
  5
162
330
1F
100
AcDbEntity
  8
0
  6
Continuous
 62
     7
370
    25
100
AcDbCircle
 10
900.7350299401
 20
606.0988622754
 30
0.0
 40
26.92701680913694
100
AcDbArc
 50
0.0
 51
90.0
  0
LINE
  5
163
330
1F
100
AcDbEntity
  8
0
  6
Continuous
 62
     7
370
    25
100
AcDbLine
 10
927.6620511336
 20
291.0988634675
 30
0.0
 11
927.2236738725
 21
291.0988634675
 31
0.0
  0
LINE
  5
164
330
1F
100
AcDbEntity
  8
0
  6
Continuous
 62
     7
370
    25
100
AcDbLine
 10
927.2236738725
 20
291.0988634675
 30
0.0
 11
927.2236738725
 21
606.0988610834
 31
0.0
  0
LINE
  5
165
330
1F
100
AcDbEntity
  8
0
  6
Continuous
 62
     7
370
    25
100
AcDbLine
 10
927.6620511336
 20
606.0988610834
 30
0.0
 11
927.2236738725
 21
606.0988610834
 31
0.0
  0
ARC
  5
166
330
1F
100
AcDbEntity
  8
0
  6
Continuous
 62
     7
370
    25
100
AcDbCircle
 10
505.8350299401
 20
606.0988622754
 30
0.0
 40
26.48864566234795
100
AcDbArc
 50
90.0
 51
180.0
  0
LINE
  5
167
330
1F
100
AcDbEntity
  8
0
  6
Continuous
 62
     7
370
    25
100
AcDbLine
 10
479.3463860078
 20
606.0988610834
 30
0.0
 11
478.9080087466
 21
606.0988610834
 31
0.0
  0
LINE
  5
168
330
1F
100
AcDbEntity
  8
0
  6
Continuous
 62
     7
370
    25
100
AcDbLine
 10
505.8350328727
 20
633.0258852094
 30
0.0
 11
505.8350328727
 21
632.5875079482
 31
0.0
  0
ARC
  5
169
330
1F
100
AcDbEntity
  8
0
  6
Continuous
 62
     7
370
    25
100
AcDbCircle
 10
900.7350299401
 20
291.0988622754
 30
0.0
 40
26.48864566234755
100
AcDbArc
 50
270.0
 51
0.0
  0
LINE
  5
16A
330
1F
100
AcDbEntity
  8
0
  6
Continuous
 62
     7
370
    25
100
AcDbLine
 10
900.7350270076
 20
264.6102166027
 30
0.0
 11
900.7350270076
 21
264.1718393415
 31
0.0
  0
LINE
  5
16B
330
1F
100
AcDbEntity
  8
0
  6
Continuous
 62
     7
370
    25
100
AcDbLine
 10
900.7350270076
 20
633.0258852094
 30
0.0
 11
900.7350270076
 21
632.5875079482
 31
0.0
  0
LINE
  5
16C
330
1F
100
AcDbEntity
  8
0
  6
Continuous
 62
     7
370
    25
100
AcDbLine
 10
900.7350270076
 20
632.5875079482
 30
0.0
 11
505.8350328727
 21
632.5875079482
 31
0.0
  0
LINE
  5
16D
330
1F
100
AcDbEntity
  8
0
  6
Continuous
 62
     7
370
    25
100
AcDbLine
 10
479.3463860078
 20
606.0988610834
 30
0.0
 11
479.3463860078
 21
291.0988634675
 31
0.0
  0
LINE
  5
16E
330
1F
100
AcDbEntity
  8
0
  6
Continuous
 62
     7
370
    25
100
AcDbLine
 10
479.3463860078
 20
291.0988634675
 30
0.0
 11
478.9080087466
 21
291.0988634675
 31
0.0
  0
ARC
  5
16F
330
1F
100
AcDbEntity
  8
0
  6
Continuous
 62
     7
370
    25
100
AcDbCircle
 10
900.7350299401
 20
606.0988622754
 30
0.0
 40
26.48864566234795
100
AcDbArc
 50
0.0
 51
90.0
  0
ARC
  5
170
330
1F
100
AcDbEntity
  8
0
  6
Continuous
 62
     7
370
    25
100
AcDbCircle
 10
505.8350299401
 20
291.0988622754
 30
0.0
 40
26.48864566234755
100
AcDbArc
 50
180.0
 51
270.0
  0
LINE
  5
171
330
1F
100
AcDbEntity
  8
0
  6
Continuous
 62
     7
370
    25
100
AcDbLine
 10
505.8350328727
 20
264.6102166027
 30
0.0
 11
505.8350328727
 21
264.1718393415
 31
0.0
  0
LINE
  5
172
330
1F
100
AcDbEntity
  8
0
  6
Continuous
 62
     7
370
    25
100
AcDbLine
 10
505.8350328727
 20
264.6102166027
 30
0.0
 11
900.7350270076
 21
264.6102166027
 31
0.0
  0
LINE
  5
173
330
1F
100
AcDbEntity
  8
0
  6
Continuous
 62
     7
370
    25
100
AcDbLine
 10
553.2350305838
 20
630.1488584131
 30
0.0
 11
853.3350292964
 21
630.1488584131
 31
0.0
  0
ARC
  5
174
330
1F
100
AcDbEntity
  8
0
  6
Continuous
 62
     7
370
    25
100
AcDbCircle
 10
553.2350299401
 20
568.6488622754
 30
0.0
 40
61.50000000000034
100
AcDbArc
 50
90.0
 51
180.0
  0
LINE
  5
175
330
1F
100
AcDbEntity
  8
0
  6
Continuous
 62
     7
370
    25
100
AcDbLine
 10
491.7350326104
 20
328.5488641113
 30
0.0
 11
491.7350326104
 21
568.6488604396
 31
0.0
  0
ARC
  5
176
330
1F
100
AcDbEntity
  8
0
  6
Continuous
 62
     7
370
    25
100
AcDbCircle
 10
553.2350299401
 20
328.5488622754
 30
0.0
 40
61.50000000000023
100
AcDbArc
 50
180.0
 51
270.0
  0
LINE
  5
177
330
1F
100
AcDbEntity
  8
0
  6
Continuous
 62
     7
370
    25
100
AcDbLine
 10
853.3350292964
 20
267.0488661378
 30
0.0
 11
553.2350305838
 21
267.0488661378
 31
0.0
  0
ARC
  5
178
330
1F
100
AcDbEntity
  8
0
  6
Continuous
 62
     7
370
    25
100
AcDbCircle
 10
853.3350299401
 20
328.5488622754
 30
0.0
 40
61.50000000000023
100
AcDbArc
 50
270.0
 51
0.0
  0
LINE
  5
179
330
1F
100
AcDbEntity
  8
0
  6
Continuous
 62
     7
370
    25
100
AcDbLine
 10
914.8350272698
 20
568.6488604396
 30
0.0
 11
914.8350272698
 21
328.5488641113
 31
0.0
  0
ARC
  5
17A
330
1F
100
AcDbEntity
  8
0
  6
Continuous
 62
     7
370
    25
100
AcDbCircle
 10
853.3350299401
 20
568.6488622754
 30
0.0
 40
61.50000000000023
100
AcDbArc
 50
0.0
 51
90.0
  0
ARC
  5
17B
330
1F
100
AcDbEntity
  8
0
  6
Continuous
 62
     7
370
    25
100
AcDbCircle
 10
553.2350299401
 20
568.6488622754
 30
0.0
 40
55.5
100
AcDbArc
 50
90.0
 51
180.0
  0
LINE
  5
17C
330
1F
100
AcDbEntity
  8
0
  6
Continuous
 62
     7
370
    25
100
AcDbLine
 10
497.7350298686
 20
568.6488604396
 30
0.0
 11
491.7350326104
 21
568.6488604396
 31
0.0
  0
LINE
  5
17D
330
1F
100
AcDbEntity
  8
0
  6
Continuous
 62
     7
370
    25
100
AcDbLine
 10
553.2350305838
 20
624.1488611549
 30
0.0
 11
553.2350305838
 21
630.1488584131
 31
0.0
  0
ARC
  5
17E
330
1F
100
AcDbEntity
  8
0
  6
Continuous
 62
     7
370
    25
100
AcDbCircle
 10
553.2350299401
 20
328.5488622754
 30
0.0
 40
55.49999999999994
100
AcDbArc
 50
180.0
 51
270.0
  0
LINE
  5
17F
330
1F
100
AcDbEntity
  8
0
  6
Continuous
 62
     7
370
    25
100
AcDbLine
 10
553.2350305838
 20
273.048863396
 30
0.0
 11
553.2350305838
 21
267.0488661378
 31
0.0
  0
LINE
  5
180
330
1F
100
AcDbEntity
  8
0
  6
Continuous
 62
     7
370
    25
100
AcDbLine
 10
497.7350298686
 20
328.5488641113
 30
0.0
 11
491.7350326104
 21
328.5488641113
 31
0.0
  0
LINE
  5
181
330
1F
100
AcDbEntity
  8
0
  6
Continuous
 62
     7
370
    25
100
AcDbLine
 10
497.7350298686
 20
568.6488604396
 30
0.0
 11
497.7350298686
 21
328.5488641113
 31
0.0
  0
LINE
  5
182
330
1F
100
AcDbEntity
  8
0
  6
Continuous
 62
     7
370
    25
100
AcDbLine
 10
914.8350272698
 20
328.5488641113
 30
0.0
 11
908.8350300116
 21
328.5488641113
 31
0.0
  0
LINE
  5
183
330
1F
100
AcDbEntity
  8
0
  6
Continuous
 62
     7
370
    25
100
AcDbLine
 10
908.8350300116
 20
328.5488641113
 30
0.0
 11
908.8350300116
 21
568.6488604396
 31
0.0
  0
LINE
  5
184
330
1F
100
AcDbEntity
  8
0
  6
Continuous
 62
     7
370
    25
100
AcDbLine
 10
914.8350272698
 20
568.6488604396
 30
0.0
 11
908.8350300116
 21
568.6488604396
 31
0.0
  0
ARC
  5
185
330
1F
100
AcDbEntity
  8
0
  6
Continuous
 62
     7
370
    25
100
AcDbCircle
 10
853.3350299401
 20
568.6488622754
 30
0.0
 40
55.50000000000011
100
AcDbArc
 50
0.0
 51
90.0
  0
LINE
  5
186
330
1F
100
AcDbEntity
  8
0
  6
Continuous
 62
     7
370
    25
100
AcDbLine
 10
853.3350292964
 20
630.1488584131
 30
0.0
 11
853.3350292964
 21
624.1488611549
 31
0.0
  0
LINE
  5
187
330
1F
100
AcDbEntity
  8
0
  6
Continuous
 62
     7
370
    25
100
AcDbLine
 10
853.3350292964
 20
267.0488661378
 30
0.0
 11
853.3350292964
 21
273.048863396
 31
0.0
  0
ARC
  5
188
330
1F
100
AcDbEntity
  8
0
  6
Continuous
 62
     7
370
    25
100
AcDbCircle
 10
853.3350299401
 20
328.5488622754
 30
0.0
 40
55.5
100
AcDbArc
 50
270.0
 51
0.0
  0
LINE
  5
189
330
1F
100
AcDbEntity
  8
0
  6
Continuous
 62
     7
370
    25
100
AcDbLine
 10
853.3350292964
 20
624.1488611549
 30
0.0
 11
553.2350305838
 21
624.1488611549
 31
0.0
  0
LINE
  5
18A
330
1F
100
AcDbEntity
  8
0
  6
Continuous
 62
     7
370
    25
100
AcDbLine
 10
553.2350305838
 20
273.048863396
 30
0.0
 11
853.3350292964
 21
273.048863396
 31
0.0
  0
LINE
  5
18B
330
1F
100
AcDbEntity
  8
0
  6
Continuous
 62
     7
370
    25
100
AcDbLine
 10
908.1652377171
 20
328.5988649577
 30
0.0
 11
908.1652377171
 21
568.5988595932
 31
0.0
  0
ARC
  5
18C
330
1F
100
AcDbEntity
  8
0
  6
Continuous
 62
     7
370
    25
100
AcDbCircle
 10
853.2850299401
 20
328.5988622754
 30
0.0
 40
54.88020471388847
100
AcDbArc
 50
270.0
 51
0.0
  0
LINE
  5
18D
330
1F
100
AcDbEntity
  8
0
  6
Continuous
 62
     7
370
    25
100
AcDbLine
 10
853.2850359006
 20
623.4790688604
 30
0.0
 11
553.2850239797
 21
623.4790688604
 31
0.0
  0
ARC
  5
18E
330
1F
100
AcDbEntity
  8
0
  6
Continuous
 62
     7
370
    25
100
AcDbCircle
 10
853.2850299401
 20
568.5988622754
 30
0.0
 40
54.88020471388859
100
AcDbArc
 50
0.0
 51
90.0
  0
ARC
  5
18F
330
1F
100
AcDbEntity
  8
0
  6
Continuous
 62
     7
370
    25
100
AcDbCircle
 10
553.2850299401
 20
568.5988622754
 30
0.0
 40
54.88020471388859
100
AcDbArc
 50
90.0
 51
180.0
  0
LINE
  5
190
330
1F
100
AcDbEntity
  8
0
  6
Continuous
 62
     7
370
    25
100
AcDbLine
 10
553.2850239797
 20
273.7186556905
 30
0.0
 11
853.2850359006
 21
273.7186556905
 31
0.0
  0
ARC
  5
191
330
1F
100
AcDbEntity
  8
0
  6
Continuous
 62
     7
370
    25
100
AcDbCircle
 10
553.2850299401
 20
328.5988622754
 30
0.0
 40
54.88020471388859
100
AcDbArc
 50
180.0
 51
270.0
  0
LINE
  5
192
330
1F
100
AcDbEntity
  8
0
  6
Continuous
 62
     7
370
    25
100
AcDbLine
 10
498.4048221631
 20
568.5988595932
 30
0.0
 11
498.4048221631
 21
328.5988649577
 31
0.0
  0
LINE
  5
193
330
1F
100
AcDbEntity
  8
0
  6
Continuous
 62
     7
370
    25
100
AcDbLine
 10
907.9563234372
 20
568.5988595932
 30
0.0
 11
907.9563234372
 21
328.5988649577
 31
0.0
  0
LINE
  5
194
330
1F
100
AcDbEntity
  8
0
  6
Continuous
 62
     7
370
    25
100
AcDbLine
 10
908.1652377171
 20
568.5988595932
 30
0.0
 11
907.9563234372
 21
568.5988595932
 31
0.0
  0
LINE
  5
195
330
1F
100
AcDbEntity
  8
0
  6
Continuous
 62
     7
370
    25
100
AcDbLine
 10
908.1652377171
 20
328.5988649577
 30
0.0
 11
907.9563234372
 21
328.5988649577
 31
0.0
  0
ARC
  5
196
330
1F
100
AcDbEntity
  8
0
  6
Continuous
 62
     7
370
    25
100
AcDbCircle
 10
853.2850299401
 20
568.5988622754
 30
0.0
 40
54.67129158923183
100
AcDbArc
 50
0.0
 51
90.0
  0
LINE
  5
197
330
1F
100
AcDbEntity
  8
0
  6
Continuous
 62
     7
370
    25
100
AcDbLine
 10
853.2850359006
 20
623.4790688604
 30
0.0
 11
853.2850359006
 21
623.2701545804
 31
0.0
  0
LINE
  5
198
330
1F
100
AcDbEntity
  8
0
  6
Continuous
 62
     7
370
    25
100
AcDbLine
 10
853.2850359006
 20
273.9275699705
 30
0.0
 11
553.2850239797
 21
273.9275699705
 31
0.0
  0
LINE
  5
199
330
1F
100
AcDbEntity
  8
0
  6
Continuous
 62
     7
370
    25
100
AcDbLine
 10
853.2850359006
 20
273.7186556905
 30
0.0
 11
853.2850359006
 21
273.9275699705
 31
0.0
  0
LINE
  5
19A
330
1F
100
AcDbEntity
  8
0
  6
Continuous
 62
     7
370
    25
100
AcDbLine
 10
553.2850239797
 20
273.7186556905
 30
0.0
 11
553.2850239797
 21
273.9275699705
 31
0.0
  0
LINE
  5
19B
330
1F
100
AcDbEntity
  8
0
  6
Continuous
 62
     7
370
    25
100
AcDbLine
 10
498.613736443
 20
328.5988649577
 30
0.0
 11
498.613736443
 21
568.5988595932
 31
0.0
  0
LINE
  5
19C
330
1F
100
AcDbEntity
  8
0
  6
Continuous
 62
     7
370
    25
100
AcDbLine
 10
498.4048221631
 20
328.5988649577
 30
0.0
 11
498.613736443
 21
328.5988649577
 31
0.0
  0
LINE
  5
19D
330
1F
100
AcDbEntity
  8
0
  6
Continuous
 62
     7
370
    25
100
AcDbLine
 10
498.4048221631
 20
568.5988595932
 30
0.0
 11
498.613736443
 21
568.5988595932
 31
0.0
  0
ARC
  5
19E
330
1F
100
AcDbEntity
  8
0
  6
Continuous
 62
     7
370
    25
100
AcDbCircle
 10
553.2850299401
 20
328.5988622754
 30
0.0
 40
54.67129158923166
100
AcDbArc
 50
180.0
 51
270.0
  0
ARC
  5
19F
330
1F
100
AcDbEntity
  8
0
  6
Continuous
 62
     7
370
    25
100
AcDbCircle
 10
853.2850299401
 20
328.5988622754
 30
0.0
 40
54.67129158923183
100
AcDbArc
 50
270.0
 51
0.0
  0
ARC
  5
1A0
330
1F
100
AcDbEntity
  8
0
  6
Continuous
 62
     7
370
    25
100
AcDbCircle
 10
553.2850299401
 20
568.5988622754
 30
0.0
 40
54.67129158923171
100
AcDbArc
 50
90.0
 51
180.0
  0
LINE
  5
1A1
330
1F
100
AcDbEntity
  8
0
  6
Continuous
 62
     7
370
    25
100
AcDbLine
 10
553.2850239797
 20
623.4790688604
 30
0.0
 11
553.2850239797
 21
623.2701545804
 31
0.0
  0
LINE
  5
1A2
330
1F
100
AcDbEntity
  8
0
  6
Continuous
 62
     7
370
    25
100
AcDbLine
 10
553.2850239797
 20
623.2701545804
 30
0.0
 11
853.2850359006
 21
623.2701545804
 31
0.0
  0
LINE
  5
1A3
330
1F
100
AcDbEntity
  8
0
  6
Continuous
 62
     7
370
    25
100
AcDbLine
 10
853.2850359006
 20
622.000322327
 30
0.0
 11
553.2850239797
 21
622.000322327
 31
0.0
  0
LINE
  5
1A4
330
1F
100
AcDbEntity
  8
0
  6
Continuous
 62
     7
370
    25
100
AcDbLine
 10
553.2850239797
 20
622.000322327
 30
0.0
 11
553.2850239797
 21
623.2701545804
 31
0.0
  0
LINE
  5
1A5
330
1F
100
AcDbEntity
  8
0
  6
Continuous
 62
     7
370
    25
100
AcDbLine
 10
853.2850359006
 20
623.2701545804
 30
0.0
 11
853.2850359006
 21
622.000322327
 31
0.0
  0
LINE
  5
1A6
330
1F
100
AcDbEntity
  8
0
  6
Continuous
 62
     7
370
    25
100
AcDbLine
 10
499.8835686965
 20
568.5988595932
 30
0.0
 11
499.8835686965
 21
328.5988649577
 31
0.0
  0
LINE
  5
1A7
330
1F
100
AcDbEntity
  8
0
  6
Continuous
 62
     7
370
    25
100
AcDbLine
 10
499.8835686965
 20
328.5988649577
 30
0.0
 11
498.613736443
 21
328.5988649577
 31
0.0
  0
LINE
  5
1A8
330
1F
100
AcDbEntity
  8
0
  6
Continuous
 62
     7
370
    25
100
AcDbLine
 10
499.8835686965
 20
568.5988595932
 30
0.0
 11
498.613736443
 21
568.5988595932
 31
0.0
  0
LINE
  5
1A9
330
1F
100
AcDbEntity
  8
0
  6
Continuous
 62
     7
370
    25
100
AcDbLine
 10
907.9563234372
 20
328.5988649577
 30
0.0
 11
906.6864911837
 21
328.5988649577
 31
0.0
  0
LINE
  5
1AA
330
1F
100
AcDbEntity
  8
0
  6
Continuous
 62
     7
370
    25
100
AcDbLine
 10
906.6864911837
 20
328.5988649577
 30
0.0
 11
906.6864911837
 21
568.5988595932
 31
0.0
  0
LINE
  5
1AB
330
1F
100
AcDbEntity
  8
0
  6
Continuous
 62
     7
370
    25
100
AcDbLine
 10
907.9563234372
 20
568.5988595932
 30
0.0
 11
906.6864911837
 21
568.5988595932
 31
0.0
  0
ARC
  5
1AC
330
1F
100
AcDbEntity
  8
0
  6
Continuous
 62
     7
370
    25
100
AcDbCircle
 10
853.2850299401
 20
568.5988622754
 30
0.0
 40
53.4014542124321
100
AcDbArc
 50
0.0
 51
90.0
  0
ARC
  5
1AD
330
1F
100
AcDbEntity
  8
0
  6
Continuous
 62
     7
370
    25
100
AcDbCircle
 10
553.2850299401
 20
568.5988622754
 30
0.0
 40
53.40145421243216
100
AcDbArc
 50
90.0
 51
180.0
  0
LINE
  5
1AE
330
1F
100
AcDbEntity
  8
0
  6
Continuous
 62
     7
370
    25
100
AcDbLine
 10
553.2850239797
 20
275.1974022239
 30
0.0
 11
853.2850359006
 21
275.1974022239
 31
0.0
  0
LINE
  5
1AF
330
1F
100
AcDbEntity
  8
0
  6
Continuous
 62
     7
370
    25
100
AcDbLine
 10
853.2850359006
 20
273.9275699705
 30
0.0
 11
853.2850359006
 21
275.1974022239
 31
0.0
  0
LINE
  5
1B0
330
1F
100
AcDbEntity
  8
0
  6
Continuous
 62
     7
370
    25
100
AcDbLine
 10
553.2850239797
 20
275.1974022239
 30
0.0
 11
553.2850239797
 21
273.9275699705
 31
0.0
  0
ARC
  5
1B1
330
1F
100
AcDbEntity
  8
0
  6
Continuous
 62
     7
370
    25
100
AcDbCircle
 10
553.2850299401
 20
328.5988622754
 30
0.0
 40
53.40145421243216
100
AcDbArc
 50
180.0
 51
270.0
  0
ARC
  5
1B2
330
1F
100
AcDbEntity
  8
0
  6
Continuous
 62
     7
370
    25
100
AcDbCircle
 10
853.2850299401
 20
328.5988622754
 30
0.0
 40
53.40145421243199
100
AcDbArc
 50
270.0
 51
0.0
  0
LINE
  5
1B3
330
1F
100
AcDbEntity
  8
0
  6
Continuous
 62
     7
370
    25
100
AcDbLine
 10
553.2850239797
 20
278.5988604873
 30
0.0
 11
853.2850359006
 21
278.5988604873
 31
0.0
  0
LINE
  5
1B4
330
1F
100
AcDbEntity
  8
0
  6
Continuous
 62
     7
370
    25
100
AcDbLine
 10
853.2850359006
 20
275.1974022239
 30
0.0
 11
853.2850359006
 21
278.5988604873
 31
0.0
  0
LINE
  5
1B5
330
1F
100
AcDbEntity
  8
0
  6
Continuous
 62
     7
370
    25
100
AcDbLine
 10
553.2850239797
 20
278.5988604873
 30
0.0
 11
553.2850239797
 21
275.1974022239
 31
0.0
  0
ARC
  5
1B6
330
1F
100
AcDbEntity
  8
0
  6
Continuous
 62
     7
370
    25
100
AcDbCircle
 10
553.2850299401
 20
328.5988622754
 30
0.0
 40
50.00000000000006
100
AcDbArc
 50
180.0
 51
270.0
  0
LINE
  5
1B7
330
1F
100
AcDbEntity
  8
0
  6
Continuous
 62
     7
370
    25
100
AcDbLine
 10
503.2850269599
 20
328.5988649577
 30
0.0
 11
499.8835686965
 21
328.5988649577
 31
0.0
  0
LINE
  5
1B8
330
1F
100
AcDbEntity
  8
0
  6
Continuous
 62
     7
370
    25
100
AcDbLine
 10
503.2850269599
 20
568.5988595932
 30
0.0
 11
503.2850269599
 21
328.5988649577
 31
0.0
  0
LINE
  5
1B9
330
1F
100
AcDbEntity
  8
0
  6
Continuous
 62
     7
370
    25
100
AcDbLine
 10
503.2850269599
 20
568.5988595932
 30
0.0
 11
499.8835686965
 21
568.5988595932
 31
0.0
  0
ARC
  5
1BA
330
1F
100
AcDbEntity
  8
0
  6
Continuous
 62
     7
370
    25
100
AcDbCircle
 10
553.2850299401
 20
568.5988622754
 30
0.0
 40
50.00000000000011
100
AcDbArc
 50
90.0
 51
180.0
  0
LINE
  5
1BB
330
1F
100
AcDbEntity
  8
0
  6
Continuous
 62
     7
370
    25
100
AcDbLine
 10
553.2850239797
 20
618.5988640636
 30
0.0
 11
553.2850239797
 21
622.000322327
 31
0.0
  0
LINE
  5
1BC
330
1F
100
AcDbEntity
  8
0
  6
Continuous
 62
     7
370
    25
100
AcDbLine
 10
903.2850329204
 20
328.5988649577
 30
0.0
 11
903.2850329204
 21
568.5988595932
 31
0.0
  0
LINE
  5
1BD
330
1F
100
AcDbEntity
  8
0
  6
Continuous
 62
     7
370
    25
100
AcDbLine
 10
906.6864911837
 20
568.5988595932
 30
0.0
 11
903.2850329204
 21
568.5988595932
 31
0.0
  0
LINE
  5
1BE
330
1F
100
AcDbEntity
  8
0
  6
Continuous
 62
     7
370
    25
100
AcDbLine
 10
906.6864911837
 20
328.5988649577
 30
0.0
 11
903.2850329204
 21
328.5988649577
 31
0.0
  0
ARC
  5
1BF
330
1F
100
AcDbEntity
  8
0
  6
Continuous
 62
     7
370
    25
100
AcDbCircle
 10
853.2850299401
 20
328.5988622754
 30
0.0
 40
50.00000000000006
100
AcDbArc
 50
270.0
 51
0.0
  0
LINE
  5
1C0
330
1F
100
AcDbEntity
  8
0
  6
Continuous
 62
     7
370
    25
100
AcDbLine
 10
853.2850359006
 20
618.5988640636
 30
0.0
 11
553.2850239797
 21
618.5988640636
 31
0.0
  0
LINE
  5
1C1
330
1F
100
AcDbEntity
  8
0
  6
Continuous
 62
     7
370
    25
100
AcDbLine
 10
853.2850359006
 20
622.000322327
 30
0.0
 11
853.2850359006
 21
618.5988640636
 31
0.0
  0
ARC
  5
1C2
330
1F
100
AcDbEntity
  8
0
  6
Continuous
 62
     7
370
    25
100
AcDbCircle
 10
853.2850299401
 20
568.5988622754
 30
0.0
 40
50.00000000000011
100
AcDbArc
 50
0.0
 51
90.0
  0
SPLINE
  5
1C3
330
1F
100
AcDbEntity
  8
0
  6
Continuous
 62
     7
370
    25
100
AcDbSpline
210
0.0
220
0.0
230
1.0
 70
     8
 71
     3
 72
    17
 73
    13
 74
     0
 42
0.000000001
 43
0.00000001
 40
0.0
 40
0.0
 40
0.0
 40
0.0
 40
0.1074258907292084
 40
0.2148526761693433
 40
0.3222640849750051
 40
0.4296538713159995
 40
0.5370275667711635
 40
0.644394491387106
 40
0.7517643884965635
 40
0.8591472045307654
 40
0.966550643188419
 40
1.0
 40
1.0
 40
1.0
 40
1.0
 10
706.3850300291541
 20
618.3963423818029
 30
0.0
 10
706.3507462002547
 20
618.40404710816
 30
0.0
 10
706.2821782569182
 20
618.4194566250441
 30
0.0
 10
705.7476372678552
 20
618.4384423976068
 30
0.0
 10
704.960436145713
 20
618.4522108121033
 30
0.0
 10
703.9778161623478
 20
618.459780237235
 30
0.0
 10
702.9185307548626
 20
618.4607992496532
 30
0.0
 10
701.9019495667523
 20
618.4552357114611
 30
0.0
 10
701.0347105863149
 20
618.4433891213639
 30
0.0
 10
700.4459939139471
 20
618.4257924749045
 30
0.0
 10
700.1671799764019
 20
618.4091027939387
 30
0.0
 10
700.2120770592572
 20
618.3987189121666
 30
0.0
 10
700.2227391021314
 20
618.3962529748358
 30
0.0
  0
LINE
  5
1C4
330
1F
100
AcDbEntity
  8
0
  6
Continuous
 62
     7
370
    25
100
AcDbLine
 10
711.7850304021
 20
618.1598311513
 30
0.0
 11
711.7850304021
 21
618.5424482673
 31
0.0
  0
SPLINE
  5
1C5
330
1F
100
AcDbEntity
  8
0
  6
Continuous
 62
     7
370
    25
100
AcDbSpline
210
0.0
220
0.0
230
1.0
 70
     8
 71
     3
 72
    17
 73
    13
 74
     0
 42
0.000000001
 43
0.00000001
 40
0.0
 40
0.0
 40
0.0
 40
0.0
 40
0.1073803657382403
 40
0.2147608193127439
 40
0.3221368469148199
 40
0.4295071807432011
 40
0.5368735029994236
 40
0.6442381794230956
 40
0.7516037388107756
 40
0.858972333337781
 40
0.9663460850466166
 40
1.0
 40
1.0
 40
1.0
 40
1.0
 10
711.7850304020557
 20
618.5424482673086
 30
0.0
 10
711.7629161733515
 20
618.5450667758549
 30
0.0
 10
711.7186876978542
 20
618.5503037950895
 30
0.0
 10
711.373896570821
 20
618.5566236361358
 30
0.0
 10
710.8661473654913
 20
618.5611285521985
 30
0.0
 10
710.2321943547752
 20
618.5636112103966
 30
0.0
 10
709.5489692470328
 20
618.563928168691
 30
0.0
 10
708.892207888147
 20
618.5621448155175
 30
0.0
 10
708.3356248078163
 20
618.5582323340648
 30
0.0
 10
707.9445036666713
 20
618.5524194594553
 30
0.0
 10
707.7968761770887
 20
618.5467535338429
 30
0.0
 10
707.7873120635616
 20
618.5432777140795
 30
0.0
 10
707.7850297464046
 20
618.5424482673086
 30
0.0
  0
LINE
  5
1C6
330
1F
100
AcDbEntity
  8
0
  6
Continuous
 62
     7
370
    25
100
AcDbLine
 10
707.7850297464
 20
618.5424482673
 30
0.0
 11
707.7850297464
 21
618.1598311513
 31
0.0
  0
SPLINE
  5
1C7
330
1F
100
AcDbEntity
  8
0
  6
Continuous
 62
     7
370
    25
100
AcDbSpline
210
0.0
220
0.0
230
1.0
 70
     8
 71
     3
 72
    17
 73
    13
 74
     0
 42
0.000000001
 43
0.00000001
 40
0.0
 40
0.0
 40
0.0
 40
0.0
 40
0.0740637169436068
 40
0.181496625536252
 40
0.2889116954202229
 40
0.396273921863066
 40
0.5035723594465075
 40
0.6108275464437461
 40
0.7180830259390117
 40
0.8253818084722262
 40
0.9327448483927312
 40
1.0
 40
1.0
 40
1.0
 40
1.0
 10
707.7850297464046
 20
618.1598311513342
 30
0.0
 10
707.7956725174085
 20
618.1546791699097
 30
0.0
 10
707.8217531288512
 20
618.1420539968566
 30
0.0
 10
708.0708247128155
 20
618.1227019756387
 30
0.0
 10
708.5289169589292
 20
618.1050321057432
 30
0.0
 10
709.1321458745823
 20
618.0935067865573
 30
0.0
 10
709.8078693872677
 20
618.0896792926983
 30
0.0
 10
710.480793966192
 20
618.094060891067
 30
0.0
 10
711.0760914033539
 20
618.1060223628506
 30
0.0
 10
711.5227487091406
 20
618.1239959677237
 30
0.0
 10
711.7533352187376
 20
618.1430337036038
 30
0.0
 10
711.7762172590625
 20
618.1551604634482
 30
0.0
 10
711.7850304020557
 20
618.1598311513342
 30
0.0
  0
LINE
  5
1C8
330
1F
100
AcDbEntity
  8
0
  6
Continuous
 62
     7
370
    25
100
AcDbLine
 10
727.7850292994
 20
618.1598311513
 30
0.0
 11
727.7850292994
 21
618.5424482673
 31
0.0
  0
SPLINE
  5
1C9
330
1F
100
AcDbEntity
  8
0
  6
Continuous
 62
     7
370
    25
100
AcDbSpline
210
0.0
220
0.0
230
1.0
 70
     8
 71
     3
 72
    17
 73
    13
 74
     0
 42
0.000000001
 43
0.00000001
 40
0.0
 40
0.0
 40
0.0
 40
0.0
 40
0.107380312484526
 40
0.2147608349797675
 40
0.3221368037137262
 40
0.4295071342848948
 40
0.5368733789349426
 40
0.644238266461902
 40
0.7516037015883159
 40
0.8589722928581615
 40
0.9663461017359999
 40
1.0
 40
1.0
 40
1.0
 40
1.0
 10
727.7850292993697
 20
618.5424482673086
 30
0.0
 10
727.7629159234128
 20
618.5450667766132
 30
0.0
 10
727.7186891282503
 20
618.5503038003434
 30
0.0
 10
727.3738961027364
 20
618.5566236314293
 30
0.0
 10
726.8661477445775
 20
618.5611285539156
 30
0.0
 10
726.2321947301439
 20
618.5636112100956
 30
0.0
 10
725.5489694745391
 20
618.5639281666294
 30
0.0
 10
724.8922078002477
 20
618.5621448212489
 30
0.0
 10
724.3356247336081
 20
618.5582323308888
 30
0.0
 10
723.9445050773152
 20
618.5524194566234
 30
0.0
 10
723.7968731879589
 20
618.5467535371373
 30
0.0
 10
723.7873120997842
 20
618.5432777141898
 30
0.0
 10
723.7850305063638
 20
618.5424482673086
 30
0.0
  0
LINE
  5
1CA
330
1F
100
AcDbEntity
  8
0
  6
Continuous
 62
     7
370
    25
100
AcDbLine
 10
723.7850305064
 20
618.5424482673
 30
0.0
 11
723.7850305064
 21
618.1598311513
 31
0.0
  0
SPLINE
  5
1CB
330
1F
100
AcDbEntity
  8
0
  6
Continuous
 62
     7
370
    25
100
AcDbSpline
210
0.0
220
0.0
230
1.0
 70
     8
 71
     3
 72
    17
 73
    13
 74
     0
 42
0.000000001
 43
0.00000001
 40
0.0
 40
0.0
 40
0.0
 40
0.0
 40
0.0740637168089532
 40
0.1814966376993915
 40
0.2889116698020258
 40
0.3962739085345711
 40
0.5035725053880425
 40
0.6108274118093027
 40
0.7180830976222308
 40
0.8253818435742489
 40
0.9327448406940666
 40
1.0
 40
1.0
 40
1.0
 40
1.0
 10
723.7850305063638
 20
618.1598311513342
 30
0.0
 10
723.7956730855742
 20
618.1546791696471
 30
0.0
 10
723.8217532288129
 20
618.1420539950815
 30
0.0
 10
724.0708251061054
 20
618.1227019821026
 30
0.0
 10
724.5289167697558
 20
618.1050321001935
 30
0.0
 10
725.1321459916061
 20
618.0935067839002
 30
0.0
 10
725.8078692939714
 20
618.0896792877885
 30
0.0
 10
726.4807936583816
 20
618.0940609155708
 30
0.0
 10
727.0760914586526
 20
618.1060223412621
 30
0.0
 10
727.522748701424
 20
618.1239959682514
 30
0.0
 10
727.7533339870597
 20
618.1430337088975
 30
0.0
 10
727.7762161185018
 20
618.1551604638564
 30
0.0
 10
727.7850292993697
 20
618.1598311513342
 30
0.0
  0
LINE
  5
1CC
330
1F
100
AcDbEntity
  8
0
  6
Continuous
 62
     7
370
    25
100
AcDbLine
 10
690.7850297539
 20
618.1598311513
 30
0.0
 11
690.7850297539
 21
618.5424482673
 31
0.0
  0
SPLINE
  5
1CD
330
1F
100
AcDbEntity
  8
0
  6
Continuous
 62
     7
370
    25
100
AcDbSpline
210
0.0
220
0.0
230
1.0
 70
     8
 71
     3
 72
    17
 73
    13
 74
     0
 42
0.000000001
 43
0.00000001
 40
0.0
 40
0.0
 40
0.0
 40
0.0
 40
0.1073803399266452
 40
0.2147607926877525
 40
0.3221368750872218
 40
0.4295072081022834
 40
0.5368734551961314
 40
0.644238202259967
 40
0.7516037608343635
 40
0.8589723545480626
 40
0.9663460853015415
 40
1.0
 40
1.0
 40
1.0
 40
1.0
 10
690.7850297538552
 20
618.5424482673086
 30
0.0
 10
690.7629159056341
 20
618.5450667759205
 30
0.0
 10
690.718688185955
 20
618.5503037958962
 30
0.0
 10
690.373896794168
 20
618.5566236378498
 30
0.0
 10
689.8661472285406
 20
618.5611285507888
 30
0.0
 10
689.2321943325474
 20
618.5636112103034
 30
0.0
 10
688.548969241948
 20
618.5639281679266
 30
0.0
 10
687.8922078098761
 20
618.5621448166677
 30
0.0
 10
687.3356246755359
 20
618.5582323338435
 30
0.0
 10
686.944503326748
 20
618.5524194604214
 30
0.0
 10
686.7968764970875
 20
618.5467535332264
 30
0.0
 10
686.7873123540514
 20
618.5432777140563
 30
0.0
 10
686.7850300295266
 20
618.5424482673086
 30
0.0
  0
LINE
  5
1CE
330
1F
100
AcDbEntity
  8
0
  6
Continuous
 62
     7
370
    25
100
AcDbLine
 10
686.7850300295
 20
618.5424482673
 30
0.0
 11
686.7850300295
 21
618.1598311513
 31
0.0
  0
SPLINE
  5
1CF
330
1F
100
AcDbEntity
  8
0
  6
Continuous
 62
     7
370
    25
100
AcDbSpline
210
0.0
220
0.0
230
1.0
 70
     8
 71
     3
 72
    17
 73
    13
 74
     0
 42
0.000000001
 43
0.00000001
 40
0.0
 40
0.0
 40
0.0
 40
0.0
 40
0.0740637094938143
 40
0.181496619773298
 40
0.2889116412667445
 40
0.3962740003572481
 40
0.5035724396254168
 40
0.6108274818800007
 40
0.7180830277393597
 40
0.8253818608209673
 40
0.9327448473367367
 40
1.0
 40
1.0
 40
1.0
 40
1.0
 10
686.7850300295266
 20
618.1598311513342
 30
0.0
 10
686.7956726079241
 20
618.1546791695963
 30
0.0
 10
686.8217527491704
 20
618.1420539949061
 30
0.0
 10
687.0708246466064
 20
618.1227019831866
 30
0.0
 10
687.5289164149137
 20
618.1050320889981
 30
0.0
 10
688.1321459988218
 20
618.0935067959934
 30
0.0
 10
688.8078693437783
 20
618.0896792887975
 30
0.0
 10
689.4807937338657
 20
618.0940609007813
 30
0.0
 10
690.0760910633321
 20
618.1060223628328
 30
0.0
 10
690.522749273913
 20
618.1239959549599
 30
0.0
 10
690.7533344129126
 20
618.1430337098656
 30
0.0
 10
690.7762165650256
 20
618.1551604641255
 30
0.0
 10
690.7850297538552
 20
618.1598311513342
 30
0.0
  0
LINE
  5
1D0
330
1F
100
AcDbEntity
  8
0
  6
Continuous
 62
     7
370
    25
100
AcDbLine
 10
853.2850359006
 20
618.5988640636
 30
0.0
 11
853.2850359006
 21
609.2322176546
 31
0.0
  0
SPLINE
  5
1D1
330
1F
100
AcDbEntity
  8
0
  6
Continuous
 62
     7
370
    25
100
AcDbSpline
210
0.0
220
0.0
230
1.0
 70
     8
 71
     3
 72
    11
 73
     7
 74
     0
 42
0.000000001
 43
0.00000001
 40
0.0
 40
0.0
 40
0.0
 40
0.0
 40
0.2498043949463719
 40
0.4996153804393176
 40
0.7498070581442223
 40
1.0
 40
1.0
 40
1.0
 40
1.0
 10
724.1237748784932
 20
608.041972503034
 30
0.0
 10
734.8969763067344
 20
608.0844209518912
 30
0.0
 10
756.443663390745
 20
608.1693189695158
 30
0.0
 10
788.7466924295766
 20
608.4415589748751
 30
0.0
 10
821.0361032722298
 20
608.7868900405433
 30
0.0
 10
842.5353735861788
 20
609.0837748665379
 30
0.0
 10
853.2850359005841
 20
609.2322176545538
 30
0.0
  0
SPLINE
  5
1D2
330
1F
100
AcDbEntity
  8
0
  6
Continuous
 62
     7
370
    25
100
AcDbSpline
210
0.0
220
0.0
230
1.0
 70
     8
 71
     3
 72
     9
 73
     5
 74
     0
 42
0.000000001
 43
0.00000001
 40
0.0
 40
0.0
 40
0.0
 40
0.0
 40
0.4999249197090398
 40
1.0
 40
1.0
 40
1.0
 40
1.0
 10
682.4462850017461
 20
608.041972503034
 30
0.0
 10
689.3914901414339
 20
608.0271622313458
 30
0.0
 10
703.2839865261511
 20
607.9975372394633
 30
0.0
 10
717.1764833925746
 20
608.0271592658236
 30
0.0
 10
724.1237748784932
 20
608.041972503034
 30
0.0
  0
SPLINE
  5
1D3
330
1F
100
AcDbEntity
  8
0
  6
Continuous
 62
     7
370
    25
100
AcDbSpline
210
0.0
220
0.0
230
1.0
 70
     8
 71
     3
 72
    11
 73
     7
 74
     0
 42
0.000000001
 43
0.00000001
 40
0.0
 40
0.0
 40
0.0
 40
0.0
 40
0.2498302533747312
 40
0.4996592613862909
 40
0.749832941476861
 40
1.0
 40
1.0
 40
1.0
 40
1.0
 10
553.2850239796552
 20
609.2322176545538
 30
0.0
 10
564.0190959461959
 20
609.0839795290117
 30
0.0
 10
585.4871863716749
 20
608.7875040168706
 30
0.0
 10
617.7608920661463
 20
608.442166485836
 30
0.0
 10
650.079478966844
 20
608.1695482736781
 30
0.0
 10
671.657444845214
 20
608.0844973847244
 30
0.0
 10
682.4462850017461
 20
608.041972503034
 30
0.0
  0
LINE
  5
1D4
330
1F
100
AcDbEntity
  8
0
  6
Continuous
 62
     7
370
    25
100
AcDbLine
 10
553.2850239797
 20
618.5988640636
 30
0.0
 11
553.2850239797
 21
609.2322176546
 31
0.0
  0
LINE
  5
1D5
330
1F
100
AcDbEntity
  8
0
  6
Continuous
 62
     7
370
    25
100
AcDbLine
 10
682.7850293739
 20
618.1598311513
 30
0.0
 11
682.7850293739
 21
618.5424482673
 31
0.0
  0
SPLINE
  5
1D6
330
1F
100
AcDbEntity
  8
0
  6
Continuous
 62
     7
370
    25
100
AcDbSpline
210
0.0
220
0.0
230
1.0
 70
     8
 71
     3
 72
    17
 73
    13
 74
     0
 42
0.000000001
 43
0.00000001
 40
0.0
 40
0.0
 40
0.0
 40
0.0
 40
0.107380312484526
 40
0.2147608349797675
 40
0.3221368037137262
 40
0.4295071342848948
 40
0.5368733789349426
 40
0.644238266461902
 40
0.7516037015883159
 40
0.8589722928581615
 40
0.9663461017359999
 40
1.0
 40
1.0
 40
1.0
 40
1.0
 10
682.7850293738755
 20
618.5424482673086
 30
0.0
 10
682.7629159979185
 20
618.5450667766132
 30
0.0
 10
682.7186892027561
 20
618.5503038003434
 30
0.0
 10
682.3738961772422
 20
618.5566236314293
 30
0.0
 10
681.8661478190834
 20
618.5611285539156
 30
0.0
 10
681.2321948046497
 20
618.5636112100956
 30
0.0
 10
680.548969549045
 20
618.5639281666294
 30
0.0
 10
679.8922078747535
 20
618.5621448212489
 30
0.0
 10
679.335624808114
 20
618.5582323308888
 30
0.0
 10
678.944505151821
 20
618.5524194566234
 30
0.0
 10
678.7968732624647
 20
618.5467535371373
 30
0.0
 10
678.78731217429
 20
618.5432777141898
 30
0.0
 10
678.7850305808696
 20
618.5424482673086
 30
0.0
  0
LINE
  5
1D7
330
1F
100
AcDbEntity
  8
0
  6
Continuous
 62
     7
370
    25
100
AcDbLine
 10
678.7850305809
 20
618.5424482673
 30
0.0
 11
678.7850305809
 21
618.1598311513
 31
0.0
  0
SPLINE
  5
1D8
330
1F
100
AcDbEntity
  8
0
  6
Continuous
 62
     7
370
    25
100
AcDbSpline
210
0.0
220
0.0
230
1.0
 70
     8
 71
     3
 72
    17
 73
    13
 74
     0
 42
0.000000001
 43
0.00000001
 40
0.0
 40
0.0
 40
0.0
 40
0.0
 40
0.0740637168089532
 40
0.1814966376993915
 40
0.2889116698020258
 40
0.3962739085345711
 40
0.5035725053880425
 40
0.6108274118093027
 40
0.7180830976222308
 40
0.8253818435742489
 40
0.9327448406940666
 40
1.0
 40
1.0
 40
1.0
 40
1.0
 10
678.7850305808696
 20
618.1598311513342
 30
0.0
 10
678.79567316008
 20
618.1546791696471
 30
0.0
 10
678.8217533033187
 20
618.1420539950815
 30
0.0
 10
679.0708251806112
 20
618.1227019821026
 30
0.0
 10
679.5289168442616
 20
618.1050321001935
 30
0.0
 10
680.1321460661119
 20
618.0935067839002
 30
0.0
 10
680.8078693684772
 20
618.0896792877885
 30
0.0
 10
681.4807937328875
 20
618.0940609155708
 30
0.0
 10
682.0760915331584
 20
618.1060223412621
 30
0.0
 10
682.5227487759298
 20
618.1239959682514
 30
0.0
 10
682.7533340615655
 20
618.1430337088975
 30
0.0
 10
682.7762161930076
 20
618.1551604638564
 30
0.0
 10
682.7850293738755
 20
618.1598311513342
 30
0.0
  0
LINE
  5
1D9
330
1F
100
AcDbEntity
  8
0
  6
Continuous
 62
     7
370
    25
100
AcDbLine
 10
698.7850301338
 20
618.1598311513
 30
0.0
 11
698.7850301338
 21
618.5424482673
 31
0.0
  0
SPLINE
  5
1DA
330
1F
100
AcDbEntity
  8
0
  6
Continuous
 62
     7
370
    25
100
AcDbSpline
210
0.0
220
0.0
230
1.0
 70
     8
 71
     3
 72
    17
 73
    13
 74
     0
 42
0.000000001
 43
0.00000001
 40
0.0
 40
0.0
 40
0.0
 40
0.0
 40
0.1073803638674929
 40
0.2147607433931469
 40
0.3221368247353065
 40
0.4295071566931151
 40
0.5368735514279195
 40
0.6442382259811174
 40
0.7516037229961992
 40
0.8589723156526623
 40
0.9663460856329246
 40
1.0
 40
1.0
 40
1.0
 40
1.0
 10
698.7850301338348
 20
618.5424482673086
 30
0.0
 10
698.7629158245142
 20
618.5450667753507
 30
0.0
 10
698.7186872026483
 20
618.5503037918165
 30
0.0
 10
698.373897396162
 20
618.5566236406178
 30
0.0
 10
697.8661475191279
 20
618.5611285503786
 30
0.0
 10
697.2321944416816
 20
618.5636112113322
 30
0.0
 10
696.5489691334419
 20
618.5639281685287
 30
0.0
 10
695.8922076945069
 20
618.5621448168246
 30
0.0
 10
695.3356249313905
 20
618.5582323324206
 30
0.0
 10
694.9445040077194
 20
618.552419458703
 30
0.0
 10
694.7968758728827
 20
618.5467535344458
 30
0.0
 10
694.7873117881447
 20
618.5432777141
 30
0.0
 10
694.7850294781837
 20
618.5424482673086
 30
0.0
  0
LINE
  5
1DB
330
1F
100
AcDbEntity
  8
0
  6
Continuous
 62
     7
370
    25
100
AcDbLine
 10
694.7850294782
 20
618.5424482673
 30
0.0
 11
694.7850294782
 21
618.1598311513
 31
0.0
  0
SPLINE
  5
1DC
330
1F
100
AcDbEntity
  8
0
  6
Continuous
 62
     7
370
    25
100
AcDbSpline
210
0.0
220
0.0
230
1.0
 70
     8
 71
     3
 72
    17
 73
    13
 74
     0
 42
0.000000001
 43
0.00000001
 40
0.0
 40
0.0
 40
0.0
 40
0.0
 40
0.074063726042217
 40
0.1814966353396046
 40
0.2889116558511185
 40
0.3962739484791998
 40
0.5035723867665016
 40
0.6108275012539653
 40
0.7180829814528095
 40
0.8253818624172361
 40
0.9327448479515486
 40
1.0
 40
1.0
 40
1.0
 40
1.0
 10
694.7850294781837
 20
618.1598311513342
 30
0.0
 10
694.7956724326344
 20
618.1546791698801
 30
0.0
 10
694.8217534918263
 20
618.1420539976235
 30
0.0
 10
695.0708249029293
 20
618.1227019821156
 30
0.0
 10
695.5289167610551
 20
618.1050320950045
 30
0.0
 10
696.1321460054025
 20
618.093506791471
 30
0.0
 10
696.807869398753
 20
618.0896792914334
 30
0.0
 10
697.4807939160353
 20
618.0940608925475
 30
0.0
 10
698.0760910206383
 20
618.1060223738433
 30
0.0
 10
698.52274971229
 20
618.1239959482534
 30
0.0
 10
698.7533347786635
 20
618.1430337103583
 30
0.0
 10
698.7762169410488
 20
618.1551604642625
 30
0.0
 10
698.7850301338348
 20
618.1598311513342
 30
0.0
  0
LINE
  5
1DD
330
1F
100
AcDbEntity
  8
0
  6
Continuous
 62
     7
370
    25
100
AcDbLine
 10
715.7850301264
 20
618.5424482673
 30
0.0
 11
715.7850301264
 21
618.1598311513
 31
0.0
  0
SPLINE
  5
1DE
330
1F
100
AcDbEntity
  8
0
  6
Continuous
 62
     7
370
    25
100
AcDbSpline
210
0.0
220
0.0
230
1.0
 70
     8
 71
     3
 72
    17
 73
    13
 74
     0
 42
0.000000001
 43
0.00000001
 40
0.0
 40
0.0
 40
0.0
 40
0.0
 40
0.0740637094327051
 40
0.181496619623547
 40
0.2889117411825603
 40
0.3962739692225485
 40
0.5035724084021863
 40
0.6108274505682751
 40
0.7180831256992583
 40
0.8253818609650428
 40
0.9327448473922281
 40
1.0
 40
1.0
 40
1.0
 40
1.0
 10
715.7850301263842
 20
618.1598311513342
 30
0.0
 10
715.7956727135954
 20
618.1546791699063
 30
0.0
 10
715.8217528764404
 20
618.142053995976
 30
0.0
 10
716.0708246418412
 20
618.1227019698655
 30
0.0
 10
716.52891733433
 20
618.1050321102862
 30
0.0
 10
717.132146217417
 20
618.0935067872888
 30
0.0
 10
717.8078695192825
 20
618.089679288769
 30
0.0
 10
718.480793939755
 20
618.0940609097956
 30
0.0
 10
719.0760920097549
 20
618.1060223413513
 30
0.0
 10
719.5227492528322
 20
618.1239959682273
 30
0.0
 10
719.7533345383932
 20
618.143033708901
 30
0.0
 10
719.7762166698421
 20
618.1551604638573
 30
0.0
 10
719.7850298507127
 20
618.1598311513342
 30
0.0
  0
LINE
  5
1DF
330
1F
100
AcDbEntity
  8
0
  6
Continuous
 62
     7
370
    25
100
AcDbLine
 10
719.7850298507
 20
618.1598311513
 30
0.0
 11
719.7850298507
 21
618.5424482673
 31
0.0
  0
SPLINE
  5
1E0
330
1F
100
AcDbEntity
  8
0
  6
Continuous
 62
     7
370
    25
100
AcDbSpline
210
0.0
220
0.0
230
1.0
 70
     8
 71
     3
 72
    17
 73
    13
 74
     0
 42
0.000000001
 43
0.00000001
 40
0.0
 40
0.0
 40
0.0
 40
0.0
 40
0.1073803658847277
 40
0.2147607474276167
 40
0.3221368307869305
 40
0.4295071647617853
 40
0.5368735615135621
 40
0.644238166630263
 40
0.7516037261644101
 40
0.8589723208378869
 40
0.9663460928352599
 40
1.0
 40
1.0
 40
1.0
 40
1.0
 10
719.7850298507127
 20
618.5424482673086
 30
0.0
 10
719.7629155413279
 20
618.545066775352
 30
0.0
 10
719.7186869193337
 20
618.5503037918205
 30
0.0
 10
719.3738971138101
 20
618.5566236406019
 30
0.0
 10
718.8661472331177
 20
618.5611285504384
 30
0.0
 10
718.2321941693409
 20
618.5636112111083
 30
0.0
 10
717.5489689616478
 20
618.5639281692935
 30
0.0
 10
716.8922077266349
 20
618.5621448143967
 30
0.0
 10
716.3356245803707
 20
618.5582323343307
 30
0.0
 10
715.9445040759732
 20
618.5524194582814
 30
0.0
 10
715.7968746999599
 20
618.5467535351974
 30
0.0
 10
715.7873120851635
 20
618.5432777141262
 30
0.0
 10
715.7850301263842
 20
618.5424482673086
 30
0.0
  0
LINE
  5
1E1
330
1F
100
AcDbEntity
  8
0
  6
Continuous
 62
     7
370
    25
100
AcDbLine
 10
903.2850329204
 20
568.5988595932
 30
0.0
 11
893.9709131045
 21
568.5988595932
 31
0.0
  0
SPLINE
  5
1E2
330
1F
100
AcDbEntity
  8
0
  6
Continuous
 62
     7
370
    25
100
AcDbSpline
210
0.0
220
0.0
230
1.0
 70
     8
 71
     3
 72
    17
 73
    13
 74
     0
 42
0.000000001
 43
0.00000001
 40
0.0
 40
0.0
 40
0.0
 40
0.0
 40
0.106637019296567
 40
0.2132739572744338
 40
0.3197513905582546
 40
0.42622852916667
 40
0.5322324148050795
 40
0.638236072135545
 40
0.7438013955382132
 40
0.8493665891738765
 40
0.9246832660360274
 40
1.0
 40
1.0
 40
1.0
 40
1.0
 10
853.2850359005841
 20
609.2322176545538
 30
0.0
 10
855.5560819132555
 20
609.124531129696
 30
0.0
 10
860.0981722067559
 20
608.9091581620993
 30
0.0
 10
866.7236488400572
 20
607.1662177478293
 30
0.0
 10
872.963475362979
 20
604.4046581627526
 30
0.0
 10
878.6540375224674
 20
600.645680389017
 30
0.0
 10
883.6172578553653
 20
595.9879983558703
 30
0.0
 10
887.7430570801544
 20
590.5984674245968
 30
0.0
 10
890.8990276870088
 20
584.5982671767899
 30
0.0
 10
892.8160553608101
 20
578.7869936162077
 30
0.0
 10
893.8081860309505
 20
573.408738255992
 30
0.0
 10
893.9166707329591
 20
570.2021528860062
 30
0.0
 10
893.9709131045255
 20
568.5988595932401
 30
0.0
  0
SPLINE
  5
1E3
330
1F
100
AcDbEntity
  8
0
  6
Continuous
 62
     7
370
    25
100
AcDbSpline
210
0.0
220
0.0
230
1.0
 70
     8
 71
     3
 72
    17
 73
    13
 74
     0
 42
0.000000001
 43
0.00000001
 40
0.0
 40
0.0
 40
0.0
 40
0.0
 40
0.1054361261763162
 40
0.2108724501187388
 40
0.3163059680156382
 40
0.4217396155242769
 40
0.5271724473059793
 40
0.6326052216533897
 40
0.7383833537464992
 40
0.8441616436913472
 40
0.9220808410576453
 40
1.0
 40
1.0
 40
1.0
 40
1.0
 10
512.5991467757138
 20
568.5988595932401
 30
0.0
 10
512.7072035630415
 20
570.8443512148045
 30
0.0
 10
512.9233173403788
 20
575.3353386697923
 30
0.0
 10
514.6369760214184
 20
581.8916373718104
 30
0.0
 10
517.3496754403427
 20
588.0762653516474
 30
0.0
 10
521.0495301381881
 20
593.7371776220073
 30
0.0
 10
525.6443970701072
 20
598.6948574304255
 30
0.0
 10
530.9885894449225
 20
602.8461497314908
 30
0.0
 10
536.9625975082753
 20
606.0448531718383
 30
0.0
 10
542.8210355267672
 20
608.0232333857633
 30
0.0
 10
548.3089078341213
 20
609.0641867568652
 30
0.0
 10
551.6263188704606
 20
609.176207364531
 30
0.0
 10
553.2850239796551
 20
609.2322176545538
 30
0.0
  0
LINE
  5
1E4
330
1F
100
AcDbEntity
  8
0
  6
Continuous
 62
     7
370
    25
100
AcDbLine
 10
503.2850269599
 20
568.5988595932
 30
0.0
 11
512.5991467757
 21
568.5988595932
 31
0.0
  0
LINE
  5
1E5
330
1F
100
AcDbEntity
  8
0
  6
Continuous
 62
     7
370
    25
100
AcDbLine
 10
853.2850359006
 20
278.5988604873
 30
0.0
 11
853.2850359006
 21
286.6079664081
 31
0.0
  0
SPLINE
  5
1E6
330
1F
100
AcDbEntity
  8
0
  6
Continuous
 62
     7
370
    25
100
AcDbSpline
210
0.0
220
0.0
230
1.0
 70
     8
 71
     3
 72
    17
 73
    13
 74
     0
 42
0.000000001
 43
0.00000001
 40
0.0
 40
0.0
 40
0.0
 40
0.0
 40
0.1055800555307302
 40
0.2111599261258403
 40
0.3167499022403184
 40
0.4223396797202882
 40
0.5273021637628529
 40
0.6322645219717232
 40
0.736840289609357
 40
0.8414160425642875
 40
0.9207080143526473
 40
1.0
 40
1.0
 40
1.0
 40
1.0
 10
895.2574942631635
 20
328.5988649576582
 30
0.0
 10
895.1495746339822
 20
326.2766906187115
 30
0.0
 10
894.9337355646534
 20
321.6323460083739
 30
0.0
 10
893.1694068049655
 20
314.84987726733
 30
0.0
 10
890.3686284081331
 20
308.4513285035673
 30
0.0
 10
886.5512138555594
 20
302.6063447181708
 30
0.0
 10
881.8194806603466
 20
297.4970610907725
 30
0.0
 10
876.3411569727796
 20
293.233710745635
 30
0.0
 10
870.2342845149021
 20
289.9476038876682
 30
0.0
 10
864.2133567209715
 20
287.8896465425842
 30
0.0
 10
858.5149489361255
 20
286.7878673448377
 30
0.0
 10
855.0283403473319
 20
286.6679333905074
 30
0.0
 10
853.2850359005841
 20
286.6079664081015
 30
0.0
  0
LINE
  5
1E7
330
1F
100
AcDbEntity
  8
0
  6
Continuous
 62
     7
370
    25
100
AcDbLine
 10
903.2850329204
 20
328.5988649577
 30
0.0
 11
895.2574942632
 21
328.5988649577
 31
0.0
  0
LINE
  5
1E8
330
1F
100
AcDbEntity
  8
0
  6
Continuous
 62
     7
370
    25
100
AcDbLine
 10
553.2850239797
 20
278.5988604873
 30
0.0
 11
553.2850239797
 21
286.6079664081
 31
0.0
  0
SPLINE
  5
1E9
330
1F
100
AcDbEntity
  8
0
  6
Continuous
 62
     7
370
    25
100
AcDbSpline
210
0.0
220
0.0
230
1.0
 70
     8
 71
     3
 72
    15
 73
    11
 74
     0
 42
0.000000001
 43
0.00000001
 40
0.0
 40
0.0
 40
0.0
 40
0.0
 40
0.1338067412003835
 40
0.2676302573194019
 40
0.4014336122153456
 40
0.5359403839790398
 40
0.6704684943719671
 40
0.8049770678858816
 40
0.9024749726356284
 40
1.0
 40
1.0
 40
1.0
 40
1.0
 10
853.2850359005841
 20
286.6079664081015
 30
0.0
 10
839.9313610103555
 20
286.764959976349
 30
0.0
 10
813.2223371228415
 20
287.0789667946203
 30
0.0
 10
773.0772540583857
 20
287.3955443296659
 30
0.0
 10
732.8263394089416
 20
287.5832300596929
 30
0.0
 10
692.4847322660632
 20
287.615809834462
 30
0.0
 10
652.0796546325379
 20
287.5000902327445
 30
0.0
 10
615.4092925234858
 20
287.262472404436
 30
0.0
 10
582.476008435147
 20
286.9577926601157
 30
0.0
 10
563.0162542466162
 20
286.7245859697668
 30
0.0
 10
553.2850239796552
 20
286.6079664081015
 30
0.0
  0
LINE
  5
1EA
330
1F
100
AcDbEntity
  8
0
  6
Continuous
 62
     7
370
    25
100
AcDbLine
 10
503.2850269599
 20
328.5988649577
 30
0.0
 11
511.3125656171
 21
328.5988649577
 31
0.0
  0
SPLINE
  5
1EB
330
1F
100
AcDbEntity
  8
0
  6
Continuous
 62
     7
370
    25
100
AcDbSpline
210
0.0
220
0.0
230
1.0
 70
     8
 71
     3
 72
    17
 73
    13
 74
     0
 42
0.000000001
 43
0.00000001
 40
0.0
 40
0.0
 40
0.0
 40
0.0
 40
0.105132819615449
 40
0.2102655224808984
 40
0.3154256755256429
 40
0.4205857917170364
 40
0.5252743868222277
 40
0.6299630537998485
 40
0.7345640002606314
 40
0.8391651794710934
 40
0.9195825603387311
 40
1.0
 40
1.0
 40
1.0
 40
1.0
 10
553.2850239796552
 20
286.6079664081015
 30
0.0
 10
550.9726235524406
 20
286.7159395326034
 30
0.0
 10
546.3478252659321
 20
286.9318856617032
 30
0.0
 10
539.5926723857071
 20
288.684601815493
 30
0.0
 10
533.2168253949862
 20
291.4655687454404
 30
0.0
 10
527.3855104380484
 20
295.2579082412987
 30
0.0
 10
522.2801968187425
 20
299.9620116089972
 30
0.0
 10
518.0080306472147
 20
305.4185070490023
 30
0.0
 10
514.7051045314598
 20
311.5105719783816
 30
0.0
 10
512.6200839340389
 20
317.5492525637523
 30
0.0
 10
511.4955065447014
 20
323.2948065857205
 30
0.0
 10
511.3735459411453
 20
326.830845069476
 30
0.0
 10
511.3125656170757
 20
328.5988649576582
 30
0.0
  0
SPLINE
  5
1EC
330
1F
100
AcDbEntity
  8
0
  6
Continuous
 62
     7
370
    25
100
AcDbSpline
210
0.0
220
0.0
230
1.0
 70
     8
 71
     3
 72
    13
 73
     9
 74
     0
 42
0.000000001
 43
0.00000001
 40
0.0
 40
0.0
 40
0.0
 40
0.0
 40
0.1744080604526283
 40
0.3488153421893357
 40
0.5237084117320879
 40
0.6986035336778711
 40
0.8492714579399833
 40
0.9999999999999999
 40
0.9999999999999999
 40
0.9999999999999999
 40
0.9999999999999999
 10
893.9709131045255
 20
568.5988595932401
 30
0.0
 10
893.9060924951823
 20
554.6305647056631
 30
0.0
 10
893.7764515659139
 20
526.6940372976584
 30
0.0
 10
893.796505161874
 20
484.726092765534
 30
0.0
 10
893.9792509172938
 20
442.7391970482976
 30
0.0
 10
894.3097405635993
 20
402.697645640309
 30
0.0
 10
894.7376564907275
 20
364.6417534368248
 30
0.0
 10
895.084191773599
 20
340.6147719112163
 30
0.0
 10
895.2574942631635
 20
328.5988649576582
 30
0.0
  0
SPLINE
  5
1ED
330
1F
100
AcDbEntity
  8
0
  6
Continuous
 62
     7
370
    25
100
AcDbSpline
210
0.0
220
0.0
230
1.0
 70
     8
 71
     3
 72
    13
 73
     9
 74
     0
 42
0.000000001
 43
0.00000001
 40
0.0
 40
0.0
 40
0.0
 40
0.0
 40
0.1662343114239195
 40
0.3324875917338772
 40
0.4987170017025621
 40
0.6658023729188676
 40
0.8329146710504973
 40
0.9999999999999999
 40
0.9999999999999999
 40
0.9999999999999999
 40
0.9999999999999999
 10
511.3125656170758
 20
328.5988649576582
 30
0.0
 10
511.5028014827147
 20
341.8516457828359
 30
0.0
 10
511.8832949216803
 20
368.3587196991431
 30
0.0
 10
512.313678974593
 20
408.2171479219339
 30
0.0
 10
512.6228399676729
 20
448.1951680646508
 30
0.0
 10
512.7764271461459
 20
488.2813863530981
 30
0.0
 10
512.7860862792282
 20
528.4516491196613
 30
0.0
 10
512.6614565910837
 20
555.2171760796022
 30
0.0
 10
512.5991467757138
 20
568.5988595932401
 30
0.0
  0
SPLINE
  5
1EE
330
1F
100
AcDbEntity
  8
0
  6
Continuous
 62
     7
370
    25
100
AcDbSpline
210
0.0
220
0.0
230
1.0
 70
     8
 71
     3
 72
    13
 73
     9
 74
     0
 42
0.000000001
 43
0.00000001
 40
0.0
 40
0.0
 40
0.0
 40
0.0
 40
0.1746132951349577
 40
0.3492259761125294
 40
0.524276050451639
 40
0.6993277731311817
 40
0.8496361533567578
 40
0.9999999999999999
 40
0.9999999999999999
 40
0.9999999999999999
 40
0.9999999999999999
 10
543.9870570225629
 20
569.8306640833296
 30
0.0
 10
544.0328027797274
 20
555.5740732742468
 30
0.0
 10
544.1242941331575
 20
527.0609417999751
 30
0.0
 10
544.1079314310263
 20
484.2333523908039
 30
0.0
 10
543.9839830366591
 20
441.388266162251
 30
0.0
 10
543.7346827728571
 20
400.5680688565448
 30
0.0
 10
543.3868720527306
 20
361.8099755155034
 30
0.0
 10
543.0875035976105
 20
337.3644856170745
 30
0.0
 10
542.937791757098
 20
325.1394858807005
 30
0.0
  0
LWPOLYLINE
  5
1EF
330
1F
100
AcDbEntity
  8
0
  6
Continuous
 62
     7
370
    25
100
AcDbPolyline
 90
       14
 70
   128
 43
0.0
 10
542.9377917571
 20
325.1394858807
 10
539.3578175826
 20
325.2405604571
 10
535.8482960982
 20
325.3774648755
 10
532.4466441197
 20
325.5487239211
 10
529.1891459746
 20
325.7525196522
 10
526.1105511708
 20
325.9866764992
 10
523.2436869664
 20
326.2486985176
 10
520.6191603465
 20
326.5357842892
 10
518.2649407906
 20
326.8448790759
 10
516.2061516566
 20
327.1726822704
 10
514.464757256
 20
327.5156995505
 10
513.0593244357
 20
327.8702726811
 10
512.0048437638
 20
328.2326167673
 10
511.3125656171
 20
328.5988649577
  0
LWPOLYLINE
  5
1F0
330
1F
100
AcDbEntity
  8
0
  6
Continuous
 62
     7
370
    25
100
AcDbPolyline
 90
       14
 70
   128
 43
0.0
 10
543.9870570226
 20
569.8306640833
 10
540.4537085814
 20
569.7929715961
 10
536.9904403014
 20
569.7428664416
 10
533.6332980914
 20
569.6808552593
 10
530.4171804709
 20
569.6075862497
 10
527.375555448
 20
569.5238342732
 10
524.5400730891
 20
569.430448696
 10
521.940207891
 20
569.3284204453
 10
519.6030203624
 20
569.218800053
 10
517.5528142972
 20
569.1027349084
 10
515.8109132571
 20
568.9814245552
 10
514.3954519553
 20
568.8561355918
 10
513.3211378379
 20
568.7281718701
 10
512.5991467757
 20
568.5988595932
  0
SPLINE
  5
1F1
330
1F
100
AcDbEntity
  8
0
  6
Continuous
 62
     7
370
    25
100
AcDbSpline
210
0.0
220
0.0
230
1.0
 70
     8
 71
     3
 72
    15
 73
    11
 74
     0
 42
0.000000001
 43
0.00000001
 40
0.0
 40
0.0
 40
0.0
 40
0.0
 40
0.0974172430178722
 40
0.1948587615818426
 40
0.3287194833586821
 40
0.4625976545760065
 40
0.5964569652462615
 40
0.730964204424445
 40
0.8654899518419755
 40
0.9999999999999999
 40
0.9999999999999999
 40
0.9999999999999999
 40
0.9999999999999999
 10
550.4039887709531
 20
317.6593190282263
 30
0.0
 10
560.3131496261136
 20
317.7582083806206
 30
0.0
 10
580.1339406148055
 20
317.9560117277923
 30
0.0
 10
613.6190451545463
 20
318.2026948213932
 30
0.0
 10
650.8539610407925
 20
318.3888207830456
 30
0.0
 10
691.8315086572956
 20
318.4756183825029
 30
0.0
 10
732.8817310728282
 20
318.4512443076831
 30
0.0
 10
773.9799623067928
 20
318.3100435452519
 30
0.0
 10
815.1115876343073
 20
318.058647011373
 30
0.0
 10
842.4817756690685
 20
317.7924231775517
 30
0.0
 10
856.1660711092862
 20
317.6593190282263
 30
0.0
  0
LWPOLYLINE
  5
1F2
330
1F
100
AcDbEntity
  8
0
  6
Continuous
 62
     7
370
    25
100
AcDbPolyline
 90
       14
 70
   128
 43
0.0
 10
856.1660711093
 20
317.6593190282
 10
856.0779754443
 20
314.1315436214
 10
855.9608076138
 20
310.6779312938
 10
855.8158044143
 20
307.334393844
 10
855.6444708629
 20
304.1357403844
 10
855.4485801978
 20
301.1152601093
 10
855.2301887793
 20
298.3043646663
 10
854.9915466828
 20
295.7323199361
 10
854.7351424022
 20
293.4258735031
 10
854.4636581464
 20
291.409046039
 10
854.1798953338
 20
289.7028034776
 10
853.8868341966
 20
288.3249080032
 10
853.5874996705
 20
287.2897094339
 10
853.2850359006
 20
286.6079664081
  0
LWPOLYLINE
  5
1F3
330
1F
100
AcDbEntity
  8
0
  6
Continuous
 62
     7
370
    25
100
AcDbPolyline
 90
       14
 70
   128
 43
0.0
 10
550.403988771
 20
317.6593190282
 10
550.4920844359
 20
314.1315436214
 10
550.6092522664
 20
310.6779312938
 10
550.754255466
 20
307.334393844
 10
550.9255890174
 20
304.1357403844
 10
551.1214796824
 20
301.1152601093
 10
551.3398711009
 20
298.3043646663
 10
551.5785131974
 20
295.7323199361
 10
551.8349174781
 20
293.4258735031
 10
552.1064017339
 20
291.409046039
 10
552.3901645465
 20
289.7028034776
 10
552.6832256837
 20
288.3249080032
 10
552.9825602097
 20
287.2897094339
 10
553.2850239797
 20
286.6079664081
  0
LWPOLYLINE
  5
1F4
330
1F
100
AcDbEntity
  8
0
  6
Continuous
 62
     7
370
    25
100
AcDbPolyline
 90
       14
 70
   128
 43
0.0
 10
863.6322681231
 20
325.1394858807
 10
867.2122422976
 20
325.2405604571
 10
870.721763782
 20
325.3774648755
 10
874.1234157605
 20
325.5487239211
 10
877.3809139056
 20
325.7525196522
 10
880.4595087094
 20
325.9866764992
 10
883.3263729138
 20
326.2486985176
 10
885.9508995337
 20
326.5357842892
 10
888.3051190896
 20
326.8448790759
 10
890.3639082236
 20
327.1726822704
 10
892.1053026242
 20
327.5156995505
 10
893.5107354445
 20
327.8702726811
 10
894.5652161164
 20
328.2326167673
 10
895.2574942632
 20
328.5988649577
  0
SPLINE
  5
1F5
330
1F
100
AcDbEntity
  8
0
  6
Continuous
 62
     7
370
    25
100
AcDbSpline
210
0.0
220
0.0
230
1.0
 70
     8
 71
     3
 72
    13
 73
     9
 74
     0
 42
0.000000001
 43
0.00000001
 40
0.0
 40
0.0
 40
0.0
 40
0.0
 40
0.150417329811982
 40
0.3008888717382461
 40
0.475452838085242
 40
0.6500151859305285
 40
0.8250072648860445
 40
1.0
 40
1.0
 40
1.0
 40
1.0
 10
863.6322681231412
 20
325.1394858807005
 30
0.0
 10
863.4825085224666
 20
337.3688364586929
 30
0.0
 10
863.1829353460561
 20
361.8319452115415
 30
0.0
 10
862.8353993131502
 20
400.5680120231419
 30
0.0
 10
862.5865053071806
 20
441.32191785558
 30
0.0
 10
862.4622996544585
 20
484.1182166531858
 30
0.0
 10
862.4455372939335
 20
526.9679766831781
 30
0.0
 10
862.5371809458236
 20
555.5430837588874
 30
0.0
 10
862.5830028576764
 20
569.8306640833296
 30
0.0
  0
LWPOLYLINE
  5
1F6
330
1F
100
AcDbEntity
  8
0
  6
Continuous
 62
     7
370
    25
100
AcDbPolyline
 90
       14
 70
   128
 43
0.0
 10
893.9709131045
 20
568.5988595932
 10
893.2489220424
 20
568.7281718701
 10
892.1746079249
 20
568.8561355918
 10
890.7591466231
 20
568.9814245552
 10
889.017245583
 20
569.1027349084
 10
886.9670395179
 20
569.218800053
 10
884.6298519893
 20
569.3284204453
 10
882.0299867911
 20
569.430448696
 10
879.1945044322
 20
569.5238342732
 10
876.1528794093
 20
569.6075862497
 10
872.9367617888
 20
569.6808552593
 10
869.5796195788
 20
569.7428664416
 10
866.1163512988
 20
569.7929715961
 10
862.5830028577
 20
569.8306640833
  0
SPLINE
  5
1F7
330
1F
100
AcDbEntity
  8
0
  6
Continuous
 62
     7
370
    25
100
AcDbSpline
210
0.0
220
0.0
230
1.0
 70
     8
 71
     3
 72
    12
 73
     8
 74
     0
 42
0.000000001
 43
0.00000001
 40
0.0
 40
0.0
 40
0.0
 40
0.0
 40
0.1587462292946294
 40
0.3679239608075086
 40
0.5779011772107608
 40
0.7890642667694618
 40
1.0
 40
1.0
 40
1.0
 40
1.0
 10
856.1660711092862
 20
317.6593190282263
 30
0.0
 10
856.7873354409162
 20
317.6990046902953
 30
0.0
 10
858.2272312709931
 20
317.7909836055779
 30
0.0
 10
860.3465618135007
 20
318.7436498233062
 30
0.0
 10
862.1846497797601
 20
320.4338079316998
 30
0.0
 10
863.4216011172502
 20
322.6582656776511
 30
0.0
 10
863.5620710084143
 20
324.3127095256664
 30
0.0
 10
863.6322681231412
 20
325.1394858807005
 30
0.0
  0
SPLINE
  5
1F8
330
1F
100
AcDbEntity
  8
0
  6
Continuous
 62
     7
370
    25
100
AcDbSpline
210
0.0
220
0.0
230
1.0
 70
     8
 71
     3
 72
    12
 73
     8
 74
     0
 42
0.000000001
 43
0.00000001
 40
0.0
 40
0.0
 40
0.0
 40
0.0
 40
0.160873370614554
 40
0.370037847692365
 40
0.5794640745781862
 40
0.7898179957778978
 40
1.0
 40
1.0
 40
1.0
 40
1.0
 10
542.9377917570981
 20
325.1394858807005
 30
0.0
 10
542.9770479950189
 20
324.5107089008819
 30
0.0
 10
543.067344442052
 20
323.0644081277846
 30
0.0
 10
544.0237843996557
 20
320.9425298561068
 30
0.0
 10
545.7106793988628
 20
319.1096143564091
 30
0.0
 10
547.9285601686679
 20
317.8746080706762
 30
0.0
 10
549.5790708155831
 20
317.7310624816822
 30
0.0
 10
550.4039887709531
 20
317.6593190282263
 30
0.0
  0
LWPOLYLINE
  5
1F9
330
1F
100
AcDbEntity
  8
0
  6
Continuous
 62
     7
370
    25
100
AcDbPolyline
 90
       14
 70
   128
 43
0.0
 10
682.4462850017
 20
608.041972503
 10
682.3865406586
 20
607.2626119703
 10
682.3274463786
 20
606.1150288433
 10
682.2696484996
 20
604.6117400974
 10
682.2137765957
 20
602.7691370099
 10
682.1604416145
 20
600.6073212474
 10
682.1102247013
 20
598.1498664468
 10
682.0636734737
 20
595.4235797971
 10
682.0212964339
 20
592.4582040161
 10
681.9835536553
 20
589.2860895246
 10
681.950858645
 20
585.9418219179
 10
681.9235671682
 20
582.4618941396
 10
681.9019772483
 20
578.8842445463
 10
681.8863254411
 20
575.2479141801
  0
SPLINE
  5
1FA
330
1F
100
AcDbEntity
  8
0
  6
Continuous
 62
     7
370
    25
100
AcDbSpline
210
0.0
220
0.0
230
1.0
 70
     8
 71
     3
 72
    11
 73
     7
 74
     0
 42
0.000000001
 43
0.00000001
 40
0.0
 40
0.0
 40
0.0
 40
0.0
 40
0.2498198003119567
 40
0.4996447786258535
 40
0.7498217469521862
 40
1.0
 40
1.0
 40
1.0
 40
1.0
 10
681.8863254411134
 20
575.2479141801275
 30
0.0
 10
670.9029628559879
 20
575.2483922038064
 30
0.0
 10
648.9360100341547
 20
575.2493482610722
 30
0.0
 10
616.0003342176894
 20
575.3741147524864
 30
0.0
 10
583.0773649449638
 20
575.6269812374744
 30
0.0
 10
561.1539593247891
 20
575.8781474496597
 30
0.0
 10
550.1922283692273
 20
576.0037308782018
 30
0.0
  0
LWPOLYLINE
  5
1FB
330
1F
100
AcDbEntity
  8
0
  6
Continuous
 62
     7
370
    25
100
AcDbPolyline
 90
       14
 70
   128
 43
0.0
 10
553.2850239797
 20
609.2322176546
 10
552.9514018817
 20
608.4744638055
 10
552.6215199752
 20
607.3361939042
 10
552.2991035504
 20
605.8302229494
 10
551.9877735896
 20
603.97347866
 10
551.6910318656
 20
601.7868375629
 10
551.4122162385
 20
599.2949163764
 10
551.1544708533
 20
596.5257292837
 10
550.9206865353
 20
593.5104048103
 10
550.7134858889
 20
590.2828729003
 10
550.5352232976
 20
586.8794327825
 10
550.3878806157
 20
583.3383655399
 10
550.2731118722
 20
579.6994870752
 10
550.1922283692
 20
576.0037308782
  0
LWPOLYLINE
  5
1FC
330
1F
100
AcDbEntity
  8
0
  6
Continuous
 62
     7
370
    25
100
AcDbPolyline
 90
       14
 70
   128
 43
0.0
 10
853.2850359006
 20
609.2322176546
 10
853.6186579986
 20
608.4744638055
 10
853.9485399051
 20
607.3361939042
 10
854.2709563298
 20
605.8302229494
 10
854.5822862906
 20
603.97347866
 10
854.8790280147
 20
601.7868375629
 10
855.1578436417
 20
599.2949163764
 10
855.4155890269
 20
596.5257292837
 10
855.6493733449
 20
593.5104048103
 10
855.8565739913
 20
590.2828729003
 10
856.0348365827
 20
586.8794327825
 10
856.1821792645
 20
583.3383655399
 10
856.2969480081
 20
579.6994870752
 10
856.377831511
 20
576.0037308782
  0
SPLINE
  5
1FD
330
1F
100
AcDbEntity
  8
0
  6
Continuous
 62
     7
370
    25
100
AcDbSpline
210
0.0
220
0.0
230
1.0
 70
     8
 71
     3
 72
    11
 73
     7
 74
     0
 42
0.000000001
 43
0.00000001
 40
0.0
 40
0.0
 40
0.0
 40
0.0
 40
0.2498414860406781
 40
0.4996817596265317
 40
0.7498434917220752
 40
1.0
 40
1.0
 40
1.0
 40
1.0
 10
856.377831511012
 20
576.0037308782018
 30
0.0
 10
845.4308625765683
 20
575.8782995256781
 30
0.0
 10
823.5369778321864
 20
575.6274374293359
 30
0.0
 10
790.6288680782073
 20
575.3744766711172
 30
0.0
 10
757.6784583585377
 20
575.2493862089076
 30
0.0
 10
735.6818991903135
 20
575.2484048529722
 30
0.0
 10
724.6837344391259
 20
575.2479141801275
 30
0.0
  0
LWPOLYLINE
  5
1FE
330
1F
100
AcDbEntity
  8
0
  6
Continuous
 62
     7
370
    25
100
AcDbPolyline
 90
       14
 70
   128
 43
0.0
 10
724.1237748785
 20
608.041972503
 10
724.1835192217
 20
607.2626119703
 10
724.2426135017
 20
606.1150288433
 10
724.3004113806
 20
604.6117400974
 10
724.3562832845
 20
602.7691370099
 10
724.4096182657
 20
600.6073212474
 10
724.459835179
 20
598.1498664468
 10
724.5063864065
 20
595.4235797971
 10
724.5487634463
 20
592.4582040161
 10
724.586506225
 20
589.2860895246
 10
724.6192012353
 20
585.9418219179
 10
724.646492712
 20
582.4618941396
 10
724.6680826319
 20
578.8842445463
 10
724.6837344391
 20
575.2479141801
  0
SPLINE
  5
1FF
330
1F
100
AcDbEntity
  8
0
  6
Continuous
 62
     7
370
    25
100
AcDbSpline
210
0.0
220
0.0
230
1.0
 70
     8
 71
     3
 72
    12
 73
     8
 74
     0
 42
0.000000001
 43
0.00000001
 40
0.0
 40
0.0
 40
0.0
 40
0.0
 40
0.1510981342117125
 40
0.3625908142964648
 40
0.5748085934448715
 40
0.7875638335898221
 40
1.0
 40
1.0
 40
1.0
 40
1.0
 10
862.5830028576764
 20
569.8306640833296
 30
0.0
 10
862.5503536062753
 20
570.3205934689282
 30
0.0
 10
862.4720050633667
 20
571.4962790311541
 30
0.0
 10
861.699492837171
 20
573.2457621136173
 30
0.0
 10
860.2960839426573
 20
574.7869537548487
 30
0.0
 10
858.4460473575971
 20
575.825014715592
 30
0.0
 10
857.0668918095088
 20
575.9441886343121
 30
0.0
 10
856.377831511012
 20
576.0037308782018
 30
0.0
  0
SPLINE
  5
200
330
1F
100
AcDbEntity
  8
0
  6
Continuous
 62
     7
370
    25
100
AcDbSpline
210
0.0
220
0.0
230
1.0
 70
     8
 71
     3
 72
    12
 73
     8
 74
     0
 42
0.000000001
 43
0.00000001
 40
0.0
 40
0.0
 40
0.0
 40
0.0
 40
0.1554050225946225
 40
0.3666179259561984
 40
0.5776099195249659
 40
0.7888222671492522
 40
1.0
 40
1.0
 40
1.0
 40
1.0
 10
550.1922283692273
 20
576.0037308782018
 30
0.0
 10
549.6896467740204
 20
575.973174321122
 30
0.0
 10
548.5040002679929
 20
575.9010879664213
 30
0.0
 10
546.750334838612
 20
575.1251863483092
 30
0.0
 10
545.2172066636866
 20
573.7293263757199
 30
0.0
 10
544.1796307641038
 20
571.8910115810983
 30
0.0
 10
544.051244762675
 20
570.5174090604451
 30
0.0
 10
543.9870570225628
 20
569.8306640833296
 30
0.0
  0
ARC
  5
201
330
1F
100
AcDbEntity
  8
0
  6
Continuous
 62
     7
370
    25
100
AcDbCircle
 10
703.2850299401
 20
508.5988622754
 30
0.0
 40
70.00000000000033
100
AcDbArc
 50
107.8000290607
 51
72.1999709393
  0
LINE
  5
202
330
1F
100
AcDbEntity
  8
0
  6
Continuous
 62
     7
370
    25
100
AcDbLine
 10
724.6837344391
 20
575.2479141801
 30
0.0
 11
706.2092268279
 21
575.3060585111
 31
0.0
  0
LINE
  5
203
330
1F
100
AcDbEntity
  8
0
  6
Continuous
 62
     7
370
    25
100
AcDbLine
 10
700.3608330524
 20
575.3060585111
 30
0.0
 11
706.2092268279
 21
575.3060585111
 31
0.0
  0
LINE
  5
204
330
1F
100
AcDbEntity
  8
0
  6
Continuous
 62
     7
370
    25
100
AcDbLine
 10
700.3608330524
 20
575.3060585111
 30
0.0
 11
681.8863254411
 21
575.2479141801
 31
0.0
  0
ARC
  5
205
330
1F
100
AcDbEntity
  8
0
  6
Continuous
 62
     7
370
    25
100
AcDbCircle
 10
703.2850299401
 20
508.5988622754
 30
0.0
 40
66.77125453482503
100
AcDbArc
 50
92.5100283872
 51
87.4899716128
  0
LINE
  5
206
330
1F
100
AcDbEntity
  8
0
  6
Continuous
 62
     7
370
    25
100
AcDbLine
 10
706.1820985654
 20
574.6871983856
 30
0.0
 11
700.3879613148
 21
574.6871983856
 31
0.0
  0
LWPOLYLINE
  5
207
330
1F
100
AcDbEntity
  8
0
  6
Continuous
 62
     7
370
    25
100
AcDbPolyline
 90
        9
 70
   128
 43
0.0
 10
700.3608330524
 20
575.3060585111
 10
700.3642652089
 20
575.227752909
 10
700.3676901476
 20
575.1496261209
 10
700.3711057732
 20
575.071707949
 10
700.3745097572
 20
574.994057998
 10
700.3778995385
 20
574.9167358726
 10
700.3812730217
 20
574.839771375
 10
700.3846276456
 20
574.7632539123
 10
700.3879613148
 20
574.6871983856
  0
LWPOLYLINE
  5
208
330
1F
100
AcDbEntity
  8
0
  6
Continuous
 62
     7
370
    25
100
AcDbPolyline
 90
        9
 70
   128
 43
0.0
 10
706.1820985654
 20
574.6871983856
 10
706.1854322346
 20
574.7632539123
 10
706.1887868585
 20
574.839771375
 10
706.1921603417
 20
574.9167358726
 10
706.195550123
 20
574.994057998
 10
706.1989541071
 20
575.071707949
 10
706.2023697326
 20
575.1496261209
 10
706.2057946714
 20
575.227752909
 10
706.2092268279
 20
575.3060585111
  0
CIRCLE
  5
209
330
1F
100
AcDbEntity
  8
0
  6
Continuous
 62
     7
370
    25
100
AcDbCircle
 10
703.2850299401
 20
508.5988622754
 30
0.0
 40
58.61177143234613
  0
ARC
  5
20A
330
1F
100
AcDbEntity
  8
0
  6
Continuous
 62
     7
370
    25
100
AcDbCircle
 10
703.2850299401
 20
508.5988622754
 30
0.0
 40
66.15180526824547
100
AcDbArc
 50
92.5100283872
 51
87.4899716128
  0
CIRCLE
  5
20B
330
1F
100
AcDbEntity
  8
0
  6
Continuous
 62
     7
370
    25
100
AcDbCircle
 10
703.2850299401
 20
508.5988622754
 30
0.0
 40
57.5
  0
LINE
  5
20C
330
1F
100
AcDbEntity
  8
0
  6
Continuous
 62
     8
370
    25
100
AcDbLine
 10
719.3118174
 20
520.644158706
 30
0.0
 11
719.827278368
 21
519.9258705824
 31
0.0
  0
LWPOLYLINE
  5
20D
330
1F
100
AcDbEntity
  8
0
  6
Continuous
 62
     8
370
    25
100
AcDbPolyline
 90
        3
 70
   128
 43
0.0
 10
722.7057133241
 20
513.5772308558
 10
722.7838401122
 20
513.2618552297
 10
723.1020078434
 20
511.6376957148
  0
LINE
  5
20E
330
1F
100
AcDbEntity
  8
0
  6
Continuous
 62
     8
370
    25
100
AcDbLine
 10
722.9413845016
 20
504.6523703485
 30
0.0
 11
722.5102212651
 21
502.9121158868
 31
0.0
  0
LWPOLYLINE
  5
20F
330
1F
100
AcDbEntity
  8
0
  6
Continuous
 62
     8
370
    25
100
AcDbPolyline
 90
        3
 70
   128
 43
0.0
 10
719.2889664693
 20
496.5232206732
 10
718.3391338585
 20
495.3579796701
 10
718.0089930443
 20
494.9918059855
  0
LWPOLYLINE
  5
210
330
1F
100
AcDbEntity
  8
0
  6
Continuous
 62
     8
370
    25
100
AcDbPolyline
 90
        3
 70
   128
 43
0.0
 10
712.29715351
 20
490.6899636835
 10
711.8176415933
 20
490.4566003233
 10
710.6547759285
 20
489.9539208263
  0
LINE
  5
211
330
1F
100
AcDbEntity
  8
0
  6
Continuous
 62
     8
370
    25
100
AcDbLine
 10
703.811846175
 20
488.5571679324
 30
0.0
 11
702.0273350317
 21
488.5897344201
 31
0.0
  0
LINE
  5
212
330
1F
100
AcDbEntity
  8
0
  6
Continuous
 62
     8
370
    25
100
AcDbLine
 10
695.070158541
 20
490.310535416
 30
0.0
 11
693.4616648031
 21
491.1217769831
 31
0.0
  0
LINE
  5
213
330
1F
100
AcDbEntity
  8
0
  6
Continuous
 62
     8
370
    25
100
AcDbLine
 10
687.9503744094
 20
495.6839313954
 30
0.0
 11
687.2582424803
 21
496.5535668879
 31
0.0
  0
LINE
  5
214
330
1F
100
AcDbEntity
  8
0
  6
Continuous
 62
     8
370
    25
100
AcDbLine
 10
687.2582424803
 20
496.5535668879
 30
0.0
 11
686.7427815123
 21
497.2718550116
 31
0.0
  0
LWPOLYLINE
  5
215
330
1F
100
AcDbEntity
  8
0
  6
Continuous
 62
     8
370
    25
100
AcDbPolyline
 90
        3
 70
   128
 43
0.0
 10
683.8643465562
 20
503.6204947382
 10
683.786219768
 20
503.9358703643
 10
683.4680520369
 20
505.5600336045
  0
LINE
  5
216
330
1F
100
AcDbEntity
  8
0
  6
Continuous
 62
     8
370
    25
100
AcDbLine
 10
683.6286753787
 20
512.5453552454
 30
0.0
 11
684.0622730924
 21
514.2938351482
 31
0.0
  0
LWPOLYLINE
  5
217
330
1F
100
AcDbEntity
  8
0
  6
Continuous
 62
     8
370
    25
100
AcDbPolyline
 90
        3
 70
   128
 43
0.0
 10
687.281093411
 20
520.6745049208
 10
688.2309260217
 20
521.8397459238
 10
688.5610668359
 20
522.2059196084
  0
LWPOLYLINE
  5
218
330
1F
100
AcDbEntity
  8
0
  6
Continuous
 62
     8
370
    25
100
AcDbPolyline
 90
        3
 70
   128
 43
0.0
 10
694.1075202448
 20
526.4235740751
 10
694.7524182869
 20
526.7411252707
 10
695.9152839517
 20
527.243808493
  0
LINE
  5
219
330
1F
100
AcDbEntity
  8
0
  6
Continuous
 62
     8
370
    25
100
AcDbLine
 10
702.7582137052
 20
528.6405539363
 30
0.0
 11
704.5427248485
 21
528.6079948991
 31
0.0
  0
LINE
  5
21A
330
1F
100
AcDbEntity
  8
0
  6
Continuous
 62
     8
370
    25
100
AcDbLine
 10
711.4999013392
 20
526.8871939033
 30
0.0
 11
713.1083950771
 21
526.0759523362
 31
0.0
  0
LINE
  5
21B
330
1F
100
AcDbEntity
  8
0
  6
Continuous
 62
     8
370
    25
100
AcDbLine
 10
718.6196854709
 20
521.5137904733
 30
0.0
 11
719.3118174
 21
520.644158706
 31
0.0
  0
LINE
  5
21C
330
1F
100
AcDbEntity
  8
0
  6
Continuous
 62
     8
370
    25
100
AcDbLine
 10
719.798424132
 20
521.0098779052
 30
0.0
 11
719.0847404672
 21
521.9065552801
 31
0.0
  0
LINE
  5
21D
330
1F
100
AcDbEntity
  8
0
  6
Continuous
 62
     8
370
    25
100
AcDbLine
 10
713.5733671857
 20
526.5118634551
 30
0.0
 11
711.7545165492
 21
527.4401238411
 31
0.0
  0
LWPOLYLINE
  5
21E
330
1F
100
AcDbEntity
  8
0
  6
Continuous
 62
     8
370
    25
100
AcDbPolyline
 90
        3
 70
   128
 43
0.0
 10
704.7752190519
 20
529.2023798674
 10
703.4914257346
 20
529.2551672309
 10
702.7417517056
 20
529.2490503043
  0
LWPOLYLINE
  5
21F
330
1F
100
AcDbEntity
  8
0
  6
Continuous
 62
     8
370
    25
100
AcDbPolyline
 90
        3
 70
   128
 43
0.0
 10
695.6929711996
 20
527.8104773014
 10
695.5708897112
 20
527.7617803067
 10
693.828855492
 20
526.9647618979
  0
LWPOLYLINE
  5
220
330
1F
100
AcDbEntity
  8
0
  6
Continuous
 62
     8
370
    25
100
AcDbPolyline
 90
        3
 70
   128
 43
0.0
 10
688.1130624933
 20
522.6180261224
 10
687.0229289306
 20
521.3373681754
 10
686.7961109055
 20
521.0423773378
  0
LWPOLYLINE
  5
221
330
1F
100
AcDbEntity
  8
0
  6
Continuous
 62
     8
370
    25
100
AcDbPolyline
 90
        3
 70
   128
 43
0.0
 10
683.5308138652
 20
514.6400934308
 10
683.3859913422
 20
514.144473359
 10
683.0319863183
 20
512.665771529
  0
LINE
  5
222
330
1F
100
AcDbEntity
  8
0
  6
Continuous
 62
     8
370
    25
100
AcDbLine
 10
682.8665350003
 20
505.4666852802
 30
0.0
 11
683.274191655
 21
503.4713080376
 31
0.0
  0
LINE
  5
223
330
1F
100
AcDbEntity
  8
0
  6
Continuous
 62
     8
370
    25
100
AcDbLine
 10
686.241793297
 20
496.9260921925
 30
0.0
 11
686.7716357483
 21
496.1878476888
 31
0.0
  0
LINE
  5
224
330
1F
100
AcDbEntity
  8
0
  6
Continuous
 62
     8
370
    25
100
AcDbLine
 10
686.7716357483
 20
496.1878476888
 30
0.0
 11
687.4853194131
 21
495.2911703139
 31
0.0
  0
LINE
  5
225
330
1F
100
AcDbEntity
  8
0
  6
Continuous
 62
     8
370
    25
100
AcDbLine
 10
692.9966926945
 20
490.6858621388
 30
0.0
 11
694.815543331
 21
489.7575980276
 31
0.0
  0
LWPOLYLINE
  5
226
330
1F
100
AcDbEntity
  8
0
  6
Continuous
 62
     8
370
    25
100
AcDbPolyline
 90
        3
 70
   128
 43
0.0
 10
701.7948408283
 20
487.9953494519
 10
703.0786341456
 20
487.942558363
 10
703.8283081747
 20
487.9486715644
  0
LWPOLYLINE
  5
227
330
1F
100
AcDbEntity
  8
0
  6
Continuous
 62
     8
370
    25
100
AcDbPolyline
 90
        3
 70
   128
 43
0.0
 10
710.8770886807
 20
489.3872482925
 10
710.999170169
 20
489.435941562
 10
712.7412043883
 20
490.2329636961
  0
LWPOLYLINE
  5
228
330
1F
100
AcDbEntity
  8
0
  6
Continuous
 62
     8
370
    25
100
AcDbPolyline
 90
        3
 70
   128
 43
0.0
 10
718.4569973869
 20
494.5796994716
 10
719.5471309496
 20
495.8603574186
 10
719.7739489747
 20
496.1553482562
  0
LWPOLYLINE
  5
229
330
1F
100
AcDbEntity
  8
0
  6
Continuous
 62
     8
370
    25
100
AcDbPolyline
 90
        3
 70
   128
 43
0.0
 10
723.0392460151
 20
502.5576321631
 10
723.1840685381
 20
503.0532559603
 10
723.5380735619
 20
504.5319577902
  0
LINE
  5
22A
330
1F
100
AcDbEntity
  8
0
  6
Continuous
 62
     8
370
    25
100
AcDbLine
 10
723.7035248799
 20
511.7310365885
 30
0.0
 11
723.2958682252
 21
513.7264138311
 31
0.0
  0
LINE
  5
22B
330
1F
100
AcDbEntity
  8
0
  6
Continuous
 62
     8
370
    25
100
AcDbLine
 10
720.3282665832
 20
520.2716296762
 30
0.0
 11
719.798424132
 21
521.0098779052
 31
0.0
  0
LINE
  5
22C
330
1F
100
AcDbEntity
  8
0
  6
Continuous
 62
     8
370
    25
100
AcDbLine
 10
685.6622536106
 20
495.35406439
 30
0.0
 11
686.4221662654
 21
494.3991868049
 31
0.0
  0
LINE
  5
22D
330
1F
100
AcDbEntity
  8
0
  6
Continuous
 62
     8
370
    25
100
AcDbLine
 10
692.3062557725
 20
489.4820271283
 30
0.0
 11
694.2476945369
 21
488.4913159758
 31
0.0
  0
LWPOLYLINE
  5
22E
330
1F
100
AcDbEntity
  8
0
  6
Continuous
 62
     8
370
    25
100
AcDbPolyline
 90
        3
 70
   128
 43
0.0
 10
701.6941476285
 20
486.6112290173
 10
703.0647683095
 20
486.554850474
 10
703.8616079626
 20
486.5612915009
  0
LWPOLYLINE
  5
22F
330
1F
100
AcDbEntity
  8
0
  6
Continuous
 62
     8
370
    25
100
AcDbPolyline
 90
        3
 70
   128
 43
0.0
 10
711.3939885421
 20
488.0993074029
 10
711.5174120663
 20
488.1485631913
 10
713.3698685465
 20
488.9957277327
  0
LWPOLYLINE
  5
230
330
1F
100
AcDbEntity
  8
0
  6
Continuous
 62
     8
370
    25
100
AcDbPolyline
 90
        3
 70
   128
 43
0.0
 10
719.4798801465
 20
493.6418017596
 10
720.6396319343
 20
495.0045725554
 10
720.880220495
 20
495.3174410611
  0
LWPOLYLINE
  5
231
330
1F
100
AcDbEntity
  8
0
  6
Continuous
 62
     8
370
    25
100
AcDbPolyline
 90
        3
 70
   128
 43
0.0
 10
724.3649110569
 20
502.1470790952
 10
724.5209001375
 20
502.6806971281
 10
724.9003973229
 20
504.2672610134
  0
LINE
  5
232
330
1F
100
AcDbEntity
  8
0
  6
Continuous
 62
     8
370
    25
100
AcDbLine
 10
725.0758994741
 20
511.9372686594
 30
0.0
 11
724.6414598448
 21
514.0660187453
 31
0.0
  0
LINE
  5
233
330
1F
100
AcDbEntity
  8
0
  6
Continuous
 62
     8
370
    25
100
AcDbLine
 10
721.469431035
 20
521.0613837689
 30
0.0
 11
720.9078062696
 21
521.8436574787
 31
0.0
  0
LINE
  5
234
330
1F
100
AcDbEntity
  8
0
  6
Continuous
 62
     8
370
    25
100
AcDbLine
 10
720.9078062696
 20
521.8436574787
 30
0.0
 11
720.1478936149
 21
522.7985387891
 31
0.0
  0
LINE
  5
235
330
1F
100
AcDbEntity
  8
0
  6
Continuous
 62
     8
370
    25
100
AcDbLine
 10
714.2638041077
 20
527.7156984657
 30
0.0
 11
712.3223653434
 21
528.7064096182
 31
0.0
  0
LWPOLYLINE
  5
236
330
1F
100
AcDbEntity
  8
0
  6
Continuous
 62
     8
370
    25
100
AcDbPolyline
 90
        3
 70
   128
 43
0.0
 10
704.8759122517
 20
530.5864965766
 10
703.5052915707
 20
530.64287512
 10
702.7084519177
 20
530.6364303678
  0
LWPOLYLINE
  5
237
330
1F
100
AcDbEntity
  8
0
  6
Continuous
 62
     8
370
    25
100
AcDbPolyline
 90
        3
 70
   128
 43
0.0
 10
695.1760713382
 20
529.0984144658
 10
695.052647814
 20
529.049166128
 10
693.2001913337
 20
528.2019978612
  0
LWPOLYLINE
  5
238
330
1F
100
AcDbEntity
  8
0
  6
Continuous
 62
     8
370
    25
100
AcDbPolyline
 90
        3
 70
   128
 43
0.0
 10
687.0901797337
 20
523.5559275597
 10
685.930427946
 20
522.1931493133
 10
685.6898393853
 20
521.8802845329
  0
LWPOLYLINE
  5
239
330
1F
100
AcDbEntity
  8
0
  6
Continuous
 62
     8
370
    25
100
AcDbPolyline
 90
        3
 70
   128
 43
0.0
 10
682.2051488234
 20
515.0506427735
 10
682.0491597427
 20
514.5170247405
 10
681.6696625574
 20
512.9304683059
  0
LINE
  5
23A
330
1F
100
AcDbEntity
  8
0
  6
Continuous
 62
     8
370
    25
100
AcDbLine
 10
681.4941604061
 20
505.2604569345
 30
0.0
 11
681.9286000354
 21
503.1317068487
 31
0.0
  0
LINE
  5
23B
330
1F
100
AcDbEntity
  8
0
  6
Continuous
 62
     8
370
    25
100
AcDbLine
 10
685.1006288452
 20
496.1363418251
 30
0.0
 11
685.6622536106
 21
495.35406439
 31
0.0
  0
LINE
  5
23C
330
1F
100
AcDbEntity
  8
0
  6
Continuous
 62
     8
370
    25
100
AcDbLine
 10
724.6044919265
 20
524.6219864338
 30
0.0
 11
725.2830107136
 21
523.6769547909
 31
0.0
  0
LWPOLYLINE
  5
23D
330
1F
100
AcDbEntity
  8
0
  6
Continuous
 62
     8
370
    25
100
AcDbPolyline
 90
        3
 70
   128
 43
0.0
 10
729.1204452885
 20
515.2163660377
 10
729.5279641075
 20
513.3494964093
 10
729.6466071529
 20
512.6395678371
  0
LWPOLYLINE
  5
23E
330
1F
100
AcDbEntity
  8
0
  6
Continuous
 62
     8
370
    25
100
AcDbPolyline
 90
        3
 70
   128
 43
0.0
 10
729.433047436
 20
503.3508843034
 10
728.8686510546
 20
501.0663761049
 10
728.7894197179
 20
500.8023126274
  0
LINE
  5
23F
330
1F
100
AcDbEntity
  8
0
  6
Continuous
 62
     8
370
    25
100
AcDbLine
 10
724.5660879089
 20
492.524766013
 30
0.0
 11
722.8817463292
 21
490.5093951374
 31
0.0
  0
LWPOLYLINE
  5
240
330
1F
100
AcDbEntity
  8
0
  6
Continuous
 62
     8
370
    25
100
AcDbPolyline
 90
        3
 70
   128
 43
0.0
 10
715.4834660141
 20
484.8826607912
 10
715.3626436738
 20
484.8209029287
 10
713.0939744784
 20
483.7987689525
  0
LWPOLYLINE
  5
241
330
1F
100
AcDbEntity
  8
0
  6
Continuous
 62
     8
370
    25
100
AcDbPolyline
 90
        3
 70
   128
 43
0.0
 10
703.9843095954
 20
481.938571319
 10
703.4064512809
 20
481.929679051
 10
701.3643524514
 20
481.9986528009
  0
LWPOLYLINE
  5
242
330
1F
100
AcDbEntity
  8
0
  6
Continuous
 62
     8
370
    25
100
AcDbPolyline
 90
        3
 70
   128
 43
0.0
 10
692.3465736581
 20
484.2758221775
 10
691.4244283361
 20
484.7119158357
 10
690.0146210937
 20
485.4654154032
  0
LINE
  5
243
330
1F
100
AcDbEntity
  8
0
  6
Continuous
 62
     8
370
    25
100
AcDbLine
 10
682.8771204127
 20
491.429783985
 30
0.0
 11
681.9655679537
 21
492.5757354349
 31
0.0
  0
LINE
  5
244
330
1F
100
AcDbEntity
  8
0
  6
Continuous
 62
     8
370
    25
100
AcDbLine
 10
681.9655679537
 20
492.5757354349
 30
0.0
 11
681.2870491667
 21
493.5207670778
 31
0.0
  0
LWPOLYLINE
  5
245
330
1F
100
AcDbEntity
  8
0
  6
Continuous
 62
     8
370
    25
100
AcDbPolyline
 90
        3
 70
   128
 43
0.0
 10
677.4496145917
 20
501.981355831
 10
677.0420957727
 20
503.8482291847
 10
676.9234527273
 20
504.5581540316
  0
LWPOLYLINE
  5
246
330
1F
100
AcDbEntity
  8
0
  6
Continuous
 62
     8
370
    25
100
AcDbPolyline
 90
        3
 70
   128
 43
0.0
 10
677.1370124442
 20
513.8468375653
 10
677.7014088256
 20
516.1313494891
 10
677.7806401623
 20
516.3954129666
  0
LINE
  5
247
330
1F
100
AcDbEntity
  8
0
  6
Continuous
 62
     8
370
    25
100
AcDbLine
 10
682.0039719714
 20
524.6729633063
 30
0.0
 11
683.6883135511
 21
526.6883304566
 31
0.0
  0
LWPOLYLINE
  5
248
330
1F
100
AcDbEntity
  8
0
  6
Continuous
 62
     8
370
    25
100
AcDbPolyline
 90
        3
 70
   128
 43
0.0
 10
691.0865938662
 20
532.3150610774
 10
691.2074162064
 20
532.37681894
 10
693.4760854019
 20
533.3989566415
  0
LWPOLYLINE
  5
249
330
1F
100
AcDbEntity
  8
0
  6
Continuous
 62
     8
370
    25
100
AcDbPolyline
 90
        3
 70
   128
 43
0.0
 10
702.5857502849
 20
535.2591505497
 10
703.1636085994
 20
535.268046543
 10
705.2057074288
 20
535.1990690678
  0
LWPOLYLINE
  5
24A
330
1F
100
AcDbEntity
  8
0
  6
Continuous
 62
     8
370
    25
100
AcDbPolyline
 90
        3
 70
   128
 43
0.0
 10
714.2234862221
 20
532.9219034165
 10
715.1456315441
 20
532.485806033
 10
716.5554387866
 20
531.7323064655
  0
LINE
  5
24B
330
1F
100
AcDbEntity
  8
0
  6
Continuous
 62
     8
370
    25
100
AcDbLine
 10
723.6929394675
 20
525.7679378837
 30
0.0
 11
724.6044919265
 21
524.6219864338
 31
0.0
  0
SPLINE
  5
24C
330
1F
100
AcDbEntity
  8
0
  6
Continuous
 62
     8
370
    25
100
AcDbSpline
210
0.0
220
0.0
230
1.0
 70
     8
 71
     3
 72
     9
 73
     5
 74
     0
 42
0.000000001
 43
0.00000001
 40
0.0
 40
0.0
 40
0.0
 40
0.0
 40
0.6626739085719271
 40
1.0
 40
1.0
 40
1.0
 40
1.0
 10
713.2266693187865
 20
495.5272829383292
 30
0.0
 10
712.2175224560443
 20
496.8541411806814
 30
0.0
 10
710.6946816595552
 20
498.856420469467
 30
0.0
 10
709.1991654606544
 20
500.8227700252128
 30
0.0
 10
708.6946888266119
 20
501.4860710352339
 30
0.0
  0
SPLINE
  5
24D
330
1F
100
AcDbEntity
  8
0
  6
Continuous
 62
     8
370
    25
100
AcDbSpline
210
0.0
220
0.0
230
1.0
 70
     8
 71
     3
 72
     9
 73
     5
 74
     0
 42
0.000000001
 43
0.00000001
 40
0.0
 40
0.0
 40
0.0
 40
0.0
 40
0.4794751036894503
 40
0.9999999999999999
 40
0.9999999999999999
 40
0.9999999999999999
 40
0.9999999999999999
 10
697.8753710536274
 20
515.7116508334555
 30
0.0
 10
697.1569523339069
 20
516.656250514642
 30
0.0
 10
695.6586081775738
 20
518.6263208559758
 30
0.0
 10
694.1359645025252
 20
520.628343665567
 30
0.0
 10
693.3433905614528
 20
521.6704463809408
 30
0.0
  0
SPLINE
  5
24E
330
1F
100
AcDbEntity
  8
0
  6
Continuous
 62
     8
370
    25
100
AcDbSpline
210
0.0
220
0.0
230
1.0
 70
     8
 71
     3
 72
    12
 73
     8
 74
     0
 42
0.000000001
 43
0.00000001
 40
0.0
 40
0.0
 40
0.0
 40
0.0
 40
0.3049414057863213
 40
0.5250544733913273
 40
0.7558020428265579
 40
0.9865457478811317
 40
0.9999999999999999
 40
0.9999999999999999
 40
0.9999999999999999
 40
0.9999999999999999
 10
710.7474713956925
 20
505.2000439017691
 30
0.0
 10
710.8477485460478
 20
505.1543723236967
 30
0.0
 10
711.0204078352555
 20
505.0757340478881
 30
0.0
 10
711.233774956152
 20
504.9785552523019
 30
0.0
 10
711.3745464255317
 20
504.9144358350131
 30
0.0
 10
711.4498329304837
 20
504.8801456855587
 30
0.0
 10
711.4561746572504
 20
504.8772611372326
 30
0.0
 10
711.456524058989
 20
504.8771022110857
 30
0.0
  0
SPLINE
  5
24F
330
1F
100
AcDbEntity
  8
0
  6
Continuous
 62
     8
370
    25
100
AcDbSpline
210
0.0
220
0.0
230
1.0
 70
     8
 71
     3
 72
    12
 73
     8
 74
     0
 42
0.000000001
 43
0.00000001
 40
0.0
 40
0.0
 40
0.0
 40
0.0
 40
0.0134542358017999
 40
0.2441982082474229
 40
0.4749445703853287
 40
0.695056158438965
 40
1.0
 40
1.0
 40
1.0
 40
1.0
 10
695.1135358212504
 20
512.3206233828939
 30
0.0
 10
695.1138852232756
 20
512.3204644600281
 30
0.0
 10
695.120226969457
 20
512.3175799647908
 30
0.0
 10
695.195513014282
 20
512.2832835875596
 30
0.0
 10
695.3362846196043
 20
512.2191705063349
 30
0.0
 10
695.549654157799
 20
512.1219968991247
 30
0.0
 10
695.7223117192739
 20
512.0433530585519
 30
0.0
 10
695.8225884845468
 20
511.9976779669203
 30
0.0
  0
LWPOLYLINE
  5
250
330
1F
100
AcDbEntity
  8
0
  6
Continuous
 62
     8
370
    25
100
AcDbPolyline
 90
        3
 70
   128
 43
0.0
 10
701.0832250489
 20
477.9969943911
 10
703.3818782038
 20
477.9180387258
 10
704.0806240074
 20
477.9282031804
  0
LWPOLYLINE
  5
251
330
1F
100
AcDbEntity
  8
0
  6
Continuous
 62
     8
370
    25
100
AcDbPolyline
 90
        3
 70
   128
 43
0.0
 10
714.5790027825
 20
480.072234407
 10
716.2554700298
 20
480.7943670302
 10
717.3078291489
 20
481.3099732846
  0
LWPOLYLINE
  5
252
330
1F
100
AcDbEntity
  8
0
  6
Continuous
 62
     8
370
    25
100
AcDbPolyline
 90
        3
 70
   128
 43
0.0
 10
725.8368607981
 20
487.7965269833
 10
726.7314874006
 20
488.8103312105
 10
727.7590826524
 20
490.096346125
  0
LWPOLYLINE
  5
253
330
1F
100
AcDbEntity
  8
0
  6
Continuous
 62
     8
370
    25
100
AcDbPolyline
 90
        3
 70
   128
 43
0.0
 10
732.6286759598
 20
499.6393552273
 10
732.8734461589
 20
500.4841914624
 10
733.3636142684
 20
502.5489783138
  0
LWPOLYLINE
  5
254
330
1F
100
AcDbEntity
  8
0
  6
Continuous
 62
     8
370
    25
100
AcDbPolyline
 90
        3
 70
   128
 43
0.0
 10
733.6105004324
 20
513.255917117
 10
733.546011932
 20
513.6580398529
 10
733.0088809503
 20
516.202480182
  0
LINE
  5
255
330
1F
100
AcDbEntity
  8
0
  6
Continuous
 62
     8
370
    25
100
AcDbLine
 10
728.5879187657
 20
525.9506931752
 30
0.0
 11
726.7640855534
 21
528.3486997932
 31
0.0
  0
LWPOLYLINE
  5
256
330
1F
100
AcDbEntity
  8
0
  6
Continuous
 62
     8
370
    25
100
AcDbPolyline
 90
        3
 70
   128
 43
0.0
 10
718.5544947533
 20
535.2102449387
 10
716.0796763746
 20
536.4846891015
 10
715.8689190073
 20
536.5804290622
  0
LWPOLYLINE
  5
257
330
1F
100
AcDbEntity
  8
0
  6
Continuous
 62
     8
370
    25
100
AcDbPolyline
 90
        3
 70
   128
 43
0.0
 10
705.495738508
 20
539.200090453
 10
703.1881816765
 20
539.2796850055
 10
702.4827472305
 20
539.2693435996
  0
LWPOLYLINE
  5
258
330
1F
100
AcDbEntity
  8
0
  6
Continuous
 62
     8
370
    25
100
AcDbPolyline
 90
        3
 70
   128
 43
0.0
 10
691.9971023126
 20
537.1278828233
 10
690.3145898504
 20
536.4033585637
 10
689.2564621193
 20
535.884783253
  0
LWPOLYLINE
  5
259
330
1F
100
AcDbEntity
  8
0
  6
Continuous
 62
     8
370
    25
100
AcDbPolyline
 90
        3
 70
   128
 43
0.0
 10
680.7337839527
 20
529.40183191
 10
679.8385724796
 20
528.3873906582
 10
678.808272667
 20
527.097799465
  0
LWPOLYLINE
  5
25A
330
1F
100
AcDbEntity
  8
0
  6
Continuous
 62
     8
370
    25
100
AcDbPolyline
 90
        3
 70
   128
 43
0.0
 10
673.9403631909
 20
517.5550213307
 10
673.6966137214
 20
516.7135304063
 10
673.2063115014
 20
514.6480730027
  0
LWPOLYLINE
  5
25B
330
1F
100
AcDbEntity
  8
0
  6
Continuous
 62
     8
370
    25
100
AcDbPolyline
 90
        3
 70
   128
 43
0.0
 10
672.9604795946
 20
503.9358219355
 10
673.0240479482
 20
503.539685741
 10
673.5599663479
 20
500.9999914318
  0
LINE
  5
25C
330
1F
100
AcDbEntity
  8
0
  6
Continuous
 62
     8
370
    25
100
AcDbLine
 10
677.9859986527
 20
491.2414072305
 30
0.0
 11
679.8004217817
 21
488.8556232899
 31
0.0
  0
LWPOLYLINE
  5
25D
330
1F
100
AcDbEntity
  8
0
  6
Continuous
 62
     8
370
    25
100
AcDbPolyline
 90
        3
 70
   128
 43
0.0
 10
688.0205849556
 20
481.9845972806
 10
690.4903835056
 20
480.7130364924
 10
690.6937107814
 20
480.6206381172
  0
LINE
  5
25E
330
1F
100
AcDbEntity
  8
0
  6
Continuous
 62
     8
370
    25
100
AcDbLine
 10
908.8350300116
 20
328.5988649577
 30
0.0
 11
908.1652377171
 21
328.5988649577
 31
0.0
  0
LINE
  5
25F
330
1F
100
AcDbEntity
  8
0
  6
Continuous
 62
     8
370
    25
100
AcDbLine
 10
908.8350300116
 20
568.5988595932
 30
0.0
 11
908.1652377171
 21
568.5988595932
 31
0.0
  0
LINE
  5
260
330
1F
100
AcDbEntity
  8
0
  6
Continuous
 62
     8
370
    25
100
AcDbLine
 10
853.2850359006
 20
273.048863396
 30
0.0
 11
853.2850359006
 21
273.7186556905
 31
0.0
  0
LINE
  5
261
330
1F
100
AcDbEntity
  8
0
  6
Continuous
 62
     8
370
    25
100
AcDbLine
 10
553.2850239797
 20
623.4790688604
 30
0.0
 11
553.2850239797
 21
624.1488611549
 31
0.0
  0
LINE
  5
262
330
1F
100
AcDbEntity
  8
0
  6
Continuous
 62
     8
370
    25
100
AcDbLine
 10
853.2850359006
 20
624.1488611549
 30
0.0
 11
853.2850359006
 21
623.4790688604
 31
0.0
  0
LINE
  5
263
330
1F
100
AcDbEntity
  8
0
  6
Continuous
 62
     8
370
    25
100
AcDbLine
 10
498.4048221631
 20
568.5988595932
 30
0.0
 11
497.7350298686
 21
568.5988595932
 31
0.0
  0
LINE
  5
264
330
1F
100
AcDbEntity
  8
0
  6
Continuous
 62
     8
370
    25
100
AcDbLine
 10
553.2850239797
 20
273.7186556905
 30
0.0
 11
553.2850239797
 21
273.048863396
 31
0.0
  0
LINE
  5
265
330
1F
100
AcDbEntity
  8
0
  6
Continuous
 62
     8
370
    25
100
AcDbLine
 10
498.4048221631
 20
328.5988649577
 30
0.0
 11
497.7350298686
 21
328.5988649577
 31
0.0
  0
ENDSEC
  0
SECTION
  2
OBJECTS
  0
DICTIONARY
  5
C
330
0
100
AcDbDictionary
281
     1
  3
ACAD_GROUP
350
D
  3
ACAD_LAYOUT
350
1A
  3
ACAD_MLINESTYLE
350
17
  3
ACAD_PLOTSETTINGS
350
19
  3
ACAD_PLOTSTYLENAME
350
E
  3
ACAD_SCALELIST
350
47
  0
DICTIONARY
  5
D
102
{ACAD_REACTORS
330
C
102
}
330
C
100
AcDbDictionary
281
     1
  0
DICTIONARY
  5
1A
102
{ACAD_REACTORS
330
C
102
}
330
C
100
AcDbDictionary
281
     1
  3
Layout1
350
1E
  3
Layout2
350
26
  3
Model
350
22
  0
DICTIONARY
  5
17
102
{ACAD_REACTORS
330
C
102
}
330
C
100
AcDbDictionary
281
     1
  3
Standard
350
18
  0
DICTIONARY
  5
19
102
{ACAD_REACTORS
330
C
102
}
330
C
100
AcDbDictionary
281
     1
  0
ACDBDICTIONARYWDFLT
  5
E
102
{ACAD_REACTORS
330
C
102
}
330
C
100
AcDbDictionary
281
     1
  3
Normal
350
F
100
AcDbDictionaryWithDefault
340
F
  0
DICTIONARY
  5
47
102
{ACAD_REACTORS
330
C
102
}
330
C
100
AcDbDictionary
281
     1
  3
A0
350
48
  3
A1
350
49
  3
A2
350
4A
  3
A3
350
4B
  3
A4
350
4C
  3
A5
350
4D
  3
A6
350
4E
  3
A7
350
4F
  3
A8
350
50
  3
A9
350
51
  3
B0
350
52
  3
B1
350
53
  3
B2
350
54
  3
B3
350
55
  3
B4
350
56
  3
B5
350
57
  3
B6
350
58
  3
B7
350
59
  3
B8
350
5A
  3
B9
350
5B
  3
C0
350
5C
  3
C1
350
5D
  3
C2
350
5E
  3
C3
350
5F
  3
C4
350
60
  3
C5
350
61
  3
C6
350
62
  3
C7
350
63
  3
C8
350
64
  3
C9
350
65
  3
D0
350
66
  3
D1
350
67
  3
D2
350
68
  0
LAYOUT
  5
1E
102
{ACAD_REACTORS
330
1A
102
}
330
1A
100
AcDbPlotSettings
  1

  2
none_device
  4

  6

 40
0.0
 41
0.0
 42
0.0
 43
0.0
 44
0.0
 45
0.0
 46
0.0
 47
0.0
 48
0.0
 49
0.0
140
0.0
141
0.0
142
1.0
143
1.0
 70
   688
 72
     1
 73
     0
 74
     5
  7

 75
    16
147
1.0
148
0.0
149
0.0
100
AcDbLayout
  1
Layout1
 70
     1
 71
     1
 10
0.0
 20
0.0
 11
420.0
 21
297.0
 12
0.0
 22
0.0
 32
0.0
 14
1.0000000000E+20
 24
1.0000000000E+20
 34
1.0000000000E+20
 15
-1.0000000000E+20
 25
-1.0000000000E+20
 35
-1.0000000000E+20
146
0.0
 13
0.0
 23
0.0
 33
0.0
 16
1.0
 26
0.0
 36
0.0
 17
0.0
 27
1.0
 37
0.0
 76
     0
330
1B
  0
LAYOUT
  5
26
102
{ACAD_REACTORS
330
1A
102
}
330
1A
100
AcDbPlotSettings
  1

  2
none_device
  4

  6

 40
0.0
 41
0.0
 42
0.0
 43
0.0
 44
0.0
 45
0.0
 46
0.0
 47
0.0
 48
0.0
 49
0.0
140
0.0
141
0.0
142
1.0
143
1.0
 70
   688
 72
     1
 73
     0
 74
     5
  7

 75
    16
147
1.0
148
0.0
149
0.0
100
AcDbLayout
  1
Layout2
 70
     1
 71
     2
 10
0.0
 20
0.0
 11
0.0
 21
0.0
 12
0.0
 22
0.0
 32
0.0
 14
0.0
 24
0.0
 34
0.0
 15
0.0
 25
0.0
 35
0.0
146
0.0
 13
0.0
 23
0.0
 33
0.0
 16
1.0
 26
0.0
 36
0.0
 17
0.0
 27
1.0
 37
0.0
 76
     0
330
23
  0
LAYOUT
  5
22
102
{ACAD_REACTORS
330
1A
102
}
330
1A
100
AcDbPlotSettings
  1

  2
none_device
  4
Letter_(8.50_x_11.00_Inches)
  6

 40
6.35
 41
6.35
 42
6.35000508
 43
6.35000508
 44
215.9
 45
279.4
 46
0.0
 47
0.0
 48
0.0
 49
0.0
140
0.0
141
0.0
142
1.0
143
1.0
 70
  1712
 72
     1
 73
     0
 74
     0
  7

 75
     0
147
1.0
148
0.0
149
0.0
100
AcDbLayout
  1
Model
 70
     1
 71
     0
 10
0.0
 20
0.0
 11
1500.0
 21
1000.0
 12
0.0
 22
0.0
 32
0.0
 14
0.0
 24
0.0
 34
0.0
 15
1500.0
 25
1000.0
 35
0.0
146
0.0
 13
0.0
 23
0.0
 33
0.0
 16
1.0
 26
0.0
 36
0.0
 17
0.0
 27
1.0
 37
0.0
 76
     0
330
1F
331
29
  0
MLINESTYLE
  5
18
102
{ACAD_REACTORS
330
17
102
}
330
17
100
AcDbMlineStyle
  2
Standard
 70
     0
  3

 62
   256
 51
90.0
 52
90.0
 71
     2
 49
0.5
 62
   256
  6
BYLAYER
 49
-0.5
 62
   256
  6
BYLAYER
  0
ACDBPLACEHOLDER
  5
F
102
{ACAD_REACTORS
330
E
102
}
330
E
  0
SCALE
  5
48
102
{ACAD_REACTORS
330
47
102
}
330
47
100
AcDbScale
 70
     0
300
1:1
140
1.0
141
1.0
290
     1
  0
SCALE
  5
49
102
{ACAD_REACTORS
330
47
102
}
330
47
100
AcDbScale
 70
     0
300
1:2
140
1.0
141
2.0
290
     0
  0
SCALE
  5
4A
102
{ACAD_REACTORS
330
47
102
}
330
47
100
AcDbScale
 70
     0
300
1:4
140
1.0
141
4.0
290
     0
  0
SCALE
  5
4B
102
{ACAD_REACTORS
330
47
102
}
330
47
100
AcDbScale
 70
     0
300
1:5
140
1.0
141
5.0
290
     0
  0
SCALE
  5
4C
102
{ACAD_REACTORS
330
47
102
}
330
47
100
AcDbScale
 70
     0
300
1:8
140
1.0
141
8.0
290
     0
  0
SCALE
  5
4D
102
{ACAD_REACTORS
330
47
102
}
330
47
100
AcDbScale
 70
     0
300
1:10
140
1.0
141
10.0
290
     0
  0
SCALE
  5
4E
102
{ACAD_REACTORS
330
47
102
}
330
47
100
AcDbScale
 70
     0
300
1:16
140
1.0
141
16.0
290
     0
  0
SCALE
  5
4F
102
{ACAD_REACTORS
330
47
102
}
330
47
100
AcDbScale
 70
     0
300
1:20
140
1.0
141
20.0
290
     0
  0
SCALE
  5
50
102
{ACAD_REACTORS
330
47
102
}
330
47
100
AcDbScale
 70
     0
300
1:30
140
1.0
141
30.0
290
     0
  0
SCALE
  5
51
102
{ACAD_REACTORS
330
47
102
}
330
47
100
AcDbScale
 70
     0
300
1:40
140
1.0
141
40.0
290
     0
  0
SCALE
  5
52
102
{ACAD_REACTORS
330
47
102
}
330
47
100
AcDbScale
 70
     0
300
1:50
140
1.0
141
50.0
290
     0
  0
SCALE
  5
53
102
{ACAD_REACTORS
330
47
102
}
330
47
100
AcDbScale
 70
     0
300
1:100
140
1.0
141
100.0
290
     0
  0
SCALE
  5
54
102
{ACAD_REACTORS
330
47
102
}
330
47
100
AcDbScale
 70
     0
300
2:1
140
2.0
141
1.0
290
     0
  0
SCALE
  5
55
102
{ACAD_REACTORS
330
47
102
}
330
47
100
AcDbScale
 70
     0
300
4:1
140
4.0
141
1.0
290
     0
  0
SCALE
  5
56
102
{ACAD_REACTORS
330
47
102
}
330
47
100
AcDbScale
 70
     0
300
8:1
140
8.0
141
1.0
290
     0
  0
SCALE
  5
57
102
{ACAD_REACTORS
330
47
102
}
330
47
100
AcDbScale
 70
     0
300
10:1
140
10.0
141
1.0
290
     0
  0
SCALE
  5
58
102
{ACAD_REACTORS
330
47
102
}
330
47
100
AcDbScale
 70
     0
300
100:1
140
100.0
141
1.0
290
     0
  0
SCALE
  5
59
102
{ACAD_REACTORS
330
47
102
}
330
47
100
AcDbScale
 70
     0
300
1/128" = 1'-0"
140
0.0078125
141
12.0
290
     0
  0
SCALE
  5
5A
102
{ACAD_REACTORS
330
47
102
}
330
47
100
AcDbScale
 70
     0
300
1/64" = 1'-0"
140
0.015625
141
12.0
290
     0
  0
SCALE
  5
5B
102
{ACAD_REACTORS
330
47
102
}
330
47
100
AcDbScale
 70
     0
300
1/32" = 1'-0"
140
0.03125
141
12.0
290
     0
  0
SCALE
  5
5C
102
{ACAD_REACTORS
330
47
102
}
330
47
100
AcDbScale
 70
     0
300
1/16" = 1'-0"
140
0.0625
141
12.0
290
     0
  0
SCALE
  5
5D
102
{ACAD_REACTORS
330
47
102
}
330
47
100
AcDbScale
 70
     0
300
3/32" = 1'-0"
140
0.09375
141
12.0
290
     0
  0
SCALE
  5
5E
102
{ACAD_REACTORS
330
47
102
}
330
47
100
AcDbScale
 70
     0
300
1/8" = 1'-0"
140
0.125
141
12.0
290
     0
  0
SCALE
  5
5F
102
{ACAD_REACTORS
330
47
102
}
330
47
100
AcDbScale
 70
     0
300
3/16" = 1'-0"
140
0.1875
141
12.0
290
     0
  0
SCALE
  5
60
102
{ACAD_REACTORS
330
47
102
}
330
47
100
AcDbScale
 70
     0
300
1/4" = 1'-0"
140
0.25
141
12.0
290
     0
  0
SCALE
  5
61
102
{ACAD_REACTORS
330
47
102
}
330
47
100
AcDbScale
 70
     0
300
3/8" = 1'-0"
140
0.375
141
12.0
290
     0
  0
SCALE
  5
62
102
{ACAD_REACTORS
330
47
102
}
330
47
100
AcDbScale
 70
     0
300
1/2" = 1'-0"
140
0.5
141
12.0
290
     0
  0
SCALE
  5
63
102
{ACAD_REACTORS
330
47
102
}
330
47
100
AcDbScale
 70
     0
300
3/4" = 1'-0"
140
0.75
141
12.0
290
     0
  0
SCALE
  5
64
102
{ACAD_REACTORS
330
47
102
}
330
47
100
AcDbScale
 70
     0
300
1" = 1'-0"
140
1.0
141
12.0
290
     0
  0
SCALE
  5
65
102
{ACAD_REACTORS
330
47
102
}
330
47
100
AcDbScale
 70
     0
300
1-1/2" = 1'-0"
140
1.5
141
12.0
290
     0
  0
SCALE
  5
66
102
{ACAD_REACTORS
330
47
102
}
330
47
100
AcDbScale
 70
     0
300
3" = 1'-0"
140
3.0
141
12.0
290
     0
  0
SCALE
  5
67
102
{ACAD_REACTORS
330
47
102
}
330
47
100
AcDbScale
 70
     0
300
6" = 1'-0"
140
6.0
141
12.0
290
     0
  0
SCALE
  5
68
102
{ACAD_REACTORS
330
47
102
}
330
47
100
AcDbScale
 70
     0
300
1'-0" = 1'-0"
140
12.0
141
12.0
290
     0
  0
ENDSEC
  0
EOF
