  0
SECTION
  2
HEADER
  9
$ACADVER
  1
AC1015
  9
$ACADMAINTVER
 70
     6
  9
$DWGCODEPAGE
  3
ANSI_1252
  9
$INSBASE
 10
0.0
 20
0.0
 30
0.0
  9
$EXTMIN
 10
0.0
 20
0.0
 30
0.0
  9
$EXTMAX
 10
1000.0
 20
700.0
 30
0.0
  9
$LIMMIN
 10
0.0
 20
0.0
  9
$LIMMAX
 10
1000.0
 20
700.0
  9
$ORTHOMODE
 70
     0
  9
$REGENMODE
 70
     1
  9
$FILLMODE
 70
     1
  9
$QTEXTMODE
 70
     0
  9
$MIRRTEXT
 70
     1
  9
$LTSCALE
 40
1.0
  9
$ATTMODE
 70
     1
  9
$TEXTSIZE
 40
5.0
  9
$TRACEWID
 40
1.0
  9
$TEXTSTYLE
  7
Standard
  9
$CLAYER
  8
0
  9
$CELTYPE
  6
ByLayer
  9
$CECOLOR
 62
   256
  9
$CELTSCALE
 40
1.0
  9
$DISPSILH
 70
     0
  9
$DIMSCALE
 40
1.0
  9
$DIMASZ
 40
6.0
  9
$DIMEXO
 40
1.0
  9
$DIMDLI
 40
3.75
  9
$DIMRND
 40
0.0
  9
$DIMDLE
 40
0.0
  9
$DIMEXE
 40
1.0
  9
$DIMTP
 40
0.0
  9
$DIMTM
 40
0.0
  9
$DIMTXT
 40
5.0
  9
$DIMCEN
 40
2.5
  9
$DIMTSZ
 40
0.0
  9
$DIMTOL
 70
     0
  9
$DIMLIM
 70
     0
  9
$DIMTIH
 70
     1
  9
$DIMTOH
 70
     1
  9
$DIMSE1
 70
     0
  9
$DIMSE2
 70
     0
  9
$DIMTAD
 70
     1
  9
$DIMZIN
 70
     0
  9
$DIMBLK
  1

  9
$DIMASO
 70
     1
  9
$DIMSHO
 70
     1
  9
$DIMPOST
  1

  9
$DIMAPOST
  1

  9
$DIMALT
 70
     0
  9
$DIMALTD
 70
     3
  9
$DIMALTF
 40
0.0393700787
  9
$DIMLFAC
 40
1.0
  9
$DIMTOFL
 70
     1
  9
$DIMTVP
 40
0.0
  9
$DIMTIX
 70
     0
  9
$DIMSOXD
 70
     0
  9
$DIMSAH
 70
     0
  9
$DIMBLK1
  1

  9
$DIMBLK2
  1

  9
$DIMSTYLE
  2
ISO-25
  9
$DIMCLRD
 70
     0
  9
$DIMCLRE
 70
     0
  9
$DIMCLRT
 70
     0
  9
$DIMTFAC
 40
1.0
  9
$DIMGAP
 40
1.524
  9
$DIMJUST
 70
     0
  9
$DIMSD1
 70
     0
  9
$DIMSD2
 70
     0
  9
$DIMTOLJ
 70
     0
  9
$DIMTZIN
 70
     0
  9
$DIMALTZ
 70
     0
  9
$DIMALTTZ
 70
     0
  9
$DIMUPT
 70
     0
  9
$DIMDEC
 70
     2
  9
$DIMTDEC
 70
     2
  9
$DIMALTU
 70
     2
  9
$DIMALTTD
 70
     3
  9
$DIMTXSTY
  7
Standard
  9
$DIMAUNIT
 70
     0
  9
$DIMADEC
 70
     2
  9
$DIMALTRND
 40
0.0
  9
$DIMAZIN
 70
     0
  9
$DIMDSEP
 70
    44
  9
$DIMATFIT
 70
     3
  9
$DIMFRAC
 70
     0
  9
$DIMLDRBLK
  1

  9
$DIMLUNIT
 70
     2
  9
$DIMLWD
 70
    -2
  9
$DIMLWE
 70
    -2
  9
$DIMTMOVE
 70
     0
  9
$LUNITS
 70
     2
  9
$LUPREC
 70
     2
  9
$SKETCHINC
 40
1.0
  9
$FILLETRAD
 40
10.0
  9
$AUNITS
 70
     0
  9
$AUPREC
 70
     2
  9
$MENU
  1
.
  9
$ELEVATION
 40
0.0
  9
$PELEVATION
 40
0.0
  9
$THICKNESS
 40
0.0
  9
$LIMCHECK
 70
     0
  9
$CHAMFERA
 40
0.0
  9
$CHAMFERB
 40
0.0
  9
$CHAMFERC
 40
0.0
  9
$CHAMFERD
 40
0.0
  9
$SKPOLY
 70
     0
  9
$TDCREATE
 40
2458582.621755313
  9
$TDUCREATE
 40
2458582.496755313
  9
$TDUPDATE
 40
2458582.621756725
  9
$TDUUPDATE
 40
2458582.496756725
  9
$TDINDWG
 40
0.0000000116
  9
$TDUSRTIMER
 40
0.0000000116
  9
$USRTIMER
 70
     1
  9
$ANGBASE
 50
0.0
  9
$ANGDIR
 70
     0
  9
$PDMODE
 70
     0
  9
$PDSIZE
 40
-1.0
  9
$PLINEWID
 40
0.0
  9
$SPLFRAME
 70
     0
  9
$SPLINETYPE
 70
     6
  9
$SPLINESEGS
 70
     8
  9
$HANDSEED
  5
16F
  9
$SURFTAB1
 70
     6
  9
$SURFTAB2
 70
     6
  9
$SURFTYPE
 70
     6
  9
$SURFU
 70
     6
  9
$SURFV
 70
     6
  9
$UCSBASE
  2

  9
$UCSNAME
  2

  9
$UCSORG
 10
0.0
 20
0.0
 30
0.0
  9
$UCSXDIR
 10
1.0
 20
0.0
 30
0.0
  9
$UCSYDIR
 10
0.0
 20
1.0
 30
0.0
  9
$UCSORTHOREF
  2

  9
$UCSORTHOVIEW
 70
     0
  9
$UCSORGTOP
 10
0.0
 20
0.0
 30
0.0
  9
$UCSORGBOTTOM
 10
0.0
 20
0.0
 30
0.0
  9
$UCSORGLEFT
 10
0.0
 20
0.0
 30
0.0
  9
$UCSORGRIGHT
 10
0.0
 20
0.0
 30
0.0
  9
$UCSORGFRONT
 10
0.0
 20
0.0
 30
0.0
  9
$UCSORGBACK
 10
0.0
 20
0.0
 30
0.0
  9
$PUCSBASE
  2

  9
$PUCSNAME
  2

  9
$PUCSORG
 10
0.0
 20
0.0
 30
0.0
  9
$PUCSXDIR
 10
1.0
 20
0.0
 30
0.0
  9
$PUCSYDIR
 10
0.0
 20
1.0
 30
0.0
  9
$PUCSORTHOREF
  2

  9
$PUCSORTHOVIEW
 70
     0
  9
$PUCSORGTOP
 10
0.0
 20
0.0
 30
0.0
  9
$PUCSORGBOTTOM
 10
0.0
 20
0.0
 30
0.0
  9
$PUCSORGLEFT
 10
0.0
 20
0.0
 30
0.0
  9
$PUCSORGRIGHT
 10
0.0
 20
0.0
 30
0.0
  9
$PUCSORGFRONT
 10
0.0
 20
0.0
 30
0.0
  9
$PUCSORGBACK
 10
0.0
 20
0.0
 30
0.0
  9
$USERI1
 70
     0
  9
$USERI2
 70
     0
  9
$USERI3
 70
     0
  9
$USERI4
 70
     0
  9
$USERI5
 70
     0
  9
$USERR1
 40
0.0
  9
$USERR2
 40
0.0
  9
$USERR3
 40
0.0
  9
$USERR4
 40
0.0
  9
$USERR5
 40
0.0
  9
$WORLDVIEW
 70
     1
  9
$SHADEDGE
 70
     3
  9
$SHADEDIF
 70
    70
  9
$TILEMODE
 70
     1
  9
$MAXACTVP
 70
    64
  9
$PINSBASE
 10
0.0
 20
0.0
 30
0.0
  9
$PLIMCHECK
 70
     0
  9
$PEXTMIN
 10
1.0000000000E+20
 20
1.0000000000E+20
 30
1.0000000000E+20
  9
$PEXTMAX
 10
-1.0000000000E+20
 20
-1.0000000000E+20
 30
-1.0000000000E+20
  9
$PLIMMIN
 10
0.0
 20
0.0
  9
$PLIMMAX
 10
420.0
 20
297.0
  9
$UNITMODE
 70
     0
  9
$VISRETAIN
 70
     1
  9
$PLINEGEN
 70
     0
  9
$PSLTSCALE
 70
     1
  9
$TREEDEPTH
 70
  3020
  9
$CMLSTYLE
  2
Standard
  9
$CMLJUST
 70
     0
  9
$CMLSCALE
 40
20.0
  9
$PROXYGRAPHICS
 70
     1
  9
$MEASUREMENT
 70
     1
  9
$CELWEIGHT
370
    -1
  9
$ENDCAPS
280
     0
  9
$JOINSTYLE
280
     0
  9
$LWDISPLAY
290
     1
  9
$INSUNITS
 70
     4
  9
$HYPERLINKBASE
  1

  9
$STYLESHEET
  1

  9
$XEDIT
290
     1
  9
$CEPSNTYPE
380
     0
  9
$PSTYLEMODE
290
     1
  9
$FINGERPRINTGUID
  2
{9352D0C8-E7A4-41C4-BCE9-84E0F82CFCB4}
  9
$VERSIONGUID
  2
{FAEB1C32-E019-11D5-929B-00C0DF256EC4}
  9
$EXTNAMES
290
     1
  9
$PSVPSCALE
 40
0.0
  9
$OLESTARTUP
290
     0
  0
ENDSEC
  0
SECTION
  2
CLASSES
  0
CLASS
  1
ACDBDICTIONARYWDFLT
  2
AcDbDictionaryWithDefault
  3
ObjectDBX Classes
 90
        0
280
     0
281
     0
  0
CLASS
  1
VISUALSTYLE
  2
AcDbVisualStyle
  3
ObjectDBX Classes
 90
     4095
280
     0
281
     0
  0
CLASS
  1
MATERIAL
  2
AcDbMaterial
  3
ObjectDBX Classes
 90
     1153
280
     0
281
     0
  0
CLASS
  1
SCALE
  2
AcDbScale
  3
ObjectDBX Classes
 90
     1153
280
     0
281
     0
  0
CLASS
  1
TABLESTYLE
  2
AcDbTableStyle
  3
ObjectDBX Classes
 90
     4095
280
     0
281
     0
  0
CLASS
  1
MLEADERSTYLE
  2
AcDbMLeaderStyle
  3
ACDB_MLEADERSTYLE_CLASS
 90
     4095
280
     0
281
     0
  0
CLASS
  1
SUN
  2
AcDbSun
  3
SCENEOE
 90
     1153
280
     0
281
     0
  0
CLASS
  1
ACDBPLACEHOLDER
  2
AcDbPlaceHolder
  3
ObjectDBX Classes
 90
        0
280
     0
281
     0
  0
CLASS
  1
LAYOUT
  2
AcDbLayout
  3
ObjectDBX Classes
 90
        0
280
     0
281
     0
  0
ENDSEC
  0
SECTION
  2
TABLES
  0
TABLE
  2
VPORT
  5
8
330
0
100
AcDbSymbolTable
 70
     1
  0
VPORT
  5
29
330
8
100
AcDbSymbolTableRecord
100
AcDbViewportTableRecord
  2
*Active
 70
     0
 10
0.0
 20
0.0
 11
1.0
 21
1.0
 12
500.0
 22
350.0
 13
0.0
 23
0.0
 14
10.0
 24
10.0
 15
10.0
 25
10.0
 16
0.0
 26
0.0
 36
1.0
 17
0.0
 27
0.0
 37
0.0
 40
700.0
 41
1.4285714286
 42
50.0
 43
0.0
 44
0.0
 50
0.0
 51
0.0
 71
     0
 72
  2000
 73
     1
 74
     3
 75
     0
 76
     0
 77
     0
 78
     0
281
     0
 65
     1
110
0.0
120
0.0
130
0.0
111
1.0
121
0.0
131
0.0
112
0.0
122
1.0
132
0.0
 79
     0
146
0.0
  0
ENDTAB
  0
TABLE
  2
LTYPE
  5
5
330
0
100
AcDbSymbolTable
 70
     6
  0
LTYPE
  5
14
330
5
100
AcDbSymbolTableRecord
100
AcDbLinetypeTableRecord
  2
ByBlock
 70
     0
  3

 72
    65
 73
     0
 40
0.0
  0
LTYPE
  5
15
330
5
100
AcDbSymbolTableRecord
100
AcDbLinetypeTableRecord
  2
ByLayer
 70
     0
  3

 72
    65
 73
     0
 40
0.0
  0
LTYPE
  5
16
330
5
100
AcDbSymbolTableRecord
100
AcDbLinetypeTableRecord
  2
Continuous
 70
     0
  3
Solid line
 72
    65
 73
     0
 40
0.0
  0
LTYPE
  5
6E
330
5
100
AcDbSymbolTableRecord
100
AcDbLinetypeTableRecord
  2
HIDDEN
 70
     0
  3
Hidden __ __ __ __ __ __ __ __ __ __ __ __ __ __
 72
    65
 73
     2
 40
1.905
 49
1.27
 74
     0
 49
-0.635
 74
     0
  0
LTYPE
  5
6F
330
5
100
AcDbSymbolTableRecord
100
AcDbLinetypeTableRecord
  2
PHANTOM
 70
     0
  3
Phantom ______  __  __  ______  __  __  ______
 72
    65
 73
     6
 40
12.7
 49
6.35
 74
     0
 49
-1.27
 74
     0
 49
1.27
 74
     0
 49
-1.27
 74
     0
 49
1.27
 74
     0
 49
-1.27
 74
     0
  0
LTYPE
  5
70
330
5
100
AcDbSymbolTableRecord
100
AcDbLinetypeTableRecord
  2
CENTER
 70
     0
  3
Center ____ _ ____ _ ____ _ ____ _ ____ _ ____
 72
    65
 73
     4
 40
10.16
 49
6.35
 74
     0
 49
-1.27
 74
     0
 49
1.27
 74
     0
 49
-1.27
 74
     0
  0
LTYPE
  5
71
330
5
100
AcDbSymbolTableRecord
100
AcDbLinetypeTableRecord
  2
CENTERX2
 70
     0
  3
Center (2x) ________  __  ________  __  _____
 72
    65
 73
     4
 40
20.32
 49
12.7
 74
     0
 49
-2.54
 74
     0
 49
2.54
 74
     0
 49
-2.54
 74
     0
  0
LTYPE
  5
72
330
5
100
AcDbSymbolTableRecord
100
AcDbLinetypeTableRecord
  2
DOT2
 70
     0
  3
Dot (.5x) ........................................
 72
    65
 73
     2
 40
0.635
 49
0.0
 74
     0
 49
-0.635
 74
     0
  0
ENDTAB
  0
TABLE
  2
LAYER
  5
2
330
0
100
AcDbSymbolTable
 70
     2
  0
LAYER
  5
10
330
2
100
AcDbSymbolTableRecord
100
AcDbLayerTableRecord
  2
0
 70
     0
 62
     7
  6
Continuous
370
    -3
390
F
  0
LAYER
  5
73
330
2
100
AcDbSymbolTableRecord
100
AcDbLayerTableRecord
  2
TABLE_BL1
 70
     0
 62
   179
  6
Continuous
370
    -3
390
F
  0
ENDTAB
  0
TABLE
  2
STYLE
  5
3
330
0
100
AcDbSymbolTable
 70
     1
  0
STYLE
  5
11
330
3
100
AcDbSymbolTableRecord
100
AcDbTextStyleTableRecord
  2
Standard
 70
     0
 40
0.0
 41
1.0
 50
0.0
 71
     0
 42
5.0
  3
txt
  4

  0
ENDTAB
  0
TABLE
  2
VIEW
  5
6
330
0
100
AcDbSymbolTable
 70
     0
  0
ENDTAB
  0
TABLE
  2
UCS
  5
7
330
0
100
AcDbSymbolTable
 70
     0
  0
ENDTAB
  0
TABLE
  2
APPID
  5
9
330
0
100
AcDbSymbolTable
 70
     1
  0
APPID
  5
12
330
9
100
AcDbSymbolTableRecord
100
AcDbRegAppTableRecord
  2
ACAD
 70
     0
  0
ENDTAB
  0
TABLE
  2
DIMSTYLE
  5
A
330
0
100
AcDbSymbolTable
 70
     1
100
AcDbDimStyleTable
  0
DIMSTYLE
105
27
330
A
100
AcDbSymbolTableRecord
100
AcDbDimStyleTableRecord
  2
ISO-25
 70
     0
 41
2.5
 42
0.625
 43
3.75
 44
1.25
 73
     0
 74
     0
 77
     1
 78
     8
140
2.5
141
2.5
143
0.0393700787
147
0.625
171
     3
172
     1
178
     0
271
     2
272
     2
274
     3
278
    44
283
     0
284
     8
340
11
  0
ENDTAB
  0
TABLE
  2
BLOCK_RECORD
  5
1
330
0
100
AcDbSymbolTable
 70
     1
  0
BLOCK_RECORD
  5
1F
330
1
100
AcDbSymbolTableRecord
100
AcDbBlockTableRecord
  2
*Model_Space
340
22
  0
BLOCK_RECORD
  5
1B
330
1
100
AcDbSymbolTableRecord
100
AcDbBlockTableRecord
  2
*Paper_Space
340
1E
  0
BLOCK_RECORD
  5
23
330
1
100
AcDbSymbolTableRecord
100
AcDbBlockTableRecord
  2
*Paper_Space0
340
26
  0
ENDTAB
  0
ENDSEC
  0
SECTION
  2
BLOCKS
  0
BLOCK
  5
20
330
1F
100
AcDbEntity
  8
0
100
AcDbBlockBegin
  2
*Model_Space
 70
     0
 10
0.0
 20
0.0
 30
0.0
  3
*Model_Space
  1

  0
ENDBLK
  5
21
330
1F
100
AcDbEntity
  8
0
100
AcDbBlockEnd
  0
BLOCK
  5
1C
330
1B
100
AcDbEntity
 67
     1
  8
0
100
AcDbBlockBegin
  2
*Paper_Space
 70
     0
 10
0.0
 20
0.0
 30
0.0
  3
*Paper_Space
  1

  0
ENDBLK
  5
1D
330
1B
100
AcDbEntity
 67
     1
  8
0
100
AcDbBlockEnd
  0
BLOCK
  5
24
330
23
100
AcDbEntity
  8
0
100
AcDbBlockBegin
  2
*Paper_Space0
 70
     0
 10
0.0
 20
0.0
 30
0.0
  3
*Paper_Space0
  1

  0
ENDBLK
  5
25
330
23
100
AcDbEntity
  8
0
100
AcDbBlockEnd
  0
ENDSEC
  0
SECTION
  2
ENTITIES
  0
SPLINE
  5
74
330
1F
100
AcDbEntity
  8
0
  6
Continuous
 62
     7
370
    25
100
AcDbSpline
210
0.0
220
0.0
230
1.0
 70
     8
 71
     3
 72
    29
 73
    25
 74
     0
 42
0.000000001
 43
0.00000001
 40
0.0
 40
0.0
 40
0.0
 40
0.0
 40
0.0349321406882636
 40
0.0633980643159913
 40
0.0838985515737895
 40
0.1410481598295769
 40
0.1993926718331194
 40
0.2579538570990186
 40
0.3167358876867429
 40
0.3756685440136573
 40
0.4347110736298801
 40
0.493836819204054
 40
0.5530116495173844
 40
0.6120983013386025
 40
0.6710428299972755
 40
0.7298261731686602
 40
0.7884258360426926
 40
0.846795814520617
 40
0.8655669647427024
 40
0.8834823951604174
 40
0.9012873219477363
 40
0.9267778521638323
 40
0.9604934909203238
 40
1.0
 40
1.0
 40
1.0
 40
1.0
 10
703.6196120035296
 20
397.0809561726289
 30
0.0
 10
704.1526593321396
 20
398.334769228146
 30
0.0
 10
705.1200826894496
 20
400.6103045708915
 30
0.0
 10
706.0039097487897
 20
403.7652802633423
 30
0.0
 10
706.8379740748701
 20
407.8156630566992
 30
0.0
 10
707.2622899905963
 20
413.1301307185602
 30
0.0
 10
706.5722683360442
 20
419.9134274862523
 30
0.0
 10
704.6358787302488
 20
426.519886043624
 30
0.0
 10
701.5108668201011
 20
432.6797666688779
 30
0.0
 10
697.2946706197605
 20
438.1751360737351
 30
0.0
 10
692.1277603538039
 20
442.8083605174064
 30
0.0
 10
686.1861294441834
 20
446.4131119085355
 30
0.0
 10
679.6789714256306
 20
448.8583416014272
 30
0.0
 10
672.8391753458985
 20
450.0580195575395
 30
0.0
 10
665.911066964643
 20
449.9761932582554
 30
0.0
 10
659.1348155619373
 20
448.6250073752002
 30
0.0
 10
652.7435370352171
 20
446.0636437572111
 30
0.0
 10
648.2488750232683
 20
443.2135442321674
 30
0.0
 10
645.3824648735156
 20
440.8660346958714
 30
0.0
 10
643.81918342512
 20
439.4276901918329
 30
0.0
 10
642.1557226805917
 20
437.7167037559776
 30
0.0
 10
640.2177920434561
 20
435.423304562911
 30
0.0
 10
637.9864806479201
 20
432.2761012827178
 30
0.0
 10
636.6964262969941
 20
429.7273431856703
 30
0.0
 10
636.0003862949693
 20
428.3521781860283
 30
0.0
  0
SPLINE
  5
75
330
1F
100
AcDbEntity
  8
0
  6
Continuous
 62
     7
370
    25
100
AcDbSpline
210
0.0
220
0.0
230
1.0
 70
     8
 71
     3
 72
    29
 73
    25
 74
     0
 42
0.000000001
 43
0.00000001
 40
0.0
 40
0.0
 40
0.0
 40
0.0
 40
0.0349321406882636
 40
0.0633980643159913
 40
0.0838985515737895
 40
0.1410481598295769
 40
0.1993926718331195
 40
0.2579538570990189
 40
0.316735887686743
 40
0.3756685440136575
 40
0.4347110736298804
 40
0.4938368192040539
 40
0.5530116495173842
 40
0.6120983013386025
 40
0.6710428299972756
 40
0.72982617316866
 40
0.7884258360426926
 40
0.8467958145206173
 40
0.8655669647427027
 40
0.8834823951604175
 40
0.9012873219477363
 40
0.9267778521638323
 40
0.9604934909203237
 40
0.9999999999999999
 40
0.9999999999999999
 40
0.9999999999999999
 40
0.9999999999999999
 10
636.0003862949693
 20
428.3521781860283
 30
0.0
 10
635.4673389663595
 20
427.0983651305112
 30
0.0
 10
634.4999156090493
 20
424.8228297877657
 30
0.0
 10
633.6160885497094
 20
421.6678540953148
 30
0.0
 10
632.7820242236288
 20
417.617471301958
 30
0.0
 10
632.3577083079028
 20
412.303003640097
 30
0.0
 10
633.0477299624548
 20
405.5197068724049
 30
0.0
 10
634.9841195682502
 20
398.9132483150332
 30
0.0
 10
638.1091314783979
 20
392.7533676897793
 30
0.0
 10
642.3253276787386
 20
387.2579982849221
 30
0.0
 10
647.4922379446951
 20
382.6247738412509
 30
0.0
 10
653.4338688543156
 20
379.0200224501218
 30
0.0
 10
659.9410268728684
 20
376.5747927572301
 30
0.0
 10
666.7808229526005
 20
375.3751148011177
 30
0.0
 10
673.708931333856
 20
375.4569411004018
 30
0.0
 10
680.4851827365617
 20
376.808126983457
 30
0.0
 10
686.8764612632821
 20
379.3694906014462
 30
0.0
 10
691.3711232752306
 20
382.2195901264898
 30
0.0
 10
694.2375334249836
 20
384.5670996627858
 30
0.0
 10
695.8008148733792
 20
386.0054441668243
 30
0.0
 10
697.4642756179073
 20
387.7164306026797
 30
0.0
 10
699.4022062550429
 20
390.0098297957463
 30
0.0
 10
701.633517650579
 20
393.1570330759395
 30
0.0
 10
702.923572001505
 20
395.7057911729869
 30
0.0
 10
703.6196120035296
 20
397.0809561726289
 30
0.0
  0
SPLINE
  5
76
330
1F
100
AcDbEntity
  8
0
  6
Continuous
 62
     7
370
    25
100
AcDbSpline
210
0.0
220
0.0
230
1.0
 70
     8
 71
     3
 72
    29
 73
    25
 74
     0
 42
0.000000001
 43
0.00000001
 40
0.0
 40
0.0
 40
0.0
 40
0.0
 40
0.0349321406882636
 40
0.0633980643159912
 40
0.0838985515737896
 40
0.1410481598295768
 40
0.1993926718331194
 40
0.2579538570990187
 40
0.316735887686743
 40
0.3756685440136573
 40
0.4347110736298802
 40
0.493836819204054
 40
0.5530116495173844
 40
0.6120983013386025
 40
0.6710428299972755
 40
0.72982617316866
 40
0.7884258360426925
 40
0.8467958145206169
 40
0.8655669647427026
 40
0.8834823951604174
 40
0.9012873219477362
 40
0.9267778521638322
 40
0.9604934909203237
 40
1.0
 40
1.0
 40
1.0
 40
1.0
 10
423.6195158390661
 20
397.0814391245989
 30
0.0
 10
424.152563167676
 20
398.335252180116
 30
0.0
 10
425.1199865249863
 20
400.6107875228615
 30
0.0
 10
426.0038135843261
 20
403.7657632153124
 30
0.0
 10
426.8378779104067
 20
407.8161460086692
 30
0.0
 10
427.2621938261326
 20
413.1306136705302
 30
0.0
 10
426.5721721715807
 20
419.9139104382223
 30
0.0
 10
424.6357825657853
 20
426.5203689955941
 30
0.0
 10
421.5107706556375
 20
432.6802496208479
 30
0.0
 10
417.2945744552969
 20
438.1756190257051
 30
0.0
 10
412.1276641893404
 20
442.8088434693764
 30
0.0
 10
406.1860332797199
 20
446.4135948605054
 30
0.0
 10
399.6788752611671
 20
448.8588245533972
 30
0.0
 10
392.839079181435
 20
450.0585025095095
 30
0.0
 10
385.9109708001795
 20
449.9766762102255
 30
0.0
 10
379.1347193974737
 20
448.6254903271703
 30
0.0
 10
372.7434408707534
 20
446.064126709181
 30
0.0
 10
368.2487788588049
 20
443.2140271841374
 30
0.0
 10
365.3823687090521
 20
440.8665176478414
 30
0.0
 10
363.8190872606564
 20
439.428173143803
 30
0.0
 10
362.1556265161281
 20
437.7171867079476
 30
0.0
 10
360.2176958789927
 20
435.423787514881
 30
0.0
 10
357.9863844834566
 20
432.2765842346877
 30
0.0
 10
356.6963301325304
 20
429.7278261376402
 30
0.0
 10
356.0002901305058
 20
428.3526611379983
 30
0.0
  0
SPLINE
  5
77
330
1F
100
AcDbEntity
  8
0
  6
Continuous
 62
     7
370
    25
100
AcDbSpline
210
0.0
220
0.0
230
1.0
 70
     8
 71
     3
 72
    29
 73
    25
 74
     0
 42
0.000000001
 43
0.00000001
 40
0.0
 40
0.0
 40
0.0
 40
0.0
 40
0.0349321406882635
 40
0.0633980643159912
 40
0.0838985515737895
 40
0.1410481598295768
 40
0.1993926718331194
 40
0.2579538570990188
 40
0.3167358876867429
 40
0.3756685440136573
 40
0.4347110736298804
 40
0.4938368192040539
 40
0.5530116495173844
 40
0.6120983013386025
 40
0.6710428299972755
 40
0.7298261731686599
 40
0.7884258360426926
 40
0.8467958145206173
 40
0.8655669647427028
 40
0.8834823951604175
 40
0.9012873219477362
 40
0.9267778521638323
 40
0.9604934909203238
 40
1.0
 40
1.0
 40
1.0
 40
1.0
 10
356.0002901305058
 20
428.3526611379983
 30
0.0
 10
355.467242801896
 20
427.0988480824812
 30
0.0
 10
354.4998194445857
 20
424.8233127397357
 30
0.0
 10
353.6159923852459
 20
421.6683370472849
 30
0.0
 10
352.7819280591654
 20
417.617954253928
 30
0.0
 10
352.3576121434392
 20
412.303486592067
 30
0.0
 10
353.0476337979913
 20
405.5201898243749
 30
0.0
 10
354.9840234037866
 20
398.9137312670031
 30
0.0
 10
358.1090353139343
 20
392.7538506417494
 30
0.0
 10
362.3252315142752
 20
387.2584812368921
 30
0.0
 10
367.4921417802316
 20
382.6252567932209
 30
0.0
 10
373.4337726898521
 20
379.0205054020918
 30
0.0
 10
379.9409307084049
 20
376.5752757092001
 30
0.0
 10
386.7807267881369
 20
375.3755977530878
 30
0.0
 10
393.7088351693925
 20
375.4574240523718
 30
0.0
 10
400.4850865720981
 20
376.8086099354271
 30
0.0
 10
406.8763650988186
 20
379.3699735534162
 30
0.0
 10
411.3710271107672
 20
382.2200730784598
 30
0.0
 10
414.2374372605199
 20
384.5675826147558
 30
0.0
 10
415.8007187089156
 20
386.0059271187943
 30
0.0
 10
417.4641794534438
 20
387.7169135546497
 30
0.0
 10
419.4021100905794
 20
390.0103127477162
 30
0.0
 10
421.6334214861155
 20
393.1575160279095
 30
0.0
 10
422.9234758370415
 20
395.706274124957
 30
0.0
 10
423.6195158390661
 20
397.0814391245989
 30
0.0
  0
ARC
  5
78
330
1F
100
AcDbEntity
  8
0
  6
Continuous
 62
     7
370
    25
100
AcDbCircle
 10
669.8099991492
 20
412.7165671793
 30
0.0
 40
36.31056399417621
100
AcDbArc
 50
155.1813223123
 51
335.1813223292
  0
ARC
  5
79
330
1F
100
AcDbEntity
  8
0
  6
Continuous
 62
     7
370
    25
100
AcDbCircle
 10
669.8099991492
 20
412.7165671793
 30
0.0
 40
36.31056399417621
100
AcDbArc
 50
335.1813223292
 51
155.1813223123
  0
ARC
  5
7A
330
1F
100
AcDbEntity
  8
0
  6
Continuous
 62
     7
370
    25
100
AcDbCircle
 10
389.8099029848
 20
412.7170501313
 30
0.0
 40
36.31056399417611
100
AcDbArc
 50
155.1813223123
 51
335.1813223292
  0
ARC
  5
7B
330
1F
100
AcDbEntity
  8
0
  6
Continuous
 62
     7
370
    25
100
AcDbCircle
 10
389.8099029848
 20
412.7170501313
 30
0.0
 40
36.31056399417611
100
AcDbArc
 50
335.1813223292
 51
155.1813223123
  0
SPLINE
  5
7C
330
1F
100
AcDbEntity
  8
0
  6
Continuous
 62
     7
370
    25
100
AcDbSpline
210
0.0
220
0.0
230
1.0
 70
    24
 71
     3
 72
     9
 73
     5
 74
     0
 42
0.000000001
 43
0.00000001
 40
0.0
 40
0.0
 40
0.0
 40
0.0
 40
0.5599999999871338
 40
1.0
 40
1.0
 40
1.0
 40
1.0
 10
359.325821413759
 20
389.5322701455182
 30
0.0
 10
359.1709601636773
 20
389.4144898540865
 30
0.0
 10
358.8944222170965
 20
389.2041679050962
 30
0.0
 10
358.5301596384494
 20
388.9271266656116
 30
0.0
 10
358.3698841038399
 20
388.8052285202348
 30
0.0
  0
SPLINE
  5
7D
330
1F
100
AcDbEntity
  8
0
  6
Continuous
 62
     7
370
    25
100
AcDbSpline
210
0.0
220
0.0
230
1.0
 70
    24
 71
     3
 72
     9
 73
     5
 74
     0
 42
0.000000001
 43
0.00000001
 40
0.0
 40
0.0
 40
0.0
 40
0.0
 40
0.5600000000053856
 40
1.0
 40
1.0
 40
1.0
 40
1.0
 10
421.2499218657316
 20
436.6288717423627
 30
0.0
 10
421.0450378704217
 20
436.4730464686768
 30
0.0
 10
420.679173593086
 20
436.1947870513832
 30
0.0
 10
420.4116812056893
 20
435.9913447355892
 30
0.0
 10
420.2939845552362
 20
435.9018301166409
 30
0.0
  0
ARC
  5
7E
330
1F
100
AcDbEntity
  8
0
  6
Continuous
 62
     7
370
    25
100
AcDbCircle
 10
389.8099029848
 20
412.7170501313
 30
0.0
 40
38.29899805700045
100
AcDbArc
 50
37.2549368278
 51
217.2549368278
  0
ARC
  5
7F
330
1F
100
AcDbEntity
  8
0
  6
Continuous
 62
     7
370
    25
100
AcDbCircle
 10
389.8099029848
 20
412.7170501313
 30
0.0
 40
39.50000000000043
100
AcDbArc
 50
37.2549368278
 51
217.2549368513
  0
ARC
  5
80
330
1F
100
AcDbEntity
  8
0
  6
Continuous
 62
     7
370
    25
100
AcDbCircle
 10
389.8099029848
 20
412.7170501313
 30
0.0
 40
38.29899805700045
100
AcDbArc
 50
217.2549368278
 51
37.2549368278
  0
ARC
  5
81
330
1F
100
AcDbEntity
  8
0
  6
Continuous
 62
     7
370
    25
100
AcDbCircle
 10
389.8099029848
 20
412.7170501313
 30
0.0
 40
39.50000000000043
100
AcDbArc
 50
217.2549368513
 51
37.2549368176
  0
SPLINE
  5
82
330
1F
100
AcDbEntity
  8
0
  6
Continuous
 62
     7
370
    25
100
AcDbSpline
210
0.0
220
0.0
230
1.0
 70
    24
 71
     3
 72
     9
 73
     5
 74
     0
 42
0.000000001
 43
0.00000001
 40
0.0
 40
0.0
 40
0.0
 40
0.0
 40
0.5599999999871301
 40
1.0
 40
1.0
 40
1.0
 40
1.0
 10
639.3259175782225
 20
389.5317871935482
 30
0.0
 10
639.1710563281408
 20
389.4140069021163
 30
0.0
 10
638.8945183815599
 20
389.2036849531262
 30
0.0
 10
638.5302558029128
 20
388.9266437136416
 30
0.0
 10
638.3699802683034
 20
388.8047455682648
 30
0.0
  0
SPLINE
  5
83
330
1F
100
AcDbEntity
  8
0
  6
Continuous
 62
     7
370
    25
100
AcDbSpline
210
0.0
220
0.0
230
1.0
 70
    24
 71
     3
 72
     9
 73
     5
 74
     0
 42
0.000000001
 43
0.00000001
 40
0.0
 40
0.0
 40
0.0
 40
0.0
 40
0.5600000000053892
 40
1.0
 40
1.0
 40
1.0
 40
1.0
 10
701.2500180301951
 20
436.6283887903926
 30
0.0
 10
701.0451340348851
 20
436.4725635167067
 30
0.0
 10
700.6792697575496
 20
436.1943040994131
 30
0.0
 10
700.4117773701528
 20
435.9908617836192
 30
0.0
 10
700.2940807196998
 20
435.9013471646709
 30
0.0
  0
ARC
  5
84
330
1F
100
AcDbEntity
  8
0
  6
Continuous
 62
     7
370
    25
100
AcDbCircle
 10
669.8099991492
 20
412.7165671793
 30
0.0
 40
38.2989980570004
100
AcDbArc
 50
37.2549368278
 51
217.2549368278
  0
ARC
  5
85
330
1F
100
AcDbEntity
  8
0
  6
Continuous
 62
     7
370
    25
100
AcDbCircle
 10
669.8099991492
 20
412.7165671793
 30
0.0
 40
39.50000000000047
100
AcDbArc
 50
37.2549368278
 51
217.2549368513
  0
ARC
  5
86
330
1F
100
AcDbEntity
  8
0
  6
Continuous
 62
     7
370
    25
100
AcDbCircle
 10
669.8099991492
 20
412.7165671793
 30
0.0
 40
38.2989980570004
100
AcDbArc
 50
217.2549368278
 51
37.2549368278
  0
ARC
  5
87
330
1F
100
AcDbEntity
  8
0
  6
Continuous
 62
     7
370
    25
100
AcDbCircle
 10
669.8099991492
 20
412.7165671793
 30
0.0
 40
39.50000000000047
100
AcDbArc
 50
217.2549368513
 51
37.2549368176
  0
CIRCLE
  5
88
330
1F
100
AcDbEntity
  8
0
  6
Continuous
 62
     7
370
    25
100
AcDbCircle
 10
389.8099029848
 20
412.7170501313
 30
0.0
 40
57.00000000000012
  0
SPLINE
  5
89
330
1F
100
AcDbEntity
  8
0
  6
Continuous
 62
     7
370
    25
100
AcDbSpline
210
0.0
220
0.0
230
1.0
 70
     8
 71
     3
 72
    35
 73
    31
 74
     0
 42
0.000000001
 43
0.00000001
 40
0.0
 40
0.0
 40
0.0
 40
0.0
 40
0.0282546077220522
 40
0.0583834426637936
 40
0.0903495399278267
 40
0.1258616479012817
 40
0.1640104750491874
 40
0.2048405213069451
 40
0.2374624815847437
 40
0.2716127104071184
 40
0.307191435168135
 40
0.3440550017625768
 40
0.3820151215667329
 40
0.4208413631481725
 40
0.4602672732901844
 40
0.5000000044809543
 40
0.5397327356717239
 40
0.5791586458137358
 40
0.6179848873951753
 40
0.6559450071993315
 40
0.6928085737937731
 40
0.7283872985547898
 40
0.7625375273771647
 40
0.7951594876549631
 40
0.835992837618201
 40
0.8741415922595377
 40
0.9096504660940499
 40
0.9416198397637138
 40
0.971747028370545
 40
1.0
 40
1.0
 40
1.0
 40
1.0
 10
433.8177638895454
 20
408.0714186042457
 30
0.0
 10
433.92168544934
 20
409.3767771934386
 30
0.0
 10
434.1364220504454
 20
412.0740833849646
 30
0.0
 10
433.9856254741471
 20
416.2652649242261
 30
0.0
 10
433.4118723000403
 20
420.75556739528
 30
0.0
 10
432.2713890526668
 20
425.5241966591578
 30
0.0
 10
430.4489217408006
 20
430.5169988956818
 30
0.0
 10
428.0816909122217
 20
435.1287969962152
 30
0.0
 10
425.3061528729188
 20
439.2779719646616
 30
0.0
 10
422.2665820884045
 20
442.9277366479926
 30
0.0
 10
418.7040452647622
 20
446.3603771081192
 30
0.0
 10
414.6336898630748
 20
449.4742630160956
 30
0.0
 10
410.0960099068205
 20
452.166622347945
 30
0.0
 10
405.1579136858789
 20
454.3415819481937
 30
0.0
 10
399.9111600219629
 20
455.9184260105769
 30
0.0
 10
394.4676169032988
 20
456.8393669941516
 30
0.0
 10
388.9517660393084
 20
457.075339915199
 30
0.0
 10
383.4914141251584
 20
456.6287772676088
 30
0.0
 10
378.2080294626239
 20
455.5328347495185
 30
0.0
 10
373.2082018160097
 20
453.8472897855596
 30
0.0
 10
368.5773831957376
 20
451.6519317316655
 30
0.0
 10
364.3766334596612
 20
449.0388125174651
 30
0.0
 10
360.6419882822244
 20
446.1041583123681
 30
0.0
 10
357.0611642788604
 20
442.6258683922962
 30
0.0
 10
353.783107127817
 20
438.6098537236219
 30
0.0
 10
350.958326730475
 20
434.1076225603957
 30
0.0
 10
348.8473407608739
 20
429.6822165445552
 30
0.0
 10
347.3486627138932
 20
425.4107613735762
 30
0.0
 10
346.3261668689213
 20
421.3434246057727
 30
0.0
 10
345.9729707128952
 20
418.6608895741398
 30
0.0
 10
345.8020420800266
 20
417.3626816583513
 30
0.0
  0
SPLINE
  5
8A
330
1F
100
AcDbEntity
  8
0
  6
Continuous
 62
     7
370
    25
100
AcDbSpline
210
0.0
220
0.0
230
1.0
 70
     8
 71
     3
 72
    35
 73
    31
 74
     0
 42
0.000000001
 43
0.00000001
 40
0.0
 40
0.0
 40
0.0
 40
0.0
 40
0.0282546077224732
 40
0.0583834426636163
 40
0.0903495399278294
 40
0.1258616479030818
 40
0.1640104750499179
 40
0.2048405213069402
 40
0.2374624815847387
 40
0.2716127104071135
 40
0.3071914351681303
 40
0.3440550017625723
 40
0.3820151215667283
 40
0.420841363148168
 40
0.4602672732901801
 40
0.5000000044809499
 40
0.53973273567172
 40
0.5791586458137319
 40
0.6179848873951717
 40
0.6559450071993279
 40
0.6928085737937697
 40
0.7283872985547865
 40
0.7625375273771613
 40
0.7951594876549599
 40
0.835992837618258
 40
0.8741415922594715
 40
0.9096504660940462
 40
0.9416198397647849
 40
0.9717470283710183
 40
1.0
 40
1.0
 40
1.0
 40
1.0
 10
345.8020420800266
 20
417.3626816583513
 30
0.0
 10
345.6981205202271
 20
416.057323069139
 30
0.0
 10
345.4833839191154
 20
413.3600168776211
 30
0.0
 10
345.6341804954459
 20
409.1688353383608
 30
0.0
 10
346.2079336695372
 20
404.6785328672421
 30
0.0
 10
347.3484169169278
 20
399.9099036033213
 30
0.0
 10
349.1708842288463
 20
394.9171013668189
 30
0.0
 10
351.5381150573647
 20
390.3053032663504
 30
0.0
 10
354.3136530966547
 20
386.1561282979351
 30
0.0
 10
357.3532238811674
 20
382.5063636146035
 30
0.0
 10
360.9157607048101
 20
379.0737231544771
 30
0.0
 10
364.9861161064974
 20
375.9598372465006
 30
0.0
 10
369.5237960627519
 20
373.2674779146511
 30
0.0
 10
374.4618922836933
 20
371.0925183144025
 30
0.0
 10
379.7086459476093
 20
369.5156742520194
 30
0.0
 10
385.1521890662735
 20
368.5947332684445
 30
0.0
 10
390.6680399302638
 20
368.3587603473972
 30
0.0
 10
396.128391844414
 20
368.8053229949874
 30
0.0
 10
401.4117765069483
 20
369.9012655130776
 30
0.0
 10
406.4116041535626
 20
371.5868104770365
 30
0.0
 10
411.0424227738346
 20
373.7821685309308
 30
0.0
 10
415.2431725099112
 20
376.3952877451311
 30
0.0
 10
418.9778176873481
 20
379.3299419502279
 30
0.0
 10
422.558641690713
 20
382.8082318703026
 30
0.0
 10
425.8366988417595
 20
386.824246538971
 30
0.0
 10
428.661479239092
 20
391.3264777022033
 30
0.0
 10
430.7724652087181
 20
395.751883718083
 30
0.0
 10
432.2711432557073
 20
400.023338889087
 30
0.0
 10
433.293639100652
 20
404.0906756568968
 30
0.0
 10
433.646835256677
 20
406.7732106884795
 30
0.0
 10
433.8177638895454
 20
408.0714186042457
 30
0.0
  0
ARC
  5
8B
330
1F
100
AcDbEntity
  8
0
  6
Continuous
 62
     7
370
    25
100
AcDbCircle
 10
389.8099029848
 20
412.7170501313
 30
0.0
 40
40.35476230894894
100
AcDbArc
 50
353.973964907
 51
173.973964907
  0
ARC
  5
8C
330
1F
100
AcDbEntity
  8
0
  6
Continuous
 62
     7
370
    25
100
AcDbCircle
 10
389.8099029848
 20
412.7170501313
 30
0.0
 40
40.35476230894894
100
AcDbArc
 50
173.973964907
 51
353.973964907
  0
CIRCLE
  5
8D
330
1F
100
AcDbEntity
  8
0
  6
Continuous
 62
     7
370
    25
100
AcDbCircle
 10
389.8099029848
 20
412.7170501313
 30
0.0
 40
39.93812333100013
  0
CIRCLE
  5
8E
330
1F
100
AcDbEntity
  8
0
  6
Continuous
 62
     7
370
    25
100
AcDbCircle
 10
669.8099991492
 20
412.7165671793
 30
0.0
 40
57.00000000000024
  0
SPLINE
  5
8F
330
1F
100
AcDbEntity
  8
0
  6
Continuous
 62
     7
370
    25
100
AcDbSpline
210
0.0
220
0.0
230
1.0
 70
     8
 71
     3
 72
    35
 73
    31
 74
     0
 42
0.000000001
 43
0.00000001
 40
0.0
 40
0.0
 40
0.0
 40
0.0
 40
0.0282546077220522
 40
0.0583834426637936
 40
0.0903495399278267
 40
0.1258616479012817
 40
0.1640104750491874
 40
0.2048405213069451
 40
0.2374624815847436
 40
0.2716127104071183
 40
0.307191435168135
 40
0.3440550017625768
 40
0.3820151215667329
 40
0.4208413631481724
 40
0.4602672732901844
 40
0.5000000044809542
 40
0.5397327356717239
 40
0.5791586458137358
 40
0.6179848873951754
 40
0.6559450071993315
 40
0.6928085737937731
 40
0.7283872985547899
 40
0.7625375273771647
 40
0.7951594876549632
 40
0.835992837618201
 40
0.8741415922595377
 40
0.9096504660940499
 40
0.9416198397637138
 40
0.971747028370545
 40
1.0
 40
1.0
 40
1.0
 40
1.0
 10
713.817860054009
 20
408.0709356522757
 30
0.0
 10
713.9217816138034
 20
409.3762942414685
 30
0.0
 10
714.1365182149088
 20
412.0736004329947
 30
0.0
 10
713.9857216386106
 20
416.2647819722561
 30
0.0
 10
713.4119684645037
 20
420.7550844433099
 30
0.0
 10
712.2714852171304
 20
425.5237137071878
 30
0.0
 10
710.4490179052642
 20
430.5165159437117
 30
0.0
 10
708.0817870766853
 20
435.1283140442451
 30
0.0
 10
705.3062490373823
 20
439.2774890126916
 30
0.0
 10
702.266678252868
 20
442.9272536960226
 30
0.0
 10
698.7041414292257
 20
446.3598941561491
 30
0.0
 10
694.6337860275383
 20
449.4737800641257
 30
0.0
 10
690.0961060712839
 20
452.166139395975
 30
0.0
 10
685.1580098503425
 20
454.3410989962236
 30
0.0
 10
679.9112561864265
 20
455.9179430586069
 30
0.0
 10
674.4677130677624
 20
456.8388840421816
 30
0.0
 10
668.951862203772
 20
457.0748569632289
 30
0.0
 10
663.4915102896218
 20
456.6282943156388
 30
0.0
 10
658.2081256270875
 20
455.5323517975485
 30
0.0
 10
653.2082979804732
 20
453.8468068335897
 30
0.0
 10
648.5774793602012
 20
451.6514487796954
 30
0.0
 10
644.3767296241246
 20
449.0383295654951
 30
0.0
 10
640.6420844466878
 20
446.1036753603981
 30
0.0
 10
637.0612604433239
 20
442.6253854403262
 30
0.0
 10
633.7832032922805
 20
438.609370771652
 30
0.0
 10
630.9584228949385
 20
434.1071396084256
 30
0.0
 10
628.8474369253374
 20
429.6817335925852
 30
0.0
 10
627.3487588783568
 20
425.4102784216062
 30
0.0
 10
626.3262630333849
 20
421.3429416538027
 30
0.0
 10
625.9730668773587
 20
418.6604066221697
 30
0.0
 10
625.8021382444902
 20
417.3621987063813
 30
0.0
  0
SPLINE
  5
90
330
1F
100
AcDbEntity
  8
0
  6
Continuous
 62
     7
370
    25
100
AcDbSpline
210
0.0
220
0.0
230
1.0
 70
     8
 71
     3
 72
    35
 73
    31
 74
     0
 42
0.000000001
 43
0.00000001
 40
0.0
 40
0.0
 40
0.0
 40
0.0
 40
0.0282546077224732
 40
0.0583834426636163
 40
0.0903495399278294
 40
0.1258616479030818
 40
0.164010475049918
 40
0.2048405213069402
 40
0.2374624815847387
 40
0.2716127104071136
 40
0.3071914351681303
 40
0.3440550017625723
 40
0.3820151215667284
 40
0.4208413631481682
 40
0.4602672732901801
 40
0.50000000448095
 40
0.5397327356717199
 40
0.5791586458137319
 40
0.6179848873951717
 40
0.6559450071993279
 40
0.6928085737937698
 40
0.7283872985547866
 40
0.7625375273771615
 40
0.79515948765496
 40
0.835992837618258
 40
0.8741415922594715
 40
0.9096504660940462
 40
0.9416198397647847
 40
0.9717470283710183
 40
1.0
 40
1.0
 40
1.0
 40
1.0
 10
625.8021382444902
 20
417.3621987063813
 30
0.0
 10
625.6982166846907
 20
416.056840117169
 30
0.0
 10
625.483480083579
 20
413.3595339256511
 30
0.0
 10
625.6342766599093
 20
409.1683523863907
 30
0.0
 10
626.208029834001
 20
404.678049915272
 30
0.0
 10
627.3485130813912
 20
399.9094206513512
 30
0.0
 10
629.1709803933097
 20
394.9166184148489
 30
0.0
 10
631.5382112218282
 20
390.3048203143804
 30
0.0
 10
634.3137492611182
 20
386.1556453459651
 30
0.0
 10
637.353320045631
 20
382.5058806626334
 30
0.0
 10
640.9158568692736
 20
379.0732402025071
 30
0.0
 10
644.9862122709609
 20
375.9593542945306
 30
0.0
 10
649.5238922272154
 20
373.2669949626811
 30
0.0
 10
654.4619884481568
 20
371.0920353624325
 30
0.0
 10
659.7087421120729
 20
369.5151913000494
 30
0.0
 10
665.152285230737
 20
368.5942503164745
 30
0.0
 10
670.6681360947273
 20
368.3582773954273
 30
0.0
 10
676.1284880088775
 20
368.8048400430174
 30
0.0
 10
681.4118726714117
 20
369.9007825611076
 30
0.0
 10
686.4117003180261
 20
371.5863275250665
 30
0.0
 10
691.0425189382981
 20
373.7816855789607
 30
0.0
 10
695.2432686743746
 20
376.3948047931611
 30
0.0
 10
698.9779138518118
 20
379.3294589982578
 30
0.0
 10
702.5587378551766
 20
382.8077489183325
 30
0.0
 10
705.8367950062229
 20
386.823763587001
 30
0.0
 10
708.6615754035555
 20
391.3259947502332
 30
0.0
 10
710.7725613731817
 20
395.751400766113
 30
0.0
 10
712.2712394201707
 20
400.0228559371171
 30
0.0
 10
713.2937352651155
 20
404.0901927049268
 30
0.0
 10
713.6469314211406
 20
406.7727277365095
 30
0.0
 10
713.817860054009
 20
408.0709356522757
 30
0.0
  0
ARC
  5
91
330
1F
100
AcDbEntity
  8
0
  6
Continuous
 62
     7
370
    25
100
AcDbCircle
 10
669.8099991492
 20
412.7165671793
 30
0.0
 40
40.35476230894893
100
AcDbArc
 50
353.973964907
 51
173.973964907
  0
ARC
  5
92
330
1F
100
AcDbEntity
  8
0
  6
Continuous
 62
     7
370
    25
100
AcDbCircle
 10
669.8099991492
 20
412.7165671793
 30
0.0
 40
40.35476230894893
100
AcDbArc
 50
173.973964907
 51
353.973964907
  0
CIRCLE
  5
93
330
1F
100
AcDbEntity
  8
0
  6
Continuous
 62
     7
370
    25
100
AcDbCircle
 10
669.8099991492
 20
412.7165671793
 30
0.0
 40
39.93812333100025
  0
SPLINE
  5
94
330
1F
100
AcDbEntity
  8
0
  6
Continuous
 62
     7
370
    25
100
AcDbSpline
210
0.0
220
0.0
230
1.0
 70
     8
 71
     3
 72
     8
 73
     4
 74
     0
 42
0.000000001
 43
0.00000001
 40
0.0
 40
0.0
 40
0.0
 40
0.0
 40
1.0
 40
1.0
 40
1.0
 40
1.0
 10
560.6163570788386
 20
141.458848003189
 30
0.0
 10
561.0305883161144
 20
142.5051536990311
 30
0.0
 10
561.33139621339
 20
143.5706086801972
 30
0.0
 10
561.5261606040401
 20
144.623034181183
 30
0.0
  0
SPLINE
  5
95
330
1F
100
AcDbEntity
  8
0
  6
Continuous
 62
     7
370
    25
100
AcDbSpline
210
0.0
220
0.0
230
1.0
 70
     8
 71
     3
 72
     8
 73
     4
 74
     0
 42
0.000000001
 43
0.00000001
 40
0.0
 40
0.0
 40
0.0
 40
0.0
 40
1.0
 40
1.0
 40
1.0
 40
1.0
 10
561.5261606040922
 20
144.6230341811734
 30
0.0
 10
561.7209381001007
 20
145.6755304980479
 30
0.0
 10
561.8099991522524
 20
146.7147814473313
 30
0.0
 10
561.8099991522524
 20
147.7165671641782
 30
0.0
  0
LINE
  5
96
330
1F
100
AcDbEntity
  8
0
  6
Continuous
 62
     7
370
    25
100
AcDbLine
 10
561.8099991523
 20
147.7165671642
 30
0.0
 11
561.8099991523
 21
517.7165671642
 31
0.0
  0
SPLINE
  5
97
330
1F
100
AcDbEntity
  8
0
  6
Continuous
 62
     7
370
    25
100
AcDbSpline
210
0.0
220
0.0
230
1.0
 70
     8
 71
     3
 72
    15
 73
    11
 74
     0
 42
0.000000001
 43
0.00000001
 40
0.0
 40
0.0
 40
0.0
 40
0.0
 40
0.1251935285789254
 40
0.2502007717560262
 40
0.3750870908070981
 40
0.4999180369550588
 40
0.6247592486479988
 40
0.7496763481516574
 40
0.8747348382694826
 40
0.9999999999999999
 40
0.9999999999999999
 40
0.9999999999999999
 40
0.9999999999999999
 10
561.809999152266
 20
517.7165671641782
 30
0.0
 10
561.8091486055574
 20
517.8463874952546
 30
0.0
 10
561.8074487777365
 20
518.1058349874185
 30
0.0
 10
561.7936475827863
 20
518.4945820688329
 30
0.0
 10
561.7716082561714
 20
518.8825480230936
 30
0.0
 10
561.7405115036235
 20
519.2697297694256
 30
0.0
 10
561.7006291346121
 20
519.6561374456184
 30
0.0
 10
561.6516922374195
 20
520.0417316291607
 30
0.0
 10
561.5945061272841
 20
520.4266581682474
 30
0.0
 10
561.5489559806063
 20
520.6822109012566
 30
0.0
 10
561.526162103766
 20
520.8100927621781
 30
0.0
  0
SPLINE
  5
98
330
1F
100
AcDbEntity
  8
0
  6
Continuous
 62
     7
370
    25
100
AcDbSpline
210
0.0
220
0.0
230
1.0
 70
     8
 71
     3
 72
    15
 73
    11
 74
     0
 42
0.000000001
 43
0.00000001
 40
0.0
 40
0.0
 40
0.0
 40
0.0
 40
0.1252180298223263
 40
0.2502264470909951
 40
0.37509874061049
 40
0.4999086396369856
 40
0.6247299839918661
 40
0.7496365931984782
 40
0.8747021357983694
 40
1.0
 40
1.0
 40
1.0
 40
1.0
 10
561.526162103766
 20
520.8100927621781
 30
0.0
 10
561.500180956688
 20
520.945260692398
 30
0.0
 10
561.4482621544686
 20
521.2153702843439
 30
0.0
 10
561.3580437392762
 20
521.617737228373
 30
0.0
 10
561.2588913682281
 20
522.0175040055389
 30
0.0
 10
561.1499009900908
 20
522.4144995723316
 30
0.0
 10
561.0313703984283
 20
522.8087912416256
 30
0.0
 10
560.9030117603423
 20
523.2002780117019
 30
0.0
 10
560.7656809052041
 20
523.5892946786973
 30
0.0
 10
560.6661626542187
 20
523.8458754540408
 30
0.0
 10
560.616357355366
 20
523.9742848871782
 30
0.0
  0
SPLINE
  5
99
330
1F
100
AcDbEntity
  8
0
  6
Continuous
 62
     7
370
    25
100
AcDbSpline
210
0.0
220
0.0
230
1.0
 70
     8
 71
     3
 72
    15
 73
    11
 74
     0
 42
0.000000001
 43
0.00000001
 40
0.0
 40
0.0
 40
0.0
 40
0.0
 40
0.1252452060064771
 40
0.2502605424350431
 40
0.3751257082107659
 40
0.4999206899734658
 40
0.6247256093044378
 40
0.7496205686597667
 40
0.8746854974873027
 40
0.9999999999999999
 40
0.9999999999999999
 40
0.9999999999999999
 40
0.9999999999999999
 10
560.616357355366
 20
523.9742848871782
 30
0.0
 10
560.5626045980842
 20
524.1072476687557
 30
0.0
 10
560.4551977389826
 20
524.3729291978319
 30
0.0
 10
560.2815489582068
 20
524.7658687800075
 30
0.0
 10
560.0989536666727
 20
525.1541256561255
 30
0.0
 10
559.9064860163039
 20
525.5373287523499
 30
0.0
 10
559.7044484060239
 20
525.9156123147027
 30
0.0
 10
559.4925569396071
 20
526.2888069224258
 30
0.0
 10
559.2716479327512
 20
526.6574542356835
 30
0.0
 10
559.1165060472355
 20
526.8985598774334
 30
0.0
 10
559.038857783166
 20
527.0192328631782
 30
0.0
  0
SPLINE
  5
9A
330
1F
100
AcDbEntity
  8
0
  6
Continuous
 62
     7
370
    25
100
AcDbSpline
210
0.0
220
0.0
230
1.0
 70
     8
 71
     3
 72
    16
 73
    12
 74
     0
 42
0.000000001
 43
0.00000001
 40
0.0
 40
0.0
 40
0.0
 40
0.0
 40
0.1113538572001668
 40
0.2225104293130824
 40
0.3335280683062788
 40
0.4444653453800083
 40
0.5553809590448008
 40
0.666333642193645
 40
0.7773820689020046
 40
0.8885847616934188
 40
0.9999999999999999
 40
0.9999999999999999
 40
0.9999999999999999
 40
0.9999999999999999
 10
559.038857783166
 20
527.0192328631782
 30
0.0
 10
558.9668889047871
 20
527.1277591203853
 30
0.0
 10
558.8230786549412
 20
527.3446193593575
 30
0.0
 10
558.598169095466
 20
527.6633244683544
 30
0.0
 10
558.3668203566949
 20
527.97674999385
 30
0.0
 10
558.1283600760489
 20
528.2844570642826
 30
0.0
 10
557.8829582005086
 20
528.5865525903953
 30
0.0
 10
557.6306073691628
 20
528.8830455071334
 30
0.0
 10
557.3711683223431
 20
529.1737915959176
 30
0.0
 10
557.1052078336087
 20
529.4593584029099
 30
0.0
 10
556.9223384595115
 20
529.6446526875593
 30
0.0
 10
556.8308164747659
 20
529.7373882851782
 30
0.0
  0
SPLINE
  5
9B
330
1F
100
AcDbEntity
  8
0
  6
Continuous
 62
     7
370
    25
100
AcDbSpline
210
0.0
220
0.0
230
1.0
 70
     8
 71
     3
 72
    16
 73
    12
 74
     0
 42
0.000000001
 43
0.00000001
 40
0.0
 40
0.0
 40
0.0
 40
0.0
 40
0.1113629331724917
 40
0.2225263364464258
 40
0.3335485460941225
 40
0.4444881211230952
 40
0.5554037514243148
 40
0.6663541648871094
 40
0.7773980342134215
 40
0.8885938841688206
 40
1.0
 40
1.0
 40
1.0
 40
1.0
 10
556.8308164747659
 20
529.7373882851782
 30
0.0
 10
556.7381284510385
 20
529.8288711471073
 30
0.0
 10
556.5529184734908
 20
530.0116729603566
 30
0.0
 10
556.2674577291996
 20
530.2775444696281
 30
0.0
 10
555.9767826233932
 20
530.5369241743813
 30
0.0
 10
555.6803251065325
 20
530.789244848715
 30
0.0
 10
555.3782295740234
 20
531.0346459222654
 30
0.0
 10
555.0704870059823
 20
531.2731346498522
 30
0.0
 10
554.7569906292449
 20
531.5045413081884
 30
0.0
 10
554.4381789438045
 20
531.7295376126073
 30
0.0
 10
554.2212371537034
 20
531.8734178700732
 30
0.0
 10
554.112663798966
 20
531.9454259521782
 30
0.0
  0
SPLINE
  5
9C
330
1F
100
AcDbEntity
  8
0
  6
Continuous
 62
     7
370
    25
100
AcDbSpline
210
0.0
220
0.0
230
1.0
 70
     8
 71
     3
 72
    15
 73
    11
 74
     0
 42
0.000000001
 43
0.00000001
 40
0.0
 40
0.0
 40
0.0
 40
0.0
 40
0.1252642559164216
 40
0.2502931873295162
 40
0.3751664861491498
 40
0.4999641424319915
 40
0.624766291680604
 40
0.7496530607486053
 40
0.8747044138288674
 40
1.0
 40
1.0
 40
1.0
 40
1.0
 10
554.112663798966
 20
531.9454259521782
 30
0.0
 10
553.9920431565608
 20
532.0230491764414
 30
0.0
 10
553.7510284726478
 20
532.1781498000748
 30
0.0
 10
553.3824922459582
 20
532.3990037361142
 30
0.0
 10
553.0093645642311
 20
532.6108622867185
 30
0.0
 10
552.6311032416188
 20
532.8128884400754
 30
0.0
 10
552.247877846937
 20
533.005366261395
 30
0.0
 10
551.8595541605212
 20
533.1879934985515
 30
0.0
 10
551.4665030559826
 20
533.3616953923678
 30
0.0
 10
551.2007329487722
 20
533.4691468178081
 30
0.0
 10
551.0677182553659
 20
533.5229249441782
 30
0.0
  0
SPLINE
  5
9D
330
1F
100
AcDbEntity
  8
0
  6
Continuous
 62
     7
370
    25
100
AcDbSpline
210
0.0
220
0.0
230
1.0
 70
     8
 71
     3
 72
    15
 73
    11
 74
     0
 42
0.000000001
 43
0.00000001
 40
0.0
 40
0.0
 40
0.0
 40
0.0
 40
0.1252388809447691
 40
0.2502622723466387
 40
0.3751436097304741
 40
0.4999565793600211
 40
0.6247749885813633
 40
0.7496726350970924
 40
0.8747231763258676
 40
1.0
 40
1.0
 40
1.0
 40
1.0
 10
551.0677182553659
 20
533.5229249441782
 30
0.0
 10
550.9393709578426
 20
533.5727102564206
 30
0.0
 10
550.682897200768
 20
533.6721952188961
 30
0.0
 10
550.2940133351619
 20
533.8094820494464
 30
0.0
 10
549.9026066318185
 20
533.9378142701682
 30
0.0
 10
549.5083420236492
 20
534.0563354628289
 30
0.0
 10
549.1113205932752
 20
534.1653335819952
 30
0.0
 10
548.7114750416748
 20
534.2645110894745
 30
0.0
 10
548.3089762972573
 20
534.3547710578855
 30
0.0
 10
548.0387616116336
 20
534.4067271195875
 30
0.0
 10
547.903532139066
 20
534.4327286331783
 30
0.0
  0
SPLINE
  5
9E
330
1F
100
AcDbEntity
  8
0
  6
Continuous
 62
     7
370
    25
100
AcDbSpline
210
0.0
220
0.0
230
1.0
 70
     8
 71
     3
 72
    15
 73
    11
 74
     0
 42
0.000000001
 43
0.00000001
 40
0.0
 40
0.0
 40
0.0
 40
0.0
 40
0.1251994625700626
 40
0.2502109079967827
 40
0.3750997123377808
 40
0.4999314443371685
 40
0.6247717626658362
 40
0.7496863124550115
 40
0.8747406219363804
 40
1.0
 40
1.0
 40
1.0
 40
1.0
 10
547.903532139066
 20
534.4327286331783
 30
0.0
 10
547.7757183534327
 20
534.4555183791671
 30
0.0
 10
547.5202827253448
 20
534.501063646853
 30
0.0
 10
547.1355012364841
 20
534.5582390721908
 30
0.0
 10
546.7499937968951
 20
534.6071698581839
 30
0.0
 10
546.363614328961
 20
534.6470497695883
 30
0.0
 10
545.976402329083
 20
534.6781479490899
 30
0.0
 10
545.5883476306017
 20
534.7001927392989
 30
0.0
 10
545.1994533501964
 20
534.7140027564124
 30
0.0
 10
544.9398881007398
 20
534.7157118948544
 30
0.0
 10
544.809999152066
 20
534.7165671641783
 30
0.0
  0
LINE
  5
9F
330
1F
100
AcDbEntity
  8
0
  6
Continuous
 62
     7
370
    25
100
AcDbLine
 10
544.8099991523
 20
534.7165671642
 30
0.0
 11
234.8099991523
 21
534.7165671642
 31
0.0
  0
SPLINE
  5
A0
330
1F
100
AcDbEntity
  8
0
  6
Continuous
 62
     7
370
    25
100
AcDbSpline
210
0.0
220
0.0
230
1.0
 70
     8
 71
     3
 72
    29
 73
    25
 74
     0
 42
0.000000001
 43
0.00000001
 40
0.0
 40
0.0
 40
0.0
 40
0.0
 40
0.0156691467353316
 40
0.0313109654005504
 40
0.0469348752828709
 40
0.0625503280774336
 40
0.0781667908350772
 40
0.0937937287710729
 40
0.1094405880905389
 40
0.1251167789857844
 40
0.1876233972112435
 40
0.2501638660786457
 40
0.3126684930082906
 40
0.3751989335629556
 40
0.5000911866031608
 40
0.6249674941186978
 40
0.6874864658316393
 40
0.7500051673394469
 40
0.8124806105952461
 40
0.8749758146294233
 40
0.9062730370550649
 40
0.9374924713250973
 40
0.9687096194526826
 40
0.9999999999999999
 40
0.9999999999999999
 40
0.9999999999999999
 40
0.9999999999999999
 10
234.809999152266
 20
534.7165671641783
 30
0.0
 10
234.6706075973178
 20
534.7155863375457
 30
0.0
 10
234.392067595885
 20
534.71362639491
 30
0.0
 10
233.9747881473002
 20
534.6977305423177
 30
0.0
 10
233.5584878597943
 20
534.6723431551654
 30
0.0
 10
233.1431673203231
 20
534.6365390348384
 30
0.0
 10
232.7288263360921
 20
534.5905652938911
 30
0.0
 10
232.3154678403692
 20
534.5343575575134
 30
0.0
 10
231.9030829963271
 20
534.4679267615617
 30
0.0
 10
231.0824840200605
 20
534.3150629415929
 30
0.0
 10
229.8658463267397
 20
534.0106663446531
 30
0.0
 10
228.2928144283943
 20
533.4470416287934
 30
0.0
 10
226.7816996114458
 20
532.7327419838637
 30
0.0
 10
224.8725366053735
 20
531.5875974522266
 30
0.0
 10
222.7097897397605
 20
529.813678459891
 30
0.0
 10
220.9364418134945
 20
527.6505887988442
 30
0.0
 10
219.7918831382948
 20
525.741212831082
 30
0.0
 10
219.0781029827081
 20
524.2304825179665
 30
0.0
 10
218.5149390431449
 20
522.657827305657
 30
0.0
 10
218.177351320587
 20
521.3068258488039
 30
0.0
 10
217.9868506579694
 20
520.2107996458177
 30
0.0
 10
217.8852861625152
 20
519.3828985537377
 30
0.0
 10
217.821731015149
 20
518.5510510928664
 30
0.0
 10
217.8139128264318
 20
517.9949456473
 30
0.0
 10
217.809999152266
 20
517.7165671641782
 30
0.0
  0
LINE
  5
A1
330
1F
100
AcDbEntity
  8
0
  6
Continuous
 62
     7
370
    25
100
AcDbLine
 10
217.8099991523
 20
517.7165671642
 30
0.0
 11
217.8099991523
 21
147.7165671642
 31
0.0
  0
SPLINE
  5
A2
330
1F
100
AcDbEntity
  8
0
  6
Continuous
 62
     7
370
    25
100
AcDbSpline
210
0.0
220
0.0
230
1.0
 70
     8
 71
     3
 72
    22
 73
    18
 74
     0
 42
0.000000001
 43
0.00000001
 40
0.0
 40
0.0
 40
0.0
 40
0.0
 40
0.125
 40
0.125
 40
0.25
 40
0.25
 40
0.375
 40
0.375
 40
0.5
 40
0.5
 40
0.625
 40
0.625
 40
0.75
 40
0.75
 40
0.875
 40
0.875
 40
1.0
 40
1.0
 40
1.0
 40
1.0
 10
217.8099991523522
 20
147.7165671641782
 30
0.0
 10
217.8099991523523
 20
146.7148325574683
 30
0.0
 10
217.8990510559465
 20
145.6756366187659
 30
0.0
 10
218.2885647225672
 20
143.5707539274417
 30
0.0
 10
218.5893678732012
 20
142.5052811797955
 30
0.0
 10
219.4178281952809
 20
140.412633023262
 30
0.0
 10
219.9456808379834
 20
139.3858817817084
 30
0.0
 10
221.2164700850904
 20
137.4421209313687
 30
0.0
 10
221.9593197520777
 20
136.5256160039046
 30
0.0
 10
223.6190479919922
 20
134.86588776399
 30
0.0
 10
224.5355529194564
 20
134.1230380970027
 30
0.0
 10
226.479313769796
 20
132.8522488498957
 30
0.0
 10
227.5060650113497
 20
132.3243962071934
 30
0.0
 10
229.5987131678832
 20
131.4959358851136
 30
0.0
 10
230.6641859155297
 20
131.1951327344796
 30
0.0
 10
232.7690686068537
 20
130.8056190678589
 30
0.0
 10
233.8082645455561
 20
130.7165671642647
 30
0.0
 10
234.809999152266
 20
130.7165671642646
 30
0.0
  0
LINE
  5
A3
330
1F
100
AcDbEntity
  8
0
  6
Continuous
 62
     7
370
    25
100
AcDbLine
 10
234.8099991523
 20
130.7165671642
 30
0.0
 11
544.8099991523
 21
130.7165671642
 31
0.0
  0
SPLINE
  5
A4
330
1F
100
AcDbEntity
  8
0
  6
Continuous
 62
     7
370
    25
100
AcDbSpline
210
0.0
220
0.0
230
1.0
 70
     8
 71
     3
 72
     8
 73
     4
 74
     0
 42
0.000000001
 43
0.00000001
 40
0.0
 40
0.0
 40
0.0
 40
0.0
 40
1.0
 40
1.0
 40
1.0
 40
1.0
 10
544.809999152266
 20
130.7165671641918
 30
0.0
 10
545.8117825184336
 20
130.7165671641918
 30
0.0
 10
546.8510309376421
 20
130.8056277955685
 30
0.0
 10
547.9035247262576
 20
131.0004043412238
 30
0.0
  0
SPLINE
  5
A5
330
1F
100
AcDbEntity
  8
0
  6
Continuous
 62
     7
370
    25
100
AcDbSpline
210
0.0
220
0.0
230
1.0
 70
     8
 71
     3
 72
     8
 73
     4
 74
     0
 42
0.000000001
 43
0.00000001
 40
0.0
 40
0.0
 40
0.0
 40
0.0
 40
1.0
 40
1.0
 40
1.0
 40
1.0
 10
547.9035247261966
 20
131.0004043415533
 30
0.0
 10
548.955952189708
 20
131.1951686129561
 30
0.0
 10
550.0214092534262
 20
131.4959767712712
 30
0.0
 10
551.0677169753448
 20
131.9102087082318
 30
0.0
  0
SPLINE
  5
A6
330
1F
100
AcDbEntity
  8
0
  6
Continuous
 62
     7
370
    25
100
AcDbSpline
210
0.0
220
0.0
230
1.0
 70
     8
 71
     3
 72
     8
 73
     4
 74
     0
 42
0.000000001
 43
0.00000001
 40
0.0
 40
0.0
 40
0.0
 40
0.0
 40
1.0
 40
1.0
 40
1.0
 40
1.0
 10
551.0677169753542
 20
131.9102087082078
 30
0.0
 10
552.1140395939153
 20
132.3244465427308
 30
0.0
 10
553.1407881681341
 20
132.8523068757574
 30
0.0
 10
554.1126647384016
 20
133.4877087072766
 30
0.0
  0
SPLINE
  5
A7
330
1F
100
AcDbEntity
  8
0
  6
Continuous
 62
     7
370
    25
100
AcDbSpline
210
0.0
220
0.0
230
1.0
 70
     8
 71
     3
 72
     8
 73
     4
 74
     0
 42
0.000000001
 43
0.00000001
 40
0.0
 40
0.0
 40
0.0
 40
0.0
 40
1.0
 40
1.0
 40
1.0
 40
1.0
 10
554.1126647383817
 20
133.487708707307
 30
0.0
 10
555.0845088955008
 20
134.1230893474788
 30
0.0
 10
556.0009801091009
 20
134.8659172987283
 30
0.0
 10
556.8308163314537
 20
135.6957537832903
 30
0.0
  0
SPLINE
  5
A8
330
1F
100
AcDbEntity
  8
0
  6
Continuous
 62
     7
370
    25
100
AcDbSpline
210
0.0
220
0.0
230
1.0
 70
     8
 71
     3
 72
     8
 73
     4
 74
     0
 42
0.000000001
 43
0.00000001
 40
0.0
 40
0.0
 40
0.0
 40
0.0
 40
1.0
 40
1.0
 40
1.0
 40
1.0
 10
556.8308163315417
 20
135.6957537832024
 30
0.0
 10
557.6606515181403
 20
136.5255892320097
 30
0.0
 10
558.4034783502229
 20
137.4420594127326
 30
0.0
 10
559.0388581383331
 20
138.413902387265
 30
0.0
  0
SPLINE
  5
A9
330
1F
100
AcDbEntity
  8
0
  6
Continuous
 62
     7
370
    25
100
AcDbSpline
210
0.0
220
0.0
230
1.0
 70
     8
 71
     3
 72
     8
 73
     4
 74
     0
 42
0.000000001
 43
0.00000001
 40
0.0
 40
0.0
 40
0.0
 40
0.0
 40
1.0
 40
1.0
 40
1.0
 40
1.0
 10
559.0388581384003
 20
138.4139023872212
 30
0.0
 10
559.67425946374
 20
139.3857783039491
 30
0.0
 10
560.2021194399332
 20
140.4125261377252
 30
0.0
 10
560.6163570787567
 20
141.4588480032214
 30
0.0
  0
LINE
  5
AA
330
1F
100
AcDbEntity
  8
0
  6
Continuous
 62
     7
370
    25
100
AcDbLine
 10
577.8099991523
 20
517.7165671642
 30
0.0
 11
577.8099991523
 21
147.7165671642
 31
0.0
  0
SPLINE
  5
AB
330
1F
100
AcDbEntity
  8
0
  6
Continuous
 62
     7
370
    25
100
AcDbSpline
210
0.0
220
0.0
230
1.0
 70
     8
 71
     3
 72
     8
 73
     4
 74
     0
 42
0.000000001
 43
0.00000001
 40
0.0
 40
0.0
 40
0.0
 40
0.0
 40
1.0
 40
1.0
 40
1.0
 40
1.0
 10
577.809999152266
 20
147.7165671641782
 30
0.0
 10
577.8099991524671
 20
146.7147837979931
 30
0.0
 10
577.8990597840476
 20
145.6755353787841
 30
0.0
 10
578.0938363298958
 20
144.6230415901837
 30
0.0
  0
SPLINE
  5
AC
330
1F
100
AcDbEntity
  8
0
  6
Continuous
 62
     7
370
    25
100
AcDbSpline
210
0.0
220
0.0
230
1.0
 70
     8
 71
     3
 72
     8
 73
     4
 74
     0
 42
0.000000001
 43
0.00000001
 40
0.0
 40
0.0
 40
0.0
 40
0.0
 40
1.0
 40
1.0
 40
1.0
 40
1.0
 10
578.0938363298958
 20
144.6230415901837
 30
0.0
 10
578.2886006014875
 20
143.5706141267081
 30
0.0
 10
578.5894087599739
 20
142.5051570630421
 30
0.0
 10
579.0036406970752
 20
141.4588493411819
 30
0.0
  0
SPLINE
  5
AD
330
1F
100
AcDbEntity
  8
0
  6
Continuous
 62
     7
370
    25
100
AcDbSpline
210
0.0
220
0.0
230
1.0
 70
     8
 71
     3
 72
     8
 73
     4
 74
     0
 42
0.000000001
 43
0.00000001
 40
0.0
 40
0.0
 40
0.0
 40
0.0
 40
1.0
 40
1.0
 40
1.0
 40
1.0
 10
579.0036406970752
 20
141.4588493411819
 30
0.0
 10
579.4178785317522
 20
140.4125267226459
 30
0.0
 10
579.9457388649095
 20
139.3857781484592
 30
0.0
 10
580.58114069653
 20
138.4139015782201
 30
0.0
  0
SPLINE
  5
AE
330
1F
100
AcDbEntity
  8
0
  6
Continuous
 62
     7
370
    25
100
AcDbSpline
210
0.0
220
0.0
230
1.0
 70
     8
 71
     3
 72
     8
 73
     4
 74
     0
 42
0.000000001
 43
0.00000001
 40
0.0
 40
0.0
 40
0.0
 40
0.0
 40
1.0
 40
1.0
 40
1.0
 40
1.0
 10
580.5811406965302
 20
138.4139015782201
 30
0.0
 10
581.2165213365247
 20
137.4420574215559
 30
0.0
 10
581.9593492874723
 20
136.5255862083571
 30
0.0
 10
582.7891857716407
 20
135.695749986303
 30
0.0
  0
SPLINE
  5
AF
330
1F
100
AcDbEntity
  8
0
  6
Continuous
 62
     7
370
    25
100
AcDbSpline
210
0.0
220
0.0
230
1.0
 70
     8
 71
     3
 72
     8
 73
     4
 74
     0
 42
0.000000001
 43
0.00000001
 40
0.0
 40
0.0
 40
0.0
 40
0.0
 40
1.0
 40
1.0
 40
1.0
 40
1.0
 10
582.7891857716817
 20
135.6957499863439
 30
0.0
 10
583.6190212204265
 20
134.8659147997131
 30
0.0
 10
584.5354914010668
 20
134.1230879675658
 30
0.0
 10
585.5073343755139
 20
133.4877081793587
 30
0.0
  0
SPLINE
  5
B0
330
1F
100
AcDbEntity
  8
0
  6
Continuous
 62
     7
370
    25
100
AcDbSpline
210
0.0
220
0.0
230
1.0
 70
     8
 71
     3
 72
     8
 73
     4
 74
     0
 42
0.000000001
 43
0.00000001
 40
0.0
 40
0.0
 40
0.0
 40
0.0
 40
1.0
 40
1.0
 40
1.0
 40
1.0
 10
585.5073343756775
 20
133.4877081796089
 30
0.0
 10
586.4792102919574
 20
132.8523068544094
 30
0.0
 10
587.5059581252433
 20
132.3244468782453
 30
0.0
 10
588.5522799902623
 20
131.9102092393456
 30
0.0
  0
SPLINE
  5
B1
330
1F
100
AcDbEntity
  8
0
  6
Continuous
 62
     7
370
    25
100
AcDbSpline
210
0.0
220
0.0
230
1.0
 70
     8
 71
     3
 72
     8
 73
     4
 74
     0
 42
0.000000001
 43
0.00000001
 40
0.0
 40
0.0
 40
0.0
 40
0.0
 40
1.0
 40
1.0
 40
1.0
 40
1.0
 10
588.5522799902913
 20
131.9102092394187
 30
0.0
 10
589.5985856861039
 20
131.4959780018895
 30
0.0
 10
590.6640406672706
 20
131.1951701043552
 30
0.0
 10
591.7164661682879
 20
131.000405713459
 30
0.0
  0
SPLINE
  5
B2
330
1F
100
AcDbEntity
  8
0
  6
Continuous
 62
     7
370
    25
100
AcDbSpline
210
0.0
220
0.0
230
1.0
 70
     8
 71
     3
 72
     8
 73
     4
 74
     0
 42
0.000000001
 43
0.00000001
 40
0.0
 40
0.0
 40
0.0
 40
0.0
 40
1.0
 40
1.0
 40
1.0
 40
1.0
 10
591.7164661682406
 20
131.0004057132035
 30
0.0
 10
592.76896248579
 20
130.8056282168298
 30
0.0
 10
593.8082134357622
 20
130.7165671644545
 30
0.0
 10
594.809999153266
 20
130.7165671643539
 30
0.0
  0
LINE
  5
B3
330
1F
100
AcDbEntity
  8
0
  6
Continuous
 62
     7
370
    25
100
AcDbLine
 10
594.8099991521
 20
130.7165671642
 30
0.0
 11
744.8099991523
 21
130.7165671642
 31
0.0
  0
SPLINE
  5
B4
330
1F
100
AcDbEntity
  8
0
  6
Continuous
 62
     7
370
    25
100
AcDbSpline
210
0.0
220
0.0
230
1.0
 70
     8
 71
     3
 72
     8
 73
     4
 74
     0
 42
0.000000001
 43
0.00000001
 40
0.0
 40
0.0
 40
0.0
 40
0.0
 40
1.0
 40
1.0
 40
1.0
 40
1.0
 10
744.809999152266
 20
130.7165671641782
 30
0.0
 10
745.8117825184307
 20
130.7165671641782
 30
0.0
 10
746.8510309376379
 20
130.8056277955675
 30
0.0
 10
747.9035247262534
 20
131.0004043412457
 30
0.0
  0
SPLINE
  5
B5
330
1F
100
AcDbEntity
  8
0
  6
Continuous
 62
     7
370
    25
100
AcDbSpline
210
0.0
220
0.0
230
1.0
 70
     8
 71
     3
 72
     8
 73
     4
 74
     0
 42
0.000000001
 43
0.00000001
 40
0.0
 40
0.0
 40
0.0
 40
0.0
 40
1.0
 40
1.0
 40
1.0
 40
1.0
 10
747.9035247262198
 20
131.0004043414274
 30
0.0
 10
748.9559521896983
 20
131.1951686128468
 30
0.0
 10
750.0214092533841
 20
131.4959767711813
 30
0.0
 10
751.0677169752737
 20
131.9102087081585
 30
0.0
  0
SPLINE
  5
B6
330
1F
100
AcDbEntity
  8
0
  6
Continuous
 62
     7
370
    25
100
AcDbSpline
210
0.0
220
0.0
230
1.0
 70
     8
 71
     3
 72
     8
 73
     4
 74
     0
 42
0.000000001
 43
0.00000001
 40
0.0
 40
0.0
 40
0.0
 40
0.0
 40
1.0
 40
1.0
 40
1.0
 40
1.0
 10
751.0677169753221
 20
131.9102087080364
 30
0.0
 10
752.1140395938526
 20
132.3244465425754
 30
0.0
 10
753.1407881680447
 20
132.8523068756142
 30
0.0
 10
754.1126647382931
 20
133.487708707137
 30
0.0
  0
SPLINE
  5
B7
330
1F
100
AcDbEntity
  8
0
  6
Continuous
 62
     7
370
    25
100
AcDbSpline
210
0.0
220
0.0
230
1.0
 70
     8
 71
     3
 72
     8
 73
     4
 74
     0
 42
0.000000001
 43
0.00000001
 40
0.0
 40
0.0
 40
0.0
 40
0.0
 40
1.0
 40
1.0
 40
1.0
 40
1.0
 10
754.1126647382788
 20
133.4877087071588
 30
0.0
 10
755.0845088953788
 20
134.1230893473344
 30
0.0
 10
756.0009801089677
 20
134.8659172985791
 30
0.0
 10
756.8308163313196
 20
135.6957537831244
 30
0.0
  0
SPLINE
  5
B8
330
1F
100
AcDbEntity
  8
0
  6
Continuous
 62
     7
370
    25
100
AcDbSpline
210
0.0
220
0.0
230
1.0
 70
     8
 71
     3
 72
     8
 73
     4
 74
     0
 42
0.000000001
 43
0.00000001
 40
0.0
 40
0.0
 40
0.0
 40
0.0
 40
1.0
 40
1.0
 40
1.0
 40
1.0
 10
756.8308163313759
 20
135.6957537830683
 30
0.0
 10
757.6606515180094
 20
136.525589231895
 30
0.0
 10
758.4034783501296
 20
137.4420594126331
 30
0.0
 10
759.038858138277
 20
138.4139023871711
 30
0.0
  0
SPLINE
  5
B9
330
1F
100
AcDbEntity
  8
0
  6
Continuous
 62
     7
370
    25
100
AcDbSpline
210
0.0
220
0.0
230
1.0
 70
     8
 71
     3
 72
     8
 73
     4
 74
     0
 42
0.000000001
 43
0.00000001
 40
0.0
 40
0.0
 40
0.0
 40
0.0
 40
1.0
 40
1.0
 40
1.0
 40
1.0
 10
759.038858137958
 20
138.4139023873796
 30
0.0
 10
759.6742594632917
 20
139.3857783040471
 30
0.0
 10
760.2021194394908
 20
140.4125261377471
 30
0.0
 10
760.6163570783309
 20
141.4588480031524
 30
0.0
  0
SPLINE
  5
BA
330
1F
100
AcDbEntity
  8
0
  6
Continuous
 62
     7
370
    25
100
AcDbSpline
210
0.0
220
0.0
230
1.0
 70
     8
 71
     3
 72
     8
 73
     4
 74
     0
 42
0.000000001
 43
0.00000001
 40
0.0
 40
0.0
 40
0.0
 40
0.0
 40
1.0
 40
1.0
 40
1.0
 40
1.0
 10
760.6163570786853
 20
141.4588480030122
 30
0.0
 10
761.0305883160462
 20
142.505153698937
 30
0.0
 10
761.3313962133814
 20
143.5706086801769
 30
0.0
 10
761.5261606040668
 20
144.6230341812151
 30
0.0
  0
SPLINE
  5
BB
330
1F
100
AcDbEntity
  8
0
  6
Continuous
 62
     7
370
    25
100
AcDbSpline
210
0.0
220
0.0
230
1.0
 70
     8
 71
     3
 72
     8
 73
     4
 74
     0
 42
0.000000001
 43
0.00000001
 40
0.0
 40
0.0
 40
0.0
 40
0.0
 40
1.0
 40
1.0
 40
1.0
 40
1.0
 10
761.5261606040668
 20
144.623034181215
 30
0.0
 10
761.7209381001026
 20
145.6755304980974
 30
0.0
 10
761.809999152266
 20
146.7147814473683
 30
0.0
 10
761.809999152266
 20
147.7165671641782
 30
0.0
  0
LINE
  5
BC
330
1F
100
AcDbEntity
  8
0
  6
Continuous
 62
     7
370
    25
100
AcDbLine
 10
761.8099991523
 20
147.7165671642
 30
0.0
 11
761.8099991523
 21
517.7165671642
 31
0.0
  0
SPLINE
  5
BD
330
1F
100
AcDbEntity
  8
0
  6
Continuous
 62
     7
370
    25
100
AcDbSpline
210
0.0
220
0.0
230
1.0
 70
     8
 71
     3
 72
     8
 73
     4
 74
     0
 42
0.000000001
 43
0.00000001
 40
0.0
 40
0.0
 40
0.0
 40
0.0
 40
1.0
 40
1.0
 40
1.0
 40
1.0
 10
761.809999152266
 20
517.7165671641782
 30
0.0
 10
761.809999152266
 20
518.718350530343
 30
0.0
 10
761.7209385208766
 20
519.7575989495502
 30
0.0
 10
761.5261619751985
 20
520.8100927381656
 30
0.0
  0
SPLINE
  5
BE
330
1F
100
AcDbEntity
  8
0
  6
Continuous
 62
     7
370
    25
100
AcDbSpline
210
0.0
220
0.0
230
1.0
 70
     8
 71
     3
 72
     8
 73
     4
 74
     0
 42
0.000000001
 43
0.00000001
 40
0.0
 40
0.0
 40
0.0
 40
0.0
 40
1.0
 40
1.0
 40
1.0
 40
1.0
 10
761.5261619750167
 20
520.8100927381322
 30
0.0
 10
761.3313977035974
 20
521.8625202016108
 30
0.0
 10
761.0305895452628
 20
522.9279772652964
 30
0.0
 10
760.6163576082856
 20
523.974284987186
 30
0.0
  0
SPLINE
  5
BF
330
1F
100
AcDbEntity
  8
0
  6
Continuous
 62
     7
370
    25
100
AcDbSpline
210
0.0
220
0.0
230
1.0
 70
     8
 71
     3
 72
     8
 73
     4
 74
     0
 42
0.000000001
 43
0.00000001
 40
0.0
 40
0.0
 40
0.0
 40
0.0
 40
1.0
 40
1.0
 40
1.0
 40
1.0
 10
760.616357608408
 20
523.9742849872345
 30
0.0
 10
760.2021197738688
 20
525.0206076057649
 30
0.0
 10
759.6742594408303
 20
526.0473561799569
 30
0.0
 10
759.0388576093075
 20
527.0192327502053
 30
0.0
  0
SPLINE
  5
C0
330
1F
100
AcDbEntity
  8
0
  6
Continuous
 62
     7
370
    25
100
AcDbSpline
210
0.0
220
0.0
230
1.0
 70
     8
 71
     3
 72
     8
 73
     4
 74
     0
 42
0.000000001
 43
0.00000001
 40
0.0
 40
0.0
 40
0.0
 40
0.0
 40
1.0
 40
1.0
 40
1.0
 40
1.0
 10
759.0388576092854
 20
527.0192327501909
 30
0.0
 10
758.4034769691096
 20
527.9910769072911
 30
0.0
 10
757.660649017865
 20
528.90754812088
 30
0.0
 10
756.8308125333198
 20
529.7373843432318
 30
0.0
  0
SPLINE
  5
C1
330
1F
100
AcDbEntity
  8
0
  6
Continuous
 62
     7
370
    25
100
AcDbSpline
210
0.0
220
0.0
230
1.0
 70
     8
 71
     3
 72
     8
 73
     4
 74
     0
 42
0.000000001
 43
0.00000001
 40
0.0
 40
0.0
 40
0.0
 40
0.0
 40
1.0
 40
1.0
 40
1.0
 40
1.0
 10
756.830812533376
 20
529.7373843432881
 30
0.0
 10
756.0009770845493
 20
530.5672195299215
 30
0.0
 10
755.0845069038111
 20
531.3100463620417
 30
0.0
 10
754.1126639292731
 20
531.9454261501892
 30
0.0
  0
SPLINE
  5
C2
330
1F
100
AcDbEntity
  8
0
  6
Continuous
 62
     7
370
    25
100
AcDbSpline
210
0.0
220
0.0
230
1.0
 70
     8
 71
     3
 72
     8
 73
     4
 74
     0
 42
0.000000001
 43
0.00000001
 40
0.0
 40
0.0
 40
0.0
 40
0.0
 40
1.0
 40
1.0
 40
1.0
 40
1.0
 10
754.1126639290646
 20
531.9454261498701
 30
0.0
 10
753.140788012397
 20
532.5808274752039
 30
0.0
 10
752.114040178697
 20
533.1086874514031
 30
0.0
 10
751.0677183132917
 20
533.5229250902431
 30
0.0
  0
SPLINE
  5
C3
330
1F
100
AcDbEntity
  8
0
  6
Continuous
 62
     7
370
    25
100
AcDbSpline
210
0.0
220
0.0
230
1.0
 70
     8
 71
     3
 72
     8
 73
     4
 74
     0
 42
0.000000001
 43
0.00000001
 40
0.0
 40
0.0
 40
0.0
 40
0.0
 40
1.0
 40
1.0
 40
1.0
 40
1.0
 10
751.067718313432
 20
533.5229250905975
 30
0.0
 10
750.021412617507
 20
533.9371563279585
 30
0.0
 10
748.9559576362672
 20
534.2379642252937
 30
0.0
 10
747.903532135229
 20
534.4327286159792
 30
0.0
  0
SPLINE
  5
C4
330
1F
100
AcDbEntity
  8
0
  6
Continuous
 62
     7
370
    25
100
AcDbSpline
210
0.0
220
0.0
230
1.0
 70
     8
 71
     3
 72
     8
 73
     4
 74
     0
 42
0.000000001
 43
0.00000001
 40
0.0
 40
0.0
 40
0.0
 40
0.0
 40
1.0
 40
1.0
 40
1.0
 40
1.0
 10
747.9035321352292
 20
534.4327286159792
 30
0.0
 10
746.8510358183468
 20
534.6275061120148
 30
0.0
 10
745.8117848690758
 20
534.7165671641783
 30
0.0
 10
744.809999152266
 20
534.7165671641783
 30
0.0
  0
LINE
  5
C5
330
1F
100
AcDbEntity
  8
0
  6
Continuous
 62
     7
370
    25
100
AcDbLine
 10
744.8099991523
 20
534.7165671642
 30
0.0
 11
594.8099991523
 21
534.7165671642
 31
0.0
  0
SPLINE
  5
C6
330
1F
100
AcDbEntity
  8
0
  6
Continuous
 62
     7
370
    25
100
AcDbSpline
210
0.0
220
0.0
230
1.0
 70
     8
 71
     3
 72
     8
 73
     4
 74
     0
 42
0.000000001
 43
0.00000001
 40
0.0
 40
0.0
 40
0.0
 40
0.0
 40
1.0
 40
1.0
 40
1.0
 40
1.0
 10
594.809999152266
 20
534.7165671641783
 30
0.0
 10
593.8082157860465
 20
534.716567163977
 30
0.0
 10
592.7689673667932
 20
534.6275065323865
 30
0.0
 10
591.7164735781438
 20
534.4327299865137
 30
0.0
  0
SPLINE
  5
C7
330
1F
100
AcDbEntity
  8
0
  6
Continuous
 62
     7
370
    25
100
AcDbSpline
210
0.0
220
0.0
230
1.0
 70
     8
 71
     3
 72
     8
 73
     4
 74
     0
 42
0.000000001
 43
0.00000001
 40
0.0
 40
0.0
 40
0.0
 40
0.0
 40
1.0
 40
1.0
 40
1.0
 40
1.0
 10
591.7164735781438
 20
534.4327299865137
 30
0.0
 10
590.6640461146809
 20
534.2379657149089
 30
0.0
 10
589.5985890510245
 20
533.9371575564069
 30
0.0
 10
588.5522813291728
 20
533.5229256192871
 30
0.0
  0
SPLINE
  5
C8
330
1F
100
AcDbEntity
  8
0
  6
Continuous
 62
     7
370
    25
100
AcDbSpline
210
0.0
220
0.0
230
1.0
 70
     8
 71
     3
 72
     8
 73
     4
 74
     0
 42
0.000000001
 43
0.00000001
 40
0.0
 40
0.0
 40
0.0
 40
0.0
 40
1.0
 40
1.0
 40
1.0
 40
1.0
 10
588.5522813291728
 20
533.5229256192871
 30
0.0
 10
587.5059587107661
 20
533.1086877846394
 30
0.0
 10
586.4792101367027
 20
532.5808274515351
 30
0.0
 10
585.5073335665703
 20
531.9454256199881
 30
0.0
  0
SPLINE
  5
C9
330
1F
100
AcDbEntity
  8
0
  6
Continuous
 62
     7
370
    25
100
AcDbSpline
210
0.0
220
0.0
230
1.0
 70
     8
 71
     3
 72
     8
 73
     4
 74
     0
 42
0.000000001
 43
0.00000001
 40
0.0
 40
0.0
 40
0.0
 40
0.0
 40
1.0
 40
1.0
 40
1.0
 40
1.0
 10
585.5073335665703
 20
531.9454256199881
 30
0.0
 10
584.5354894096649
 20
531.3100449798399
 30
0.0
 10
583.6190181962484
 20
530.5672170286817
 30
0.0
 10
582.7891819740227
 20
529.7373805442616
 30
0.0
  0
SPLINE
  5
CA
330
1F
100
AcDbEntity
  8
0
  6
Continuous
 62
     7
370
    25
100
AcDbSpline
210
0.0
220
0.0
230
1.0
 70
     8
 71
     3
 72
     8
 73
     4
 74
     0
 42
0.000000001
 43
0.00000001
 40
0.0
 40
0.0
 40
0.0
 40
0.0
 40
1.0
 40
1.0
 40
1.0
 40
1.0
 10
582.7891819740225
 20
529.7373805442614
 30
0.0
 10
581.9593467873989
 20
528.9075450954437
 30
0.0
 10
581.216519955267
 20
527.9910749147276
 30
0.0
 10
580.5811401670827
 20
527.0192319402066
 30
0.0
  0
SPLINE
  5
CB
330
1F
100
AcDbEntity
  8
0
  6
Continuous
 62
     7
370
    25
100
AcDbSpline
210
0.0
220
0.0
230
1.0
 70
     8
 71
     3
 72
     8
 73
     4
 74
     0
 42
0.000000001
 43
0.00000001
 40
0.0
 40
0.0
 40
0.0
 40
0.0
 40
1.0
 40
1.0
 40
1.0
 40
1.0
 10
580.5811401670827
 20
527.0192319402066
 30
0.0
 10
579.9457388418562
 20
526.0473560237765
 30
0.0
 10
579.4178788656875
 20
525.0206081903343
 30
0.0
 10
579.0036412268031
 20
523.9742863251635
 30
0.0
  0
SPLINE
  5
CC
330
1F
100
AcDbEntity
  8
0
  6
Continuous
 62
     7
370
    25
100
AcDbSpline
210
0.0
220
0.0
230
1.0
 70
     8
 71
     3
 72
     8
 73
     4
 74
     0
 42
0.000000001
 43
0.00000001
 40
0.0
 40
0.0
 40
0.0
 40
0.0
 40
1.0
 40
1.0
 40
1.0
 40
1.0
 10
579.0036412268031
 20
523.9742863251635
 30
0.0
 10
578.589409989349
 20
522.9279806293498
 30
0.0
 10
578.2886020918759
 20
521.8625256481919
 30
0.0
 10
578.0938377010245
 20
520.8101001471858
 30
0.0
  0
SPLINE
  5
CD
330
1F
100
AcDbEntity
  8
0
  6
Continuous
 62
     7
370
    25
100
AcDbSpline
210
0.0
220
0.0
230
1.0
 70
     8
 71
     3
 72
     8
 73
     4
 74
     0
 42
0.000000001
 43
0.00000001
 40
0.0
 40
0.0
 40
0.0
 40
0.0
 40
1.0
 40
1.0
 40
1.0
 40
1.0
 10
578.0938377010245
 20
520.8101001471858
 30
0.0
 10
577.8990602048241
 20
519.7576038303417
 30
0.0
 10
577.8099991524671
 20
518.7183528810588
 30
0.0
 10
577.809999152266
 20
517.7165671641783
 30
0.0
  0
LINE
  5
CE
330
1F
100
AcDbEntity
  8
0
  6
Continuous
 62
     7
370
    25
100
AcDbLine
 10
209.809976552
 20
113.2165671642
 30
0.0
 11
769.8099991523
 21
113.2165671647
 31
0.0
  0
SPLINE
  5
CF
330
1F
100
AcDbEntity
  8
0
  6
Continuous
 62
     7
370
    25
100
AcDbSpline
210
0.0
220
0.0
230
1.0
 70
     8
 71
     3
 72
     8
 73
     4
 74
     0
 42
0.000000001
 43
0.00000001
 40
0.0
 40
0.0
 40
0.0
 40
0.0
 40
1.0
 40
1.0
 40
1.0
 40
1.0
 10
207.9742342547579
 20
113.395615610604
 30
0.0
 10
208.5789280701392
 20
113.2767164780682
 30
0.0
 10
209.1936902378615
 20
113.2165393072324
 30
0.0
 10
209.8099765520278
 20
113.2165671636674
 30
0.0
  0
SPLINE
  5
D0
330
1F
100
AcDbEntity
  8
0
  6
Continuous
 62
     7
370
    25
100
AcDbSpline
210
0.0
220
0.0
230
1.0
 70
     8
 71
     3
 72
    10
 73
     6
 74
     0
 42
0.000000001
 43
0.00000001
 40
0.0
 40
0.0
 40
0.0
 40
0.0
 40
0.5
 40
0.5
 40
1.0
 40
1.0
 40
1.0
 40
1.0
 10
204.5170773082857
 20
114.8276544479599
 30
0.0
 10
205.0453381865447
 20
114.473266387633
 30
0.0
 10
205.5981980165764
 20
114.1782638934189
 30
0.0
 10
206.7506542821972
 20
113.7010880940093
 30
0.0
 10
207.350018380375
 20
113.5183538913891
 30
0.0
 10
207.9742342549263
 20
113.3956156114604
 30
0.0
  0
SPLINE
  5
D1
330
1F
100
AcDbEntity
  8
0
  6
Continuous
 62
     7
370
    25
100
AcDbSpline
210
0.0
220
0.0
230
1.0
 70
     8
 71
     3
 72
     8
 73
     4
 74
     0
 42
0.000000001
 43
0.00000001
 40
0.0
 40
0.0
 40
0.0
 40
0.0
 40
1.0
 40
1.0
 40
1.0
 40
1.0
 10
203.0924687493758
 20
115.9990687235345
 30
0.0
 10
203.5280692786819
 20
115.5635054886854
 30
0.0
 10
204.0055190359684
 20
115.1708387076625
 30
0.0
 10
204.5170773082852
 20
114.8276544479593
 30
0.0
  0
SPLINE
  5
D2
330
1F
100
AcDbEntity
  8
0
  6
Continuous
 62
     7
370
    25
100
AcDbSpline
210
0.0
220
0.0
230
1.0
 70
     8
 71
     3
 72
     8
 73
     4
 74
     0
 42
0.000000001
 43
0.00000001
 40
0.0
 40
0.0
 40
0.0
 40
0.0
 40
1.0
 40
1.0
 40
1.0
 40
1.0
 10
201.9210092940095
 20
117.4237409217359
 30
0.0
 10
202.2645180066593
 20
116.9120834401579
 30
0.0
 10
202.656668819544
 20
116.4348292575741
 30
0.0
 10
203.0924687493748
 20
115.9990687235335
 30
0.0
  0
SPLINE
  5
D3
330
1F
100
AcDbEntity
  8
0
  6
Continuous
 62
     7
370
    25
100
AcDbSpline
210
0.0
220
0.0
230
1.0
 70
     8
 71
     3
 72
    10
 73
     6
 74
     0
 42
0.000000001
 43
0.00000001
 40
0.0
 40
0.0
 40
0.0
 40
0.0
 40
0.5
 40
0.5
 40
1.0
 40
1.0
 40
1.0
 40
1.0
 10
200.4890345452105
 20
120.8809244135769
 30
0.0
 10
200.6119811931383
 20
120.2567973635127
 30
0.0
 10
200.7943138617374
 20
119.6572681637646
 30
0.0
 10
201.271809254756
 20
118.5049442784342
 30
0.0
 10
201.5664110871258
 20
117.9519172698482
 30
0.0
 10
201.9210092942214
 20
117.4237409218781
 30
0.0
  0
SPLINE
  5
D4
330
1F
100
AcDbEntity
  8
0
  6
Continuous
 62
     7
370
    25
100
AcDbSpline
210
0.0
220
0.0
230
1.0
 70
     8
 71
     3
 72
     8
 73
     4
 74
     0
 42
0.000000001
 43
0.00000001
 40
0.0
 40
0.0
 40
0.0
 40
0.0
 40
1.0
 40
1.0
 40
1.0
 40
1.0
 10
200.3099991527479
 20
122.7165671641782
 30
0.0
 10
200.3100268925652
 20
122.1005689016709
 30
0.0
 10
200.3699775977692
 20
121.4853112498976
 30
0.0
 10
200.4890345452097
 20
120.8809244135768
 30
0.0
  0
LINE
  5
D5
330
1F
100
AcDbEntity
  8
0
  6
Continuous
 62
     7
370
    25
100
AcDbLine
 10
200.3099991523
 20
542.7165897644
 30
0.0
 11
200.3099991527
 21
122.7165671642
 31
0.0
  0
SPLINE
  5
D6
330
1F
100
AcDbEntity
  8
0
  6
Continuous
 62
     7
370
    25
100
AcDbSpline
210
0.0
220
0.0
230
1.0
 70
     8
 71
     3
 72
     8
 73
     4
 74
     0
 42
0.000000001
 43
0.00000001
 40
0.0
 40
0.0
 40
0.0
 40
0.0
 40
1.0
 40
1.0
 40
1.0
 40
1.0
 10
200.4890475986339
 20
544.5523320613921
 30
0.0
 10
200.3701484646164
 20
543.9476382463479
 30
0.0
 10
200.30997129532
 20
543.3328760785126
 30
0.0
 10
200.3099991517551
 20
542.7165897644165
 30
0.0
  0
SPLINE
  5
D7
330
1F
100
AcDbEntity
  8
0
  6
Continuous
 62
     7
370
    25
100
AcDbSpline
210
0.0
220
0.0
230
1.0
 70
     8
 71
     3
 72
    10
 73
     6
 74
     0
 42
0.000000001
 43
0.00000001
 40
0.0
 40
0.0
 40
0.0
 40
0.0
 40
0.5
 40
0.5
 40
1.0
 40
1.0
 40
1.0
 40
1.0
 10
201.9210864360475
 20
548.0094890081587
 30
0.0
 10
201.566698376841
 20
547.4812281293911
 30
0.0
 10
201.2716958800891
 20
546.9283683003457
 30
0.0
 10
200.7945200797114
 20
545.7759120349576
 30
0.0
 10
200.611785879594
 20
545.1765479355756
 30
0.0
 10
200.4890475983382
 20
544.5523320614502
 30
0.0
  0
SPLINE
  5
D8
330
1F
100
AcDbEntity
  8
0
  6
Continuous
 62
     7
370
    25
100
AcDbSpline
210
0.0
220
0.0
230
1.0
 70
     8
 71
     3
 72
     8
 73
     4
 74
     0
 42
0.000000001
 43
0.00000001
 40
0.0
 40
0.0
 40
0.0
 40
0.0
 40
1.0
 40
1.0
 40
1.0
 40
1.0
 10
203.0925007105515
 20
549.4340975659975
 30
0.0
 10
202.656937476057
 20
548.998497037046
 30
0.0
 10
202.2642706954684
 20
548.521047280056
 30
0.0
 10
201.9210864360469
 20
548.009489008159
 30
0.0
  0
SPLINE
  5
D9
330
1F
100
AcDbEntity
  8
0
  6
Continuous
 62
     7
370
    25
100
AcDbSpline
210
0.0
220
0.0
230
1.0
 70
     8
 71
     3
 72
     8
 73
     4
 74
     0
 42
0.000000001
 43
0.00000001
 40
0.0
 40
0.0
 40
0.0
 40
0.0
 40
1.0
 40
1.0
 40
1.0
 40
1.0
 10
204.5171729098465
 20
550.60555702245
 30
0.0
 10
204.0055154293458
 20
550.2620483073781
 30
0.0
 10
203.5282612461481
 20
549.8698974947467
 30
0.0
 10
203.0925007105504
 20
549.4340975659986
 30
0.0
  0
SPLINE
  5
DA
330
1F
100
AcDbEntity
  8
0
  6
Continuous
 62
     7
370
    25
100
AcDbSpline
210
0.0
220
0.0
230
1.0
 70
     8
 71
     3
 72
    10
 73
     6
 74
     0
 42
0.000000001
 43
0.00000001
 40
0.0
 40
0.0
 40
0.0
 40
0.0
 40
0.5
 40
0.5
 40
1.0
 40
1.0
 40
1.0
 40
1.0
 10
207.9743564029012
 20
552.0375317704774
 30
0.0
 10
207.3502293517372
 20
551.9145851249477
 30
0.0
 10
206.7507001524243
 20
551.7322524549888
 30
0.0
 10
205.5983762666463
 20
551.2547570623307
 30
0.0
 10
205.0453492580951
 20
550.9601552294673
 30
0.0
 10
204.5171729099888
 20
550.6055570222379
 30
0.0
  0
SPLINE
  5
DB
330
1F
100
AcDbEntity
  8
0
  6
Continuous
 62
     7
370
    25
100
AcDbSpline
210
0.0
220
0.0
230
1.0
 70
     8
 71
     3
 72
     8
 73
     4
 74
     0
 42
0.000000001
 43
0.00000001
 40
0.0
 40
0.0
 40
0.0
 40
0.0
 40
1.0
 40
1.0
 40
1.0
 40
1.0
 10
209.809999152266
 20
552.2165671636963
 30
0.0
 10
209.1940008901783
 20
552.2165394222144
 30
0.0
 10
208.5787432385574
 20
552.1565887193702
 30
0.0
 10
207.974356402901
 20
552.037531770478
 30
0.0
  0
LINE
  5
DC
330
1F
100
AcDbEntity
  8
0
  6
Continuous
 62
     7
370
    25
100
AcDbLine
 10
769.8100217525
 20
552.2165671642
 30
0.0
 11
209.8099991523
 21
552.2165671637
 31
0.0
  0
SPLINE
  5
DD
330
1F
100
AcDbEntity
  8
0
  6
Continuous
 62
     7
370
    25
100
AcDbSpline
210
0.0
220
0.0
230
1.0
 70
     8
 71
     3
 72
     8
 73
     4
 74
     0
 42
0.000000001
 43
0.00000001
 40
0.0
 40
0.0
 40
0.0
 40
0.0
 40
1.0
 40
1.0
 40
1.0
 40
1.0
 10
771.6457640493785
 20
552.0375187178303
 30
0.0
 10
771.0410702345464
 20
552.156417852953
 30
0.0
 10
770.4263080665894
 20
552.2165950211244
 30
0.0
 10
769.8100217525044
 20
552.2165671646891
 30
0.0
  0
SPLINE
  5
DE
330
1F
100
AcDbEntity
  8
0
  6
Continuous
 62
     7
370
    25
100
AcDbSpline
210
0.0
220
0.0
230
1.0
 70
     8
 71
     3
 72
    10
 73
     6
 74
     0
 42
0.000000001
 43
0.00000001
 40
0.0
 40
0.0
 40
0.0
 40
0.0
 40
0.5
 40
0.5
 40
1.0
 40
1.0
 40
1.0
 40
1.0
 10
775.1029209962463
 20
550.6054798803965
 30
0.0
 10
774.5746601178596
 20
550.959867940594
 30
0.0
 10
774.0218002882808
 20
551.2548704360773
 30
0.0
 10
772.8693440231925
 20
551.7320462371172
 30
0.0
 10
772.2699799236243
 20
551.9147804365493
 30
0.0
 10
771.64576404921
 20
552.0375187169738
 30
0.0
  0
SPLINE
  5
DF
330
1F
100
AcDbEntity
  8
0
  6
Continuous
 62
     7
370
    25
100
AcDbSpline
210
0.0
220
0.0
230
1.0
 70
     8
 71
     3
 72
     8
 73
     4
 74
     0
 42
0.000000001
 43
0.00000001
 40
0.0
 40
0.0
 40
0.0
 40
0.0
 40
1.0
 40
1.0
 40
1.0
 40
1.0
 10
776.5275295540856
 20
549.4340656058921
 30
0.0
 10
776.0919290251303
 20
549.8696288403906
 30
0.0
 10
775.614479268135
 20
550.2622956209815
 30
0.0
 10
775.1029209962467
 20
550.6054798803972
 30
0.0
  0
SPLINE
  5
E0
330
1F
100
AcDbEntity
  8
0
  6
Continuous
 62
     7
370
    25
100
AcDbSpline
210
0.0
220
0.0
230
1.0
 70
     8
 71
     3
 72
     8
 73
     4
 74
     0
 42
0.000000001
 43
0.00000001
 40
0.0
 40
0.0
 40
0.0
 40
0.0
 40
1.0
 40
1.0
 40
1.0
 40
1.0
 10
777.6989890097084
 20
548.0093934063435
 30
0.0
 10
777.3554802984809
 20
548.5210508894653
 30
0.0
 10
776.9633294828379
 20
548.9983050702937
 30
0.0
 10
776.5275295540868
 20
549.4340656058931
 30
0.0
  0
SPLINE
  5
E1
330
1F
100
AcDbEntity
  8
0
  6
Continuous
 62
     7
370
    25
100
AcDbSpline
210
0.0
220
0.0
230
1.0
 70
     8
 71
     3
 72
    10
 73
     6
 74
     0
 42
0.000000001
 43
0.00000001
 40
0.0
 40
0.0
 40
0.0
 40
0.0
 40
0.5
 40
0.5
 40
1.0
 40
1.0
 40
1.0
 40
1.0
 10
779.130963758517
 20
544.5522099137866
 30
0.0
 10
779.0080171114763
 20
545.1763369643082
 30
0.0
 10
778.8256844424582
 20
545.7758661639925
 30
0.0
 10
778.3481890482446
 20
546.9281900490863
 30
0.0
 10
778.0535872171015
 20
547.4812170584512
 30
0.0
 10
777.6989890101859
 20
548.0093934066641
 30
0.0
  0
SPLINE
  5
E2
330
1F
100
AcDbEntity
  8
0
  6
Continuous
 62
     7
370
    25
100
AcDbSpline
210
0.0
220
0.0
230
1.0
 70
     8
 71
     3
 72
     8
 73
     4
 74
     0
 42
0.000000001
 43
0.00000001
 40
0.0
 40
0.0
 40
0.0
 40
0.0
 40
1.0
 40
1.0
 40
1.0
 40
1.0
 10
779.309999151784
 20
542.7165671641782
 30
0.0
 10
779.3099714103022
 20
543.3325654263467
 30
0.0
 10
779.2500207071247
 20
543.9478230779954
 30
0.0
 10
779.1309637585177
 20
544.5522099137867
 30
0.0
  0
LINE
  5
E3
330
1F
100
AcDbEntity
  8
0
  6
Continuous
 62
     7
370
    25
100
AcDbLine
 10
779.3099991523
 20
122.7165445661
 30
0.0
 11
779.3099991518
 21
542.7165671642
 31
0.0
  0
SPLINE
  5
E4
330
1F
100
AcDbEntity
  8
0
  6
Continuous
 62
     7
370
    25
100
AcDbSpline
210
0.0
220
0.0
230
1.0
 70
     8
 71
     3
 72
     8
 73
     4
 74
     0
 42
0.000000001
 43
0.00000001
 40
0.0
 40
0.0
 40
0.0
 40
0.0
 40
1.0
 40
1.0
 40
1.0
 40
1.0
 10
779.1309507059814
 20
120.880802267389
 30
0.0
 10
779.2498498416119
 20
121.4854960828215
 30
0.0
 10
779.3100270065735
 20
122.1002582515863
 30
0.0
 10
779.3099991527766
 20
122.7165445660804
 30
0.0
  0
SPLINE
  5
E5
330
1F
100
AcDbEntity
  8
0
  6
Continuous
 62
     7
370
    25
100
AcDbSpline
210
0.0
220
0.0
230
1.0
 70
     8
 71
     3
 72
    10
 73
     6
 74
     0
 42
0.000000001
 43
0.00000001
 40
0.0
 40
0.0
 40
0.0
 40
0.0
 40
0.5
 40
0.5
 40
1.0
 40
1.0
 40
1.0
 40
1.0
 10
777.6989118684844
 20
117.4236453201978
 30
0.0
 10
778.0532999298572
 20
117.9519061981584
 30
0.0
 10
778.3483024252533
 20
118.5047660278325
 30
0.0
 10
778.8254782274525
 20
119.657222292557
 30
0.0
 10
779.0082124242956
 20
120.2565863932549
 30
0.0
 10
779.1309507051252
 20
120.8808022675573
 30
0.0
  0
SPLINE
  5
E6
330
1F
100
AcDbEntity
  8
0
  6
Continuous
 62
     7
370
    25
100
AcDbSpline
210
0.0
220
0.0
230
1.0
 70
     8
 71
     3
 72
     8
 73
     4
 74
     0
 42
0.000000001
 43
0.00000001
 40
0.0
 40
0.0
 40
0.0
 40
0.0
 40
1.0
 40
1.0
 40
1.0
 40
1.0
 10
776.5274975939798
 20
115.9990367623583
 30
0.0
 10
776.9630608284783
 20
116.4346372913138
 30
0.0
 10
777.3557276090693
 20
116.912087048309
 30
0.0
 10
777.698911868485
 20
117.4236453201975
 30
0.0
  0
SPLINE
  5
E7
330
1F
100
AcDbEntity
  8
0
  6
Continuous
 62
     7
370
    25
100
AcDbSpline
210
0.0
220
0.0
230
1.0
 70
     8
 71
     3
 72
     8
 73
     4
 74
     0
 42
0.000000001
 43
0.00000001
 40
0.0
 40
0.0
 40
0.0
 40
0.0
 40
1.0
 40
1.0
 40
1.0
 40
1.0
 10
775.1028253950569
 20
114.8275773061558
 30
0.0
 10
775.6144828754235
 20
115.1710860210514
 30
0.0
 10
776.091737058435
 20
115.5632368336596
 30
0.0
 10
776.5274975939808
 20
115.9990367623574
 30
0.0
  0
SPLINE
  5
E8
330
1F
100
AcDbEntity
  8
0
  6
Continuous
 62
     7
370
    25
100
AcDbSpline
210
0.0
220
0.0
230
1.0
 70
     8
 71
     3
 72
    10
 73
     6
 74
     0
 42
0.000000001
 43
0.00000001
 40
0.0
 40
0.0
 40
0.0
 40
0.0
 40
0.5
 40
0.5
 40
1.0
 40
1.0
 40
1.0
 40
1.0
 10
771.6456411037216
 20
113.3956024006991
 30
0.0
 10
772.2626147836461
 20
113.5171398492037
 30
0.0
 10
772.8639786179739
 20
113.6987622783145
 30
0.0
 10
774.0247538687283
 20
114.1795904978148
 30
0.0
 10
774.58072192951
 20
114.4770562102859
 30
0.0
 10
775.1028253949147
 20
114.8275773063675
 30
0.0
  0
SPLINE
  5
E9
330
1F
100
AcDbEntity
  8
0
  6
Continuous
 62
     7
370
    25
100
AcDbSpline
210
0.0
220
0.0
230
1.0
 70
     8
 71
     3
 72
     8
 73
     4
 74
     0
 42
0.000000001
 43
0.00000001
 40
0.0
 40
0.0
 40
0.0
 40
0.0
 40
1.0
 40
1.0
 40
1.0
 40
1.0
 10
769.809999152266
 20
113.2165671646602
 30
0.0
 10
770.4259971430673
 20
113.2165949061298
 30
0.0
 10
771.0412545241347
 20
113.2765455554643
 30
0.0
 10
771.6456411037215
 20
113.3956024006998
 30
0.0
  0
SPLINE
  5
EA
330
1F
100
AcDbEntity
  8
0
  6
Continuous
 62
     7
370
    25
100
AcDbSpline
210
0.0
220
0.0
230
1.0
 70
    24
 71
     3
 72
    14
 73
    10
 74
     0
 42
0.000000001
 43
0.00000001
 40
0.0
 40
0.0
 40
0.0
 40
0.0
 40
0.25
 40
0.25
 40
0.5
 40
0.5
 40
0.75
 40
0.75
 40
1.0
 40
1.0
 40
1.0
 40
1.0
 10
744.809999152266
 20
130.7165671641782
 30
0.0
 10
744.8099991522658
 20
131.109266245877
 30
0.0
 10
744.809999152266
 20
131.501810817256
 30
0.0
 10
744.809999152266
 20
132.227424105291
 30
0.0
 10
744.809999152266
 20
132.5602073241029
 30
0.0
 10
744.809999152266
 20
133.1155676913727
 30
0.0
 10
744.809999152266
 20
133.337926329241
 30
0.0
 10
744.809999152266
 20
133.6384851941831
 30
0.0
 10
744.809999152266
 20
133.7165671641782
 30
0.0
 10
744.809999152266
 20
133.7165671641782
 30
0.0
  0
SPLINE
  5
EB
330
1F
100
AcDbEntity
  8
0
  6
Continuous
 62
     7
370
    25
100
AcDbSpline
210
0.0
220
0.0
230
1.0
 70
    24
 71
     3
 72
    14
 73
    10
 74
     0
 42
0.000000001
 43
0.00000001
 40
0.0
 40
0.0
 40
0.0
 40
0.0
 40
0.25
 40
0.25
 40
0.5
 40
0.5
 40
0.75
 40
0.75
 40
1.0
 40
1.0
 40
1.0
 40
1.0
 10
594.809999152266
 20
133.7165671641782
 30
0.0
 10
594.809999152266
 20
133.7165671641783
 30
0.0
 10
594.809999152266
 20
133.6384851941831
 30
0.0
 10
594.809999152266
 20
133.337926329241
 30
0.0
 10
594.809999152266
 20
133.1155676913727
 30
0.0
 10
594.809999152266
 20
132.5602073241029
 30
0.0
 10
594.809999152266
 20
132.2274241052909
 30
0.0
 10
594.809999152266
 20
131.5018108172561
 30
0.0
 10
594.809999152266
 20
131.1092662458769
 30
0.0
 10
594.809999152266
 20
130.7165671641782
 30
0.0
  0
LINE
  5
EC
330
1F
100
AcDbEntity
  8
0
  6
Continuous
 62
     7
370
    25
100
AcDbLine
 10
744.8099991523
 20
133.7165671642
 30
0.0
 11
594.8099991523
 21
133.7165671642
 31
0.0
  0
LINE
  5
ED
330
1F
100
AcDbEntity
  8
0
  6
Continuous
 62
     7
370
    25
100
AcDbLine
 10
544.8099991523
 20
531.7165671642
 30
0.0
 11
234.8099991523
 21
531.7165671642
 31
0.0
  0
SPLINE
  5
EE
330
1F
100
AcDbEntity
  8
0
  6
Continuous
 62
     7
370
    25
100
AcDbSpline
210
0.0
220
0.0
230
1.0
 70
    24
 71
     3
 72
    14
 73
    10
 74
     0
 42
0.000000001
 43
0.00000001
 40
0.0
 40
0.0
 40
0.0
 40
0.0
 40
0.25
 40
0.25
 40
0.5
 40
0.5
 40
0.75
 40
0.75
 40
1.0
 40
1.0
 40
1.0
 40
1.0
 10
234.809999152266
 20
534.7165671641783
 30
0.0
 10
234.809999152266
 20
534.3238680824794
 30
0.0
 10
234.8099991522659
 20
533.9313235111002
 30
0.0
 10
234.8099991522661
 20
533.2057102230654
 30
0.0
 10
234.8099991522659
 20
532.8729270042535
 30
0.0
 10
234.8099991522659
 20
532.3175666369835
 30
0.0
 10
234.8099991522659
 20
532.0952079991155
 30
0.0
 10
234.809999152266
 20
531.7946491341733
 30
0.0
 10
234.8099991522659
 20
531.7165671641782
 30
0.0
 10
234.809999152266
 20
531.7165671641782
 30
0.0
  0
SPLINE
  5
EF
330
1F
100
AcDbEntity
  8
0
  6
Continuous
 62
     7
370
    25
100
AcDbSpline
210
0.0
220
0.0
230
1.0
 70
    24
 71
     3
 72
    14
 73
    10
 74
     0
 42
0.000000001
 43
0.00000001
 40
0.0
 40
0.0
 40
0.0
 40
0.0
 40
0.25
 40
0.25
 40
0.5
 40
0.5
 40
0.75
 40
0.75
 40
1.0
 40
1.0
 40
1.0
 40
1.0
 10
544.809999152266
 20
531.7165671641782
 30
0.0
 10
544.8099991522661
 20
531.7165671641782
 30
0.0
 10
544.809999152266
 20
531.7946491341733
 30
0.0
 10
544.809999152266
 20
532.0952079991155
 30
0.0
 10
544.809999152266
 20
532.3175666369837
 30
0.0
 10
544.8099991522661
 20
532.8729270042535
 30
0.0
 10
544.809999152266
 20
533.2057102230655
 30
0.0
 10
544.809999152266
 20
533.9313235111002
 30
0.0
 10
544.809999152266
 20
534.3238680824794
 30
0.0
 10
544.809999152266
 20
534.7165671641783
 30
0.0
  0
SPLINE
  5
F0
330
1F
100
AcDbEntity
  8
0
  6
Continuous
 62
     7
370
    25
100
AcDbSpline
210
0.0
220
0.0
230
1.0
 70
    24
 71
     3
 72
    14
 73
    10
 74
     0
 42
0.000000001
 43
0.00000001
 40
0.0
 40
0.0
 40
0.0
 40
0.0
 40
0.25
 40
0.25
 40
0.5
 40
0.5
 40
0.75
 40
0.75
 40
1.0
 40
1.0
 40
1.0
 40
1.0
 10
220.809999152266
 20
517.7165671641782
 30
0.0
 10
220.8099991522659
 20
517.7165671641782
 30
0.0
 10
220.7319171822709
 20
517.7165671641783
 30
0.0
 10
220.4313583173289
 20
517.7165671641782
 30
0.0
 10
220.2089996794605
 20
517.7165671641783
 30
0.0
 10
219.6536393121907
 20
517.7165671641782
 30
0.0
 10
219.3208560933786
 20
517.7165671641783
 30
0.0
 10
218.5952428053438
 20
517.7165671641782
 30
0.0
 10
218.2026982339646
 20
517.7165671641783
 30
0.0
 10
217.809999152266
 20
517.7165671641782
 30
0.0
  0
LINE
  5
F1
330
1F
100
AcDbEntity
  8
0
  6
Continuous
 62
     7
370
    25
100
AcDbLine
 10
220.8099991523
 20
517.7165671642
 30
0.0
 11
220.8099991523
 21
147.7165671642
 31
0.0
  0
SPLINE
  5
F2
330
1F
100
AcDbEntity
  8
0
  6
Continuous
 62
     7
370
    25
100
AcDbSpline
210
0.0
220
0.0
230
1.0
 70
    24
 71
     3
 72
    14
 73
    10
 74
     0
 42
0.000000001
 43
0.00000001
 40
0.0
 40
0.0
 40
0.0
 40
0.0
 40
0.25
 40
0.25
 40
0.5
 40
0.5
 40
0.75
 40
0.75
 40
1.0
 40
1.0
 40
1.0
 40
1.0
 10
217.809999152266
 20
147.7165671641782
 30
0.0
 10
218.2026982339647
 20
147.7165671641782
 30
0.0
 10
218.5952428053438
 20
147.7165671641782
 30
0.0
 10
219.3208560933787
 20
147.7165671641782
 30
0.0
 10
219.6536393121907
 20
147.7165671641782
 30
0.0
 10
220.2089996794604
 20
147.7165671641782
 30
0.0
 10
220.4313583173287
 20
147.7165671641782
 30
0.0
 10
220.7319171822709
 20
147.7165671641782
 30
0.0
 10
220.809999152266
 20
147.7165671641782
 30
0.0
 10
220.809999152266
 20
147.7165671641782
 30
0.0
  0
SPLINE
  5
F3
330
1F
100
AcDbEntity
  8
0
  6
Continuous
 62
     7
370
    25
100
AcDbSpline
210
0.0
220
0.0
230
1.0
 70
    24
 71
     3
 72
    14
 73
    10
 74
     0
 42
0.000000001
 43
0.00000001
 40
0.0
 40
0.0
 40
0.0
 40
0.0
 40
0.25
 40
0.25
 40
0.5
 40
0.5
 40
0.75
 40
0.75
 40
1.0
 40
1.0
 40
1.0
 40
1.0
 10
234.809999152266
 20
133.7165671641782
 30
0.0
 10
234.809999152266
 20
133.7165671641782
 30
0.0
 10
234.8099991522659
 20
133.6384851941831
 30
0.0
 10
234.8099991522661
 20
133.3379263292409
 30
0.0
 10
234.8099991522659
 20
133.1155676913727
 30
0.0
 10
234.8099991522659
 20
132.5602073241029
 30
0.0
 10
234.8099991522659
 20
132.2274241052909
 30
0.0
 10
234.809999152266
 20
131.5018108172561
 30
0.0
 10
234.8099991522659
 20
131.1092662458769
 30
0.0
 10
234.809999152266
 20
130.7165671641782
 30
0.0
  0
LINE
  5
F4
330
1F
100
AcDbEntity
  8
0
  6
Continuous
 62
     7
370
    25
100
AcDbLine
 10
234.8099991523
 20
133.7165671642
 30
0.0
 11
544.8099991523
 21
133.7165671642
 31
0.0
  0
SPLINE
  5
F5
330
1F
100
AcDbEntity
  8
0
  6
Continuous
 62
     7
370
    25
100
AcDbSpline
210
0.0
220
0.0
230
1.0
 70
    24
 71
     3
 72
    14
 73
    10
 74
     0
 42
0.000000001
 43
0.00000001
 40
0.0
 40
0.0
 40
0.0
 40
0.0
 40
0.25
 40
0.25
 40
0.5
 40
0.5
 40
0.75
 40
0.75
 40
1.0
 40
1.0
 40
1.0
 40
1.0
 10
544.809999152266
 20
130.7165671641782
 30
0.0
 10
544.8099991522661
 20
131.1092662458769
 30
0.0
 10
544.809999152266
 20
131.5018108172561
 30
0.0
 10
544.809999152266
 20
132.227424105291
 30
0.0
 10
544.809999152266
 20
132.5602073241029
 30
0.0
 10
544.8099991522661
 20
133.1155676913728
 30
0.0
 10
544.809999152266
 20
133.3379263292409
 30
0.0
 10
544.809999152266
 20
133.6384851941831
 30
0.0
 10
544.809999152266
 20
133.7165671641782
 30
0.0
 10
544.809999152266
 20
133.7165671641782
 30
0.0
  0
SPLINE
  5
F6
330
1F
100
AcDbEntity
  8
0
  6
Continuous
 62
     7
370
    25
100
AcDbSpline
210
0.0
220
0.0
230
1.0
 70
    24
 71
     3
 72
    14
 73
    10
 74
     0
 42
0.000000001
 43
0.00000001
 40
0.0
 40
0.0
 40
0.0
 40
0.0
 40
0.25
 40
0.25
 40
0.5
 40
0.5
 40
0.75
 40
0.75
 40
1.0
 40
1.0
 40
1.0
 40
1.0
 10
561.809999152266
 20
517.7165671641782
 30
0.0
 10
561.4173000705672
 20
517.7165671641782
 30
0.0
 10
561.024755499188
 20
517.7165671641783
 30
0.0
 10
560.2991422111533
 20
517.7165671641782
 30
0.0
 10
559.9663589923412
 20
517.7165671641783
 30
0.0
 10
559.4109986250713
 20
517.7165671641782
 30
0.0
 10
559.1886399872031
 20
517.7165671641783
 30
0.0
 10
558.8880811222609
 20
517.7165671641782
 30
0.0
 10
558.809999152266
 20
517.7165671641783
 30
0.0
 10
558.809999152266
 20
517.7165671641782
 30
0.0
  0
SPLINE
  5
F7
330
1F
100
AcDbEntity
  8
0
  6
Continuous
 62
     7
370
    25
100
AcDbSpline
210
0.0
220
0.0
230
1.0
 70
    24
 71
     3
 72
    14
 73
    10
 74
     0
 42
0.000000001
 43
0.00000001
 40
0.0
 40
0.0
 40
0.0
 40
0.0
 40
0.25
 40
0.25
 40
0.5
 40
0.5
 40
0.75
 40
0.75
 40
1.0
 40
1.0
 40
1.0
 40
1.0
 10
558.809999152266
 20
147.7165671641782
 30
0.0
 10
558.809999152266
 20
147.7165671641782
 30
0.0
 10
558.8880811222609
 20
147.7165671641782
 30
0.0
 10
559.1886399872031
 20
147.7165671641782
 30
0.0
 10
559.4109986250713
 20
147.7165671641782
 30
0.0
 10
559.9663589923413
 20
147.7165671641782
 30
0.0
 10
560.2991422111533
 20
147.7165671641782
 30
0.0
 10
561.024755499188
 20
147.7165671641782
 30
0.0
 10
561.4173000705672
 20
147.7165671641782
 30
0.0
 10
561.809999152266
 20
147.7165671641782
 30
0.0
  0
LINE
  5
F8
330
1F
100
AcDbEntity
  8
0
  6
Continuous
 62
     7
370
    25
100
AcDbLine
 10
558.8099991523
 20
147.7165671642
 30
0.0
 11
558.8099991523
 21
517.7165671642
 31
0.0
  0
SPLINE
  5
F9
330
1F
100
AcDbEntity
  8
0
  6
Continuous
 62
     7
370
    25
100
AcDbSpline
210
0.0
220
0.0
230
1.0
 70
    24
 71
     3
 72
    14
 73
    10
 74
     0
 42
0.000000001
 43
0.00000001
 40
0.0
 40
0.0
 40
0.0
 40
0.0
 40
0.25
 40
0.25
 40
0.5
 40
0.5
 40
0.75
 40
0.75
 40
1.0
 40
1.0
 40
1.0
 40
1.0
 10
594.809999152266
 20
534.7165671641783
 30
0.0
 10
594.809999152266
 20
534.3238680824795
 30
0.0
 10
594.809999152266
 20
533.9313235111002
 30
0.0
 10
594.809999152266
 20
533.2057102230655
 30
0.0
 10
594.809999152266
 20
532.8729270042536
 30
0.0
 10
594.809999152266
 20
532.3175666369837
 30
0.0
 10
594.809999152266
 20
532.0952079991155
 30
0.0
 10
594.809999152266
 20
531.7946491341733
 30
0.0
 10
594.809999152266
 20
531.7165671641783
 30
0.0
 10
594.809999152266
 20
531.7165671641783
 30
0.0
  0
SPLINE
  5
FA
330
1F
100
AcDbEntity
  8
0
  6
Continuous
 62
     7
370
    25
100
AcDbSpline
210
0.0
220
0.0
230
1.0
 70
    24
 71
     3
 72
    14
 73
    10
 74
     0
 42
0.000000001
 43
0.00000001
 40
0.0
 40
0.0
 40
0.0
 40
0.0
 40
0.25
 40
0.25
 40
0.5
 40
0.5
 40
0.75
 40
0.75
 40
1.0
 40
1.0
 40
1.0
 40
1.0
 10
744.809999152266
 20
531.7165671641783
 30
0.0
 10
744.8099991522658
 20
531.7165671641782
 30
0.0
 10
744.809999152266
 20
531.7946491341734
 30
0.0
 10
744.809999152266
 20
532.0952079991155
 30
0.0
 10
744.809999152266
 20
532.3175666369837
 30
0.0
 10
744.809999152266
 20
532.8729270042535
 30
0.0
 10
744.809999152266
 20
533.2057102230656
 30
0.0
 10
744.809999152266
 20
533.9313235111003
 30
0.0
 10
744.809999152266
 20
534.3238680824795
 30
0.0
 10
744.809999152266
 20
534.7165671641783
 30
0.0
  0
LINE
  5
FB
330
1F
100
AcDbEntity
  8
0
  6
Continuous
 62
     7
370
    25
100
AcDbLine
 10
594.8099991523
 20
531.7165671642
 30
0.0
 11
744.8099991523
 21
531.7165671642
 31
0.0
  0
SPLINE
  5
FC
330
1F
100
AcDbEntity
  8
0
  6
Continuous
 62
     7
370
    25
100
AcDbSpline
210
0.0
220
0.0
230
1.0
 70
    24
 71
     3
 72
    14
 73
    10
 74
     0
 42
0.000000001
 43
0.00000001
 40
0.0
 40
0.0
 40
0.0
 40
0.0
 40
0.25
 40
0.25
 40
0.5
 40
0.5
 40
0.75
 40
0.75
 40
1.0
 40
1.0
 40
1.0
 40
1.0
 10
758.809999152266
 20
147.7165671641782
 30
0.0
 10
758.809999152266
 20
147.7165671641782
 30
0.0
 10
758.8880811222612
 20
147.7165671641782
 30
0.0
 10
759.1886399872033
 20
147.7165671641782
 30
0.0
 10
759.4109986250714
 20
147.7165671641782
 30
0.0
 10
759.9663589923414
 20
147.7165671641782
 30
0.0
 10
760.2991422111533
 20
147.7165671641782
 30
0.0
 10
761.0247554991881
 20
147.7165671641782
 30
0.0
 10
761.4173000705673
 20
147.7165671641782
 30
0.0
 10
761.809999152266
 20
147.7165671641782
 30
0.0
  0
LINE
  5
FD
330
1F
100
AcDbEntity
  8
0
  6
Continuous
 62
     7
370
    25
100
AcDbLine
 10
758.8099991523
 20
517.7165671642
 30
0.0
 11
758.8099991523
 21
147.7165671642
 31
0.0
  0
SPLINE
  5
FE
330
1F
100
AcDbEntity
  8
0
  6
Continuous
 62
     7
370
    25
100
AcDbSpline
210
0.0
220
0.0
230
1.0
 70
    24
 71
     3
 72
    14
 73
    10
 74
     0
 42
0.000000001
 43
0.00000001
 40
0.0
 40
0.0
 40
0.0
 40
0.0
 40
0.25
 40
0.25
 40
0.5
 40
0.5
 40
0.75
 40
0.75
 40
1.0
 40
1.0
 40
1.0
 40
1.0
 10
761.809999152266
 20
517.7165671641782
 30
0.0
 10
761.4173000705673
 20
517.7165671641782
 30
0.0
 10
761.0247554991881
 20
517.7165671641783
 30
0.0
 10
760.2991422111533
 20
517.7165671641782
 30
0.0
 10
759.9663589923414
 20
517.7165671641783
 30
0.0
 10
759.4109986250714
 20
517.7165671641782
 30
0.0
 10
759.1886399872033
 20
517.7165671641783
 30
0.0
 10
758.888081122261
 20
517.7165671641782
 30
0.0
 10
758.809999152266
 20
517.7165671641783
 30
0.0
 10
758.809999152266
 20
517.7165671641782
 30
0.0
  0
SPLINE
  5
FF
330
1F
100
AcDbEntity
  8
0
  6
Continuous
 62
     7
370
    25
100
AcDbSpline
210
0.0
220
0.0
230
1.0
 70
    24
 71
     3
 72
    14
 73
    10
 74
     0
 42
0.000000001
 43
0.00000001
 40
0.0
 40
0.0
 40
0.0
 40
0.0
 40
0.25
 40
0.25
 40
0.5
 40
0.5
 40
0.75
 40
0.75
 40
1.0
 40
1.0
 40
1.0
 40
1.0
 10
577.809999152266
 20
147.7165671641782
 30
0.0
 10
578.2026982339646
 20
147.7165671641782
 30
0.0
 10
578.5952428053438
 20
147.7165671641782
 30
0.0
 10
579.3208560933787
 20
147.7165671641782
 30
0.0
 10
579.6536393121908
 20
147.7165671641782
 30
0.0
 10
580.2089996794605
 20
147.7165671641782
 30
0.0
 10
580.4313583173288
 20
147.7165671641782
 30
0.0
 10
580.7319171822709
 20
147.7165671641782
 30
0.0
 10
580.809999152266
 20
147.7165671641782
 30
0.0
 10
580.809999152266
 20
147.7165671641782
 30
0.0
  0
SPLINE
  5
100
330
1F
100
AcDbEntity
  8
0
  6
Continuous
 62
     7
370
    25
100
AcDbSpline
210
0.0
220
0.0
230
1.0
 70
    24
 71
     3
 72
    14
 73
    10
 74
     0
 42
0.000000001
 43
0.00000001
 40
0.0
 40
0.0
 40
0.0
 40
0.0
 40
0.25
 40
0.25
 40
0.5
 40
0.5
 40
0.75
 40
0.75
 40
1.0
 40
1.0
 40
1.0
 40
1.0
 10
580.809999152266
 20
517.7165671641782
 30
0.0
 10
580.809999152266
 20
517.7165671641782
 30
0.0
 10
580.7319171822709
 20
517.7165671641783
 30
0.0
 10
580.4313583173288
 20
517.7165671641782
 30
0.0
 10
580.2089996794605
 20
517.7165671641783
 30
0.0
 10
579.6536393121908
 20
517.7165671641782
 30
0.0
 10
579.3208560933787
 20
517.7165671641783
 30
0.0
 10
578.5952428053438
 20
517.7165671641782
 30
0.0
 10
578.2026982339646
 20
517.7165671641783
 30
0.0
 10
577.809999152266
 20
517.7165671641782
 30
0.0
  0
LINE
  5
101
330
1F
100
AcDbEntity
  8
0
  6
Continuous
 62
     7
370
    25
100
AcDbLine
 10
580.8099991523
 20
147.7165671642
 30
0.0
 11
580.8099991523
 21
517.7165671642
 31
0.0
  0
ARC
  5
102
330
1F
100
AcDbEntity
  8
0
  6
Continuous
 62
     7
370
    25
100
AcDbCircle
 10
544.8099991523
 20
517.7165671642
 30
0.0
 40
14.0
100
AcDbArc
 50
0.0
 51
90.0
  0
ARC
  5
103
330
1F
100
AcDbEntity
  8
0
  6
Continuous
 62
     7
370
    25
100
AcDbCircle
 10
594.8099991553
 20
147.7165671672
 30
0.0
 40
14.00000000290004
100
AcDbArc
 50
180.0000000123
 51
270.000000003
  0
ARC
  5
104
330
1F
100
AcDbEntity
  8
0
  6
Continuous
 62
     7
370
    25
100
AcDbCircle
 10
594.8099991553
 20
517.7165671612
 30
0.0
 40
14.00000000290004
100
AcDbArc
 50
90.0
 51
179.9999999877
  0
ARC
  5
105
330
1F
100
AcDbEntity
  8
0
  6
Continuous
 62
     7
370
    25
100
AcDbCircle
 10
744.8099991523
 20
517.7165671642
 30
0.0
 40
14.0
100
AcDbArc
 50
0.0
 51
90.0
  0
ARC
  5
106
330
1F
100
AcDbEntity
  8
0
  6
Continuous
 62
     7
370
    25
100
AcDbCircle
 10
744.8099991523
 20
147.7165671642
 30
0.0
 40
14.00000000000006
100
AcDbArc
 50
270.0
 51
0.0
  0
ARC
  5
107
330
1F
100
AcDbEntity
  8
0
  6
Continuous
 62
     7
370
    25
100
AcDbCircle
 10
234.8099991523
 20
517.7165671642
 30
0.0
 40
14.0
100
AcDbArc
 50
90.0
 51
180.0
  0
ARC
  5
108
330
1F
100
AcDbEntity
  8
0
  6
Continuous
 62
     7
370
    25
100
AcDbCircle
 10
234.8099991523
 20
147.7165671642
 30
0.0
 40
14.00000000000003
100
AcDbArc
 50
180.0
 51
270.0
  0
ARC
  5
109
330
1F
100
AcDbEntity
  8
0
  6
Continuous
 62
     7
370
    25
100
AcDbCircle
 10
544.8099991523
 20
147.7165671642
 30
0.0
 40
14.00000000000003
100
AcDbArc
 50
270.0
 51
0.0
  0
SPLINE
  5
10A
330
1F
100
AcDbEntity
  8
0
  6
Continuous
 62
     7
370
    25
100
AcDbSpline
210
0.0
220
0.0
230
1.0
 70
     8
 71
     3
 72
     8
 73
     4
 74
     0
 42
0.000000001
 43
0.00000001
 40
0.0
 40
0.0
 40
0.0
 40
0.0
 40
1.0
 40
1.0
 40
1.0
 40
1.0
 10
207.8777195242659
 20
552.5281042051781
 30
0.0
 10
208.5142748492659
 20
552.6534979601781
 30
0.0
 10
209.1611698972659
 20
552.7165393875115
 30
0.0
 10
209.809999152266
 20
552.7165671641782
 30
0.0
  0
LWPOLYLINE
  5
10B
330
1F
100
AcDbEntity
  8
0
  6
Continuous
 62
     7
370
    25
100
AcDbPolyline
 90
        9
 70
   128
 43
0.0
 10
209.8099991523
 20
552.7165671642
 10
209.8099953876
 20
552.7069598042
 10
209.8099925902
 20
552.6785069301
 10
209.8099908676
 20
552.6323019699
 10
209.8099902859
 20
552.5701205542
 10
209.8099908676
 20
552.4943522801
 10
209.8099925902
 20
552.4079088798
 10
209.8099953876
 20
552.3141123246
 10
209.8099991523
 20
552.2165671637
  0
LWPOLYLINE
  5
10C
330
1F
100
AcDbEntity
  8
0
  6
Continuous
 62
     7
370
    25
100
AcDbPolyline
 90
        9
 70
   128
 43
0.0
 10
207.8777195243
 20
552.5281042052
 10
207.8795762345
 20
552.5186779658
 10
207.885075324
 20
552.4907615539
 10
207.894005466
 20
552.4454277817
 10
207.9060234802
 20
552.3844188006
 10
207.9206675209
 20
552.3100791515
 10
207.9373748259
 20
552.2252656654
 10
207.9555033428
 20
552.1332376771
 10
207.9743564029
 20
552.0375317705
  0
SPLINE
  5
10D
330
1F
100
AcDbEntity
  8
0
  6
Continuous
 62
     7
370
    25
100
AcDbSpline
210
0.0
220
0.0
230
1.0
 70
     8
 71
     3
 72
    10
 73
     6
 74
     0
 42
0.000000001
 43
0.00000001
 40
0.0
 40
0.0
 40
0.0
 40
0.0
 40
0.5
 40
0.5
 40
1.0
 40
1.0
 40
1.0
 40
1.0
 10
771.7422308762659
 20
552.5281246191782
 30
0.0
 10
772.391397754813
 20
552.4004802742533
 30
0.0
 10
773.0282020782076
 20
552.207657442659
 30
0.0
 10
774.2512336324367
 20
551.7008157471498
 30
0.0
 10
774.8367412141102
 20
551.3861390148327
 30
0.0
 10
775.3814755002659
 20
551.0206995671782
 30
0.0
  0
LWPOLYLINE
  5
10E
330
1F
100
AcDbEntity
  8
0
  6
Continuous
 62
     7
370
    25
100
AcDbPolyline
 90
        9
 70
   128
 43
0.0
 10
775.3814755003
 20
551.0206995672
 10
775.3761230343
 20
551.0127213174
 10
775.3602715932
 20
550.98909299
 10
775.3345303391
 20
550.9507226085
 10
775.2998884939
 20
550.8990847251
 10
775.2576773244
 20
550.8361637547
 10
775.209518982
 20
550.7643777149
 10
775.1572641648
 20
550.6864853028
 10
775.1029209962
 20
550.6054798804
  0
LWPOLYLINE
  5
10F
330
1F
100
AcDbEntity
  8
0
  6
Continuous
 62
     7
370
    25
100
AcDbPolyline
 90
        9
 70
   128
 43
0.0
 10
771.7422308763
 20
552.5281246192
 10
771.7403772159
 20
552.5186977796
 10
771.7348876415
 20
552.4907794951
 10
771.7259731143
 20
552.4454426499
 10
771.7139762147
 20
552.3844295134
 10
771.6993579767
 20
552.3100847862
 10
771.682680171
 20
552.2252654946
 10
771.6645837164
 20
552.1332311963
 10
771.6457640494
 20
552.0375187178
  0
SPLINE
  5
110
330
1F
100
AcDbEntity
  8
0
  6
Continuous
 62
     7
370
    25
100
AcDbSpline
210
0.0
220
0.0
230
1.0
 70
     8
 71
     3
 72
    10
 73
     6
 74
     0
 42
0.000000001
 43
0.00000001
 40
0.0
 40
0.0
 40
0.0
 40
0.0
 40
0.5
 40
0.5
 40
1.0
 40
1.0
 40
1.0
 40
1.0
 10
204.2384744972659
 20
551.0206801301782
 30
0.0
 10
204.7877629750692
 20
551.3894522461184
 30
0.0
 10
205.3743979443134
 20
551.7033945670464
 30
0.0
 10
206.5976030178273
 20
552.209817262279
 30
0.0
 10
207.2341295117025
 20
552.40132361373
 30
0.0
 10
207.8777195242659
 20
552.5281042051781
 30
0.0
  0
LINE
  5
111
330
1F
100
AcDbEntity
  8
0
  6
Continuous
 62
     7
370
    25
100
AcDbLine
 10
204.5171729098
 20
550.6055570224
 30
0.0
 11
204.2384744973
 21
551.0206801302
 31
0.0
  0
SPLINE
  5
112
330
1F
100
AcDbEntity
  8
0
  6
Continuous
 62
     7
370
    25
100
AcDbSpline
210
0.0
220
0.0
230
1.0
 70
     8
 71
     3
 72
     8
 73
     4
 74
     0
 42
0.000000001
 43
0.00000001
 40
0.0
 40
0.0
 40
0.0
 40
0.0
 40
1.0
 40
1.0
 40
1.0
 40
1.0
 10
769.809999152266
 20
552.7165671641782
 30
0.0
 10
770.458173429411
 20
552.7165964619649
 30
0.0
 10
771.106006930968
 20
552.6532234303859
 30
0.0
 10
771.7422308764343
 20
552.5281246200346
 30
0.0
  0
LWPOLYLINE
  5
113
330
1F
100
AcDbEntity
  8
0
  6
Continuous
 62
     7
370
    25
100
AcDbPolyline
 90
        9
 70
   128
 43
0.0
 10
769.8099991523
 20
552.7165671642
 10
769.8100035614
 20
552.7069598044
 10
769.810007801
 20
552.6785069304
 10
769.8100117083
 20
552.6323019703
 10
769.810015133
 20
552.5701205548
 10
769.8100179437
 20
552.4943522807
 10
769.8100200322
 20
552.4079088804
 10
769.8100213182
 20
552.3141123252
 10
769.8100217525
 20
552.2165671642
  0
LINE
  5
114
330
1F
100
AcDbEntity
  8
0
  6
Continuous
 62
     7
370
    25
100
AcDbLine
 10
209.8099991523
 20
552.7165671642
 30
0.0
 11
769.8099991523
 21
552.7165671642
 31
0.0
  0
LINE
  5
115
330
1F
100
AcDbEntity
  8
0
  6
Continuous
 62
     7
370
    25
100
AcDbLine
 10
203.0925007106
 20
549.434097566
 30
0.0
 11
202.7389313403
 21
549.7876349762
 31
0.0
  0
SPLINE
  5
116
330
1F
100
AcDbEntity
  8
0
  6
Continuous
 62
     7
370
    25
100
AcDbSpline
210
0.0
220
0.0
230
1.0
 70
     8
 71
     3
 72
     8
 73
     4
 74
     0
 42
0.000000001
 43
0.00000001
 40
0.0
 40
0.0
 40
0.0
 40
0.0
 40
1.0
 40
1.0
 40
1.0
 40
1.0
 10
202.7389313402659
 20
549.7876349761782
 30
0.0
 10
203.1972390520663
 20
550.2459841194143
 30
0.0
 10
203.7001380151729
 20
550.6592600784024
 30
0.0
 10
204.2384744971236
 20
551.0206801303901
 30
0.0
  0
SPLINE
  5
117
330
1F
100
AcDbEntity
  8
0
  6
Continuous
 62
     7
370
    25
100
AcDbSpline
210
0.0
220
0.0
230
1.0
 70
     8
 71
     3
 72
     8
 73
     4
 74
     0
 42
0.000000001
 43
0.00000001
 40
0.0
 40
0.0
 40
0.0
 40
0.0
 40
1.0
 40
1.0
 40
1.0
 40
1.0
 10
775.3814755002659
 20
551.0206995671782
 30
0.0
 10
775.9202548602659
 20
550.6592537538448
 30
0.0
 10
776.4222557575993
 20
550.2464069011784
 30
0.0
 10
776.881066964266
 20
549.7876349761782
 30
0.0
  0
LWPOLYLINE
  5
118
330
1F
100
AcDbEntity
  8
0
  6
Continuous
 62
     7
370
    25
100
AcDbPolyline
 90
        9
 70
   128
 43
0.0
 10
776.8810669643
 20
549.7876349762
 10
776.8742739906
 20
549.7808410914
 10
776.8541557902
 20
549.7607208516
 10
776.8214854943
 20
549.7280474663
 10
776.777518604
 20
549.6840765555
 10
776.7239447423
 20
549.6304978965
 10
776.6628227226
 20
549.5693704872
 10
776.5965014298
 20
549.5030434197
 10
776.5275295541
 20
549.4340656059
  0
SPLINE
  5
119
330
1F
100
AcDbEntity
  8
0
  6
Continuous
 62
     7
370
    25
100
AcDbSpline
210
0.0
220
0.0
230
1.0
 70
     8
 71
     3
 72
     8
 73
     4
 74
     0
 42
0.000000001
 43
0.00000001
 40
0.0
 40
0.0
 40
0.0
 40
0.0
 40
1.0
 40
1.0
 40
1.0
 40
1.0
 10
776.881066964266
 20
549.7876349761782
 30
0.0
 10
777.3394161080084
 20
549.3293272638729
 30
0.0
 10
777.7526920696602
 20
548.8264283038603
 30
0.0
 10
778.1141121177886
 20
548.2880918188578
 30
0.0
  0
LWPOLYLINE
  5
11A
330
1F
100
AcDbEntity
  8
0
  6
Continuous
 62
     7
370
    25
100
AcDbPolyline
 90
        9
 70
   128
 43
0.0
 10
778.1141121183
 20
548.2880918192
 10
778.1061356003
 20
548.2827367726
 10
778.0825126768
 20
548.2668772795
 10
778.0441511634
 20
548.2411228113
 10
777.9925252716
 20
548.2064630977
 10
777.9296189554
 20
548.1642300922
 10
777.8578496693
 20
548.1160467854
 10
777.7799754668
 20
548.0637648347
 10
777.6989890097
 20
548.0093934063
  0
LINE
  5
11B
330
1F
100
AcDbEntity
  8
0
  6
Continuous
 62
     7
370
    25
100
AcDbLine
 10
201.921086436
 20
548.0094890082
 30
0.0
 11
201.5058667493
 21
548.2880435122
 31
0.0
  0
SPLINE
  5
11C
330
1F
100
AcDbEntity
  8
0
  6
Continuous
 62
     7
370
    25
100
AcDbSpline
210
0.0
220
0.0
230
1.0
 70
     8
 71
     3
 72
     8
 73
     4
 74
     0
 42
0.000000001
 43
0.00000001
 40
0.0
 40
0.0
 40
0.0
 40
0.0
 40
1.0
 40
1.0
 40
1.0
 40
1.0
 10
201.5058667492659
 20
548.2880435121782
 30
0.0
 10
201.8673125625993
 20
548.8268228721782
 30
0.0
 10
202.280159415266
 20
549.3288237695116
 30
0.0
 10
202.7389313402659
 20
549.7876349761782
 30
0.0
  0
LINE
  5
11D
330
1F
100
AcDbEntity
  8
0
  6
Continuous
 62
     7
370
    25
100
AcDbLine
 10
200.4890475986
 20
544.5523320614
 30
0.0
 11
199.9984416963
 21
544.6487988892
 31
0.0
  0
SPLINE
  5
11E
330
1F
100
AcDbEntity
  8
0
  6
Continuous
 62
     7
370
    25
100
AcDbSpline
210
0.0
220
0.0
230
1.0
 70
     8
 71
     3
 72
    10
 73
     6
 74
     0
 42
0.000000001
 43
0.00000001
 40
0.0
 40
0.0
 40
0.0
 40
0.0
 40
0.5
 40
0.5
 40
1.0
 40
1.0
 40
1.0
 40
1.0
 10
199.998441696266
 20
544.6487988891781
 30
0.0
 10
200.1260860442432
 20
545.2979657785505
 30
0.0
 10
200.3189088790015
 20
545.9347701045525
 30
0.0
 10
200.825750577205
 20
547.1578016613498
 30
0.0
 10
201.1404272941631
 20
547.7433092131021
 30
0.0
 10
201.5058667492659
 20
548.2880435121782
 30
0.0
  0
SPLINE
  5
11F
330
1F
100
AcDbEntity
  8
0
  6
Continuous
 62
     7
370
    25
100
AcDbSpline
210
0.0
220
0.0
230
1.0
 70
     8
 71
     3
 72
    10
 73
     6
 74
     0
 42
0.000000001
 43
0.00000001
 40
0.0
 40
0.0
 40
0.0
 40
0.0
 40
0.5
 40
0.5
 40
1.0
 40
1.0
 40
1.0
 40
1.0
 10
778.114112118266
 20
548.2880918191781
 30
0.0
 10
778.4828842367893
 20
547.7388033369305
 30
0.0
 10
778.7968265606461
 20
547.1521683568166
 30
0.0
 10
779.3032492597256
 20
545.9289632705509
 30
0.0
 10
779.4947555995035
 20
545.2924368084405
 30
0.0
 10
779.6215361932659
 20
544.6488467921781
 30
0.0
  0
LWPOLYLINE
  5
120
330
1F
100
AcDbEntity
  8
0
  6
Continuous
 62
     7
370
    25
100
AcDbPolyline
 90
        9
 70
   128
 43
0.0
 10
779.6215361933
 20
544.6488467922
 10
779.6121099538
 20
544.6469900822
 10
779.5841935419
 20
544.6414909929
 10
779.5388597697
 20
544.632560851
 10
779.4778507886
 20
544.6205428369
 10
779.4035111395
 20
544.6058987962
 10
779.3186976534
 20
544.5891914912
 10
779.2266696651
 20
544.5710629741
 10
779.1309637585
 20
544.5522099138
  0
LINE
  5
121
330
1F
100
AcDbEntity
  8
0
  6
Continuous
 62
     7
370
    25
100
AcDbLine
 10
200.3099991523
 20
542.7165897644
 30
0.0
 11
199.8099991523
 21
542.7165671642
 31
0.0
  0
SPLINE
  5
122
330
1F
100
AcDbEntity
  8
0
  6
Continuous
 62
     7
370
    25
100
AcDbSpline
210
0.0
220
0.0
230
1.0
 70
     8
 71
     3
 72
     8
 73
     4
 74
     0
 42
0.000000001
 43
0.00000001
 40
0.0
 40
0.0
 40
0.0
 40
0.0
 40
1.0
 40
1.0
 40
1.0
 40
1.0
 10
199.8099991522659
 20
542.7165671641782
 30
0.0
 10
199.8099698544796
 20
543.3647414425309
 30
0.0
 10
199.8733428872582
 20
544.0125749428238
 30
0.0
 10
199.9984416965616
 20
544.6487988891201
 30
0.0
  0
SPLINE
  5
123
330
1F
100
AcDbEntity
  8
0
  6
Continuous
 62
     7
370
    25
100
AcDbSpline
210
0.0
220
0.0
230
1.0
 70
     8
 71
     3
 72
     8
 73
     4
 74
     0
 42
0.000000001
 43
0.00000001
 40
0.0
 40
0.0
 40
0.0
 40
0.0
 40
1.0
 40
1.0
 40
1.0
 40
1.0
 10
779.6215361932659
 20
544.6488467921781
 30
0.0
 10
779.746929948266
 20
544.0122914655115
 30
0.0
 10
779.8099713755993
 20
543.3653964191783
 30
0.0
 10
779.809999152266
 20
542.7165671641782
 30
0.0
  0
LWPOLYLINE
  5
124
330
1F
100
AcDbEntity
  8
0
  6
Continuous
 62
     7
370
    25
100
AcDbPolyline
 90
        9
 70
   128
 43
0.0
 10
779.8099991523
 20
542.7165671642
 10
779.8003917923
 20
542.7165709288
 10
779.7719389182
 20
542.7165737262
 10
779.725733958
 20
542.7165754489
 10
779.6635525423
 20
542.7165760305
 10
779.5877842682
 20
542.7165754489
 10
779.5013408679
 20
542.7165737262
 10
779.4075443127
 20
542.7165709288
 10
779.3099991518
 20
542.7165671642
  0
LINE
  5
125
330
1F
100
AcDbEntity
  8
0
  6
Continuous
 62
     7
370
    25
100
AcDbLine
 10
200.3099991527
 20
122.7165671642
 30
0.0
 11
199.8099991523
 21
122.7165671642
 31
0.0
  0
LINE
  5
126
330
1F
100
AcDbEntity
  8
0
  6
Continuous
 62
     7
370
    25
100
AcDbLine
 10
199.8099991523
 20
122.7165671642
 30
0.0
 11
199.8099991523
 21
542.7165671642
 31
0.0
  0
LINE
  5
127
330
1F
100
AcDbEntity
  8
0
  6
Continuous
 62
     7
370
    25
100
AcDbLine
 10
779.8099991523
 20
542.7165671642
 30
0.0
 11
779.8099991523
 21
122.7165671642
 31
0.0
  0
LWPOLYLINE
  5
128
330
1F
100
AcDbEntity
  8
0
  6
Continuous
 62
     7
370
    25
100
AcDbPolyline
 90
        9
 70
   128
 43
0.0
 10
779.8099991523
 20
122.7165671642
 10
779.8003917925
 20
122.7165627555
 10
779.7719389185
 20
122.7165585163
 10
779.7257339584
 20
122.7165546093
 10
779.6635525429
 20
122.7165511849
 10
779.5877842688
 20
122.7165483745
 10
779.5013408684
 20
122.7165462863
 10
779.4075443133
 20
122.7165450003
 10
779.3099991523
 20
122.7165445661
  0
LINE
  5
129
330
1F
100
AcDbEntity
  8
0
  6
Continuous
 62
     7
370
    25
100
AcDbLine
 10
200.4890345452
 20
120.8809244136
 30
0.0
 11
199.9984621103
 21
120.7842875362
 31
0.0
  0
SPLINE
  5
12A
330
1F
100
AcDbEntity
  8
0
  6
Continuous
 62
     7
370
    25
100
AcDbSpline
210
0.0
220
0.0
230
1.0
 70
     8
 71
     3
 72
     8
 73
     4
 74
     0
 42
0.000000001
 43
0.00000001
 40
0.0
 40
0.0
 40
0.0
 40
0.0
 40
1.0
 40
1.0
 40
1.0
 40
1.0
 10
199.998462110266
 20
120.7842875361782
 30
0.0
 10
199.8730683569326
 20
121.4208428611782
 30
0.0
 10
199.8100269272659
 20
122.0677379091782
 30
0.0
 10
199.8099991522659
 20
122.7165671641782
 30
0.0
  0
SPLINE
  5
12B
330
1F
100
AcDbEntity
  8
0
  6
Continuous
 62
     7
370
    25
100
AcDbSpline
210
0.0
220
0.0
230
1.0
 70
     8
 71
     3
 72
     8
 73
     4
 74
     0
 42
0.000000001
 43
0.00000001
 40
0.0
 40
0.0
 40
0.0
 40
0.0
 40
1.0
 40
1.0
 40
1.0
 40
1.0
 10
779.809999152266
 20
122.7165671641782
 30
0.0
 10
779.8100284472773
 20
122.0683928862113
 30
0.0
 10
779.7466554189485
 20
121.4205593857944
 30
0.0
 10
779.6215566081225
 20
120.7843354400098
 30
0.0
  0
LWPOLYLINE
  5
12C
330
1F
100
AcDbEntity
  8
0
  6
Continuous
 62
     7
370
    25
100
AcDbPolyline
 90
        9
 70
   128
 43
0.0
 10
779.6215566073
 20
120.7843354402
 10
779.6121297676
 20
120.7861891006
 10
779.5842114832
 20
120.791678675
 10
779.538874638
 20
120.8005932022
 10
779.4778615015
 20
120.8125901019
 10
779.4035167743
 20
120.8272083399
 10
779.3186974827
 20
120.8438861457
 10
779.2266631845
 20
120.8619826003
 10
779.130950706
 20
120.8808022674
  0
SPLINE
  5
12D
330
1F
100
AcDbEntity
  8
0
  6
Continuous
 62
     7
370
    25
100
AcDbSpline
210
0.0
220
0.0
230
1.0
 70
     8
 71
     3
 72
    10
 73
     6
 74
     0
 42
0.000000001
 43
0.00000001
 40
0.0
 40
0.0
 40
0.0
 40
0.0
 40
0.5
 40
0.5
 40
1.0
 40
1.0
 40
1.0
 40
1.0
 10
779.6215566072659
 20
120.7843354401782
 30
0.0
 10
779.493912261005
 20
120.1351685570956
 30
0.0
 10
779.3010894324286
 20
119.4983642361849
 30
0.0
 10
778.7942477370493
 20
118.2753326854287
 30
0.0
 10
778.4795710073133
 20
117.6898251067506
 30
0.0
 10
778.114131555266
 20
117.1450908161782
 30
0.0
  0
LWPOLYLINE
  5
12E
330
1F
100
AcDbEntity
  8
0
  6
Continuous
 62
     7
370
    25
100
AcDbPolyline
 90
        9
 70
   128
 43
0.0
 10
778.1141315553
 20
117.1450908162
 10
778.1061533054
 20
117.1504432821
 10
778.082524978
 20
117.166294723
 10
778.0441545964
 20
117.192035977
 10
777.992516713
 20
117.2266778222
 10
777.9295957426
 20
117.2688889918
 10
777.8578097028
 20
117.3170473343
 10
777.7799172908
 20
117.3693021515
 10
777.6989118685
 20
117.4236453202
  0
LINE
  5
12F
330
1F
100
AcDbEntity
  8
0
  6
Continuous
 62
     7
370
    25
100
AcDbLine
 10
201.921009294
 20
117.4237409217
 30
0.0
 11
201.5058861863
 21
117.1450425092
 31
0.0
  0
SPLINE
  5
130
330
1F
100
AcDbEntity
  8
0
  6
Continuous
 62
     7
370
    25
100
AcDbSpline
210
0.0
220
0.0
230
1.0
 70
     8
 71
     3
 72
    10
 73
     6
 74
     0
 42
0.000000001
 43
0.00000001
 40
0.0
 40
0.0
 40
0.0
 40
0.0
 40
0.5
 40
0.5
 40
1.0
 40
1.0
 40
1.0
 40
1.0
 10
201.505886186266
 20
117.1450425091782
 30
0.0
 10
201.1371140666908
 20
117.6943309924614
 30
0.0
 10
200.823171744033
 20
118.2809659676541
 30
0.0
 10
200.3167490473192
 20
119.5041710493346
 30
0.0
 10
200.1252427053199
 20
120.140697517863
 30
0.0
 10
199.998462110266
 20
120.7842875361782
 30
0.0
  0
LINE
  5
131
330
1F
100
AcDbEntity
  8
0
  6
Continuous
 62
     7
370
    25
100
AcDbLine
 10
203.0924687494
 20
115.9990687235
 30
0.0
 11
202.7389313403
 21
115.6454993522
 31
0.0
  0
SPLINE
  5
132
330
1F
100
AcDbEntity
  8
0
  6
Continuous
 62
     7
370
    25
100
AcDbSpline
210
0.0
220
0.0
230
1.0
 70
     8
 71
     3
 72
     8
 73
     4
 74
     0
 42
0.000000001
 43
0.00000001
 40
0.0
 40
0.0
 40
0.0
 40
0.0
 40
1.0
 40
1.0
 40
1.0
 40
1.0
 10
202.7389313402659
 20
115.6454993521782
 30
0.0
 10
202.2805821949649
 20
116.1038070632671
 30
0.0
 10
201.8673062360251
 20
116.6067060251806
 30
0.0
 10
201.505886186054
 20
117.1450425090359
 30
0.0
  0
SPLINE
  5
133
330
1F
100
AcDbEntity
  8
0
  6
Continuous
 62
     7
370
    25
100
AcDbSpline
210
0.0
220
0.0
230
1.0
 70
     8
 71
     3
 72
     8
 73
     4
 74
     0
 42
0.000000001
 43
0.00000001
 40
0.0
 40
0.0
 40
0.0
 40
0.0
 40
1.0
 40
1.0
 40
1.0
 40
1.0
 10
778.114131555266
 20
117.1450908161782
 30
0.0
 10
777.7526857419327
 20
116.6063114561782
 30
0.0
 10
777.339838889266
 20
116.1043105588448
 30
0.0
 10
776.881066964266
 20
115.6454993521782
 30
0.0
  0
LWPOLYLINE
  5
134
330
1F
100
AcDbEntity
  8
0
  6
Continuous
 62
     7
370
    25
100
AcDbPolyline
 90
        9
 70
   128
 43
0.0
 10
776.8810669643
 20
115.6454993522
 10
776.8742730794
 20
115.6522923259
 10
776.8541528396
 20
115.6724105262
 10
776.8214794544
 20
115.7050808221
 10
776.7775085436
 20
115.7490477124
 10
776.7239298846
 20
115.8026215742
 10
776.6628024753
 20
115.8637435939
 10
776.5964754078
 20
115.9300648866
 10
776.527497594
 20
115.9990367624
  0
SPLINE
  5
135
330
1F
100
AcDbEntity
  8
0
  6
Continuous
 62
     7
370
    25
100
AcDbSpline
210
0.0
220
0.0
230
1.0
 70
     8
 71
     3
 72
     8
 73
     4
 74
     0
 42
0.000000001
 43
0.00000001
 40
0.0
 40
0.0
 40
0.0
 40
0.0
 40
1.0
 40
1.0
 40
1.0
 40
1.0
 10
776.881066964266
 20
115.6454993521782
 30
0.0
 10
776.4227592522974
 20
115.1871502087723
 30
0.0
 10
775.9198602894854
 20
114.7738742499101
 30
0.0
 10
775.3815238074083
 20
114.4124541979662
 30
0.0
  0
LWPOLYLINE
  5
136
330
1F
100
AcDbEntity
  8
0
  6
Continuous
 62
     7
370
    25
100
AcDbPolyline
 90
        9
 70
   128
 43
0.0
 10
775.3815238073
 20
114.4124541982
 10
775.3761687613
 20
114.4204307165
 10
775.3603092686
 20
114.4440536403
 10
775.3345548007
 20
114.4824151538
 10
775.2998950873
 20
114.5340410456
 10
775.2576620818
 20
114.5969473616
 10
775.2094787748
 20
114.6687166474
 10
775.1571968239
 20
114.7465908496
 10
775.1028253951
 20
114.8275773062
  0
LINE
  5
137
330
1F
100
AcDbEntity
  8
0
  6
Continuous
 62
     7
370
    25
100
AcDbLine
 10
204.5170773083
 20
114.827654448
 30
0.0
 11
204.2385228043
 21
114.4124347612
 31
0.0
  0
SPLINE
  5
138
330
1F
100
AcDbEntity
  8
0
  6
Continuous
 62
     7
370
    25
100
AcDbSpline
210
0.0
220
0.0
230
1.0
 70
     8
 71
     3
 72
     8
 73
     4
 74
     0
 42
0.000000001
 43
0.00000001
 40
0.0
 40
0.0
 40
0.0
 40
0.0
 40
1.0
 40
1.0
 40
1.0
 40
1.0
 10
204.238522804266
 20
114.4124347611782
 30
0.0
 10
203.699743444266
 20
114.7738805745116
 30
0.0
 10
203.1977425469326
 20
115.1867274271782
 30
0.0
 10
202.7389313402659
 20
115.6454993521782
 30
0.0
  0
LINE
  5
139
330
1F
100
AcDbEntity
  8
0
  6
Continuous
 62
     7
370
    25
100
AcDbLine
 10
207.9742342548
 20
113.3956156106
 30
0.0
 11
207.8777674281
 21
112.9050097083
 31
0.0
  0
SPLINE
  5
13A
330
1F
100
AcDbEntity
  8
0
  6
Continuous
 62
     7
370
    25
100
AcDbSpline
210
0.0
220
0.0
230
1.0
 70
     8
 71
     3
 72
    10
 73
     6
 74
     0
 42
0.000000001
 43
0.00000001
 40
0.0
 40
0.0
 40
0.0
 40
0.0
 40
0.5
 40
0.5
 40
1.0
 40
1.0
 40
1.0
 40
1.0
 10
207.8777674282659
 20
112.9050097091782
 30
0.0
 10
207.2286005426354
 20
113.0326540549524
 30
0.0
 10
206.5917962150414
 20
113.2254768923004
 30
0.0
 10
205.3687646531283
 20
113.7323185915307
 30
0.0
 10
204.7832570970645
 20
114.0469953088565
 30
0.0
 10
204.238522804266
 20
114.4124347611782
 30
0.0
  0
SPLINE
  5
13B
330
1F
100
AcDbEntity
  8
0
  6
Continuous
 62
     7
370
    25
100
AcDbSpline
210
0.0
220
0.0
230
1.0
 70
     8
 71
     3
 72
    10
 73
     6
 74
     0
 42
0.000000001
 43
0.00000001
 40
0.0
 40
0.0
 40
0.0
 40
0.0
 40
0.5
 40
0.5
 40
1.0
 40
1.0
 40
1.0
 40
1.0
 10
775.381523807266
 20
114.4124541981782
 30
0.0
 10
774.832235329682
 20
114.0436820830985
 30
0.0
 10
774.2456003465542
 20
113.7297397603525
 30
0.0
 10
773.0223952573409
 20
113.2233170582751
 30
0.0
 10
772.3858687925512
 20
113.0318107145086
 30
0.0
 10
771.7422787802659
 20
112.9050301231782
 30
0.0
  0
LINE
  5
13C
330
1F
100
AcDbEntity
  8
0
  6
Continuous
 62
     7
370
    25
100
AcDbLine
 10
771.6456411037
 20
113.3956024007
 30
0.0
 11
771.7422787803
 21
112.9050301232
 31
0.0
  0
LINE
  5
13D
330
1F
100
AcDbEntity
  8
0
  6
Continuous
 62
     7
370
    25
100
AcDbLine
 10
209.809976552
 20
113.2165671642
 30
0.0
 11
209.8099991523
 21
112.7165671642
 31
0.0
  0
SPLINE
  5
13E
330
1F
100
AcDbEntity
  8
0
  6
Continuous
 62
     7
370
    25
100
AcDbSpline
210
0.0
220
0.0
230
1.0
 70
     8
 71
     3
 72
     8
 73
     4
 74
     0
 42
0.000000001
 43
0.00000001
 40
0.0
 40
0.0
 40
0.0
 40
0.0
 40
1.0
 40
1.0
 40
1.0
 40
1.0
 10
209.809999152266
 20
112.7165671641782
 30
0.0
 10
209.1618248741672
 20
112.7165378663921
 30
0.0
 10
208.5139913743856
 20
112.7799109006406
 30
0.0
 10
207.8777674280974
 20
112.9050097083216
 30
0.0
  0
SPLINE
  5
13F
330
1F
100
AcDbEntity
  8
0
  6
Continuous
 62
     7
370
    25
100
AcDbSpline
210
0.0
220
0.0
230
1.0
 70
     8
 71
     3
 72
     8
 73
     4
 74
     0
 42
0.000000001
 43
0.00000001
 40
0.0
 40
0.0
 40
0.0
 40
0.0
 40
1.0
 40
1.0
 40
1.0
 40
1.0
 10
771.7422787802659
 20
112.9050301231782
 30
0.0
 10
771.105723455266
 20
112.7796363681782
 30
0.0
 10
770.458828407266
 20
112.7165949408449
 30
0.0
 10
769.809999152266
 20
112.7165671641782
 30
0.0
  0
LINE
  5
140
330
1F
100
AcDbEntity
  8
0
  6
Continuous
 62
     7
370
    25
100
AcDbLine
 10
769.8099991523
 20
113.2165671647
 30
0.0
 11
769.8099991523
 21
112.7165671642
 31
0.0
  0
LINE
  5
141
330
1F
100
AcDbEntity
  8
0
  6
Continuous
 62
     7
370
    25
100
AcDbLine
 10
769.8099991523
 20
112.7165671642
 30
0.0
 11
209.8099991523
 21
112.7165671642
 31
0.0
  0
SPLINE
  5
142
330
1F
100
AcDbEntity
  8
0
  6
Continuous
 62
     7
370
    25
100
AcDbSpline
210
0.0
220
0.0
230
1.0
 70
     8
 71
     3
 72
    10
 73
     6
 74
     0
 42
0.000000001
 43
0.00000001
 40
0.0
 40
0.0
 40
0.0
 40
0.0
 40
0.2844242217966922
 40
0.6177583370034496
 40
1.0
 40
1.0
 40
1.0
 40
1.0
 10
580.809999152388
 20
147.7165083421791
 30
0.0
 10
580.8107389146537
 20
147.7236077805941
 30
0.0
 10
580.8123456494959
 20
147.7390274844476
 30
0.0
 10
580.82575954327
 20
147.7635695925931
 30
0.0
 10
580.84476221336
 20
147.7809604619243
 30
0.0
 10
580.8549129373474
 20
147.7902502045575
 30
0.0
  0
SPLINE
  5
143
330
1F
100
AcDbEntity
  8
0
  6
Continuous
 62
     7
370
    25
100
AcDbSpline
210
0.0
220
0.0
230
1.0
 70
     8
 71
     3
 72
    29
 73
    25
 74
     0
 42
0.000000001
 43
0.00000001
 40
0.0
 40
0.0
 40
0.0
 40
0.0
 40
0.0154968892968589
 40
0.0309939013877311
 40
0.0464910348079255
 40
0.061988292406873
 40
0.0814089881905079
 40
0.1172925361411064
 40
0.1837601384597909
 40
0.243134421948717
 40
0.3752377521867623
 40
0.494573290091171
 40
0.5598292058627536
 40
0.6236480807356608
 40
0.6860315303890516
 40
0.74698118525647
 40
0.7789750813651846
 40
0.8108636913175441
 40
0.8426472796216548
 40
0.8743261254538981
 40
0.9059005232136013
 40
0.9373707759582908
 40
0.9687371800455562
 40
1.0
 40
1.0
 40
1.0
 40
1.0
 10
743.8610886642044
 20
148.6620930507794
 30
0.0
 10
743.8690081288756
 20
148.5408428750125
 30
0.0
 10
743.8848471209701
 20
148.2983415627182
 30
0.0
 10
743.9088808882194
 20
147.9348633054311
 30
0.0
 10
743.9330518219099
 20
147.5718499703245
 30
0.0
 10
743.959712740367
 20
147.1789643031639
 30
0.0
 10
743.9961963556831
 20
146.6286563268207
 30
0.0
 10
744.0582140900017
 20
145.6875073116769
 30
0.0
 10
744.139390817357
 20
144.4555829021806
 30
0.0
 10
744.2643666337672
 20
142.5490090197167
 30
0.0
 10
744.4047289612548
 20
140.3826504167678
 30
0.0
 10
744.5288890138937
 20
138.4508988667274
 30
0.0
 10
744.6119186007405
 20
137.1352732020596
 30
0.0
 10
744.6679009961202
 20
136.2379333364871
 30
0.0
 10
744.7144399336283
 20
135.4814354829745
 30
0.0
 10
744.7460108891813
 20
134.9572562606095
 30
0.0
 10
744.7668236554382
 20
134.6019426543395
 30
0.0
 10
744.7803732024406
 20
134.3649332547595
 30
0.0
 10
744.7914716243517
 20
134.1643836444046
 30
0.0
 10
744.8001219986619
 20
134.0004984618767
 30
0.0
 10
744.8063460895382
 20
133.873095006444
 30
0.0
 10
744.8100899056295
 20
133.7830205548733
 30
0.0
 10
744.8115820854939
 20
133.7268342994197
 30
0.0
 10
744.8105262145643
 20
133.7199857669356
 30
0.0
 10
744.809999152266
 20
133.7165671641782
 30
0.0
  0
SPLINE
  5
144
330
1F
100
AcDbEntity
  8
0
  6
Continuous
 62
     7
370
    25
100
AcDbSpline
210
0.0
220
0.0
230
1.0
 70
     8
 71
     3
 72
    13
 73
     9
 74
     0
 42
0.000000001
 43
0.00000001
 40
0.0
 40
0.0
 40
0.0
 40
0.0
 40
0.1509762102835392
 40
0.3183435617439312
 40
0.5021021509800465
 40
0.7456117724459114
 40
0.8885832549245254
 40
1.0
 40
1.0
 40
1.0
 40
1.0
 10
669.8099986305049
 20
148.3742702446157
 30
0.0
 10
673.5366665691927
 20
148.3862402033235
 30
0.0
 10
681.3945982447246
 20
148.4114796717257
 30
0.0
 10
693.7883487851665
 20
148.4574885874178
 30
0.0
 10
708.4661355908182
 20
148.51606703515
 30
0.0
 10
722.5417160859023
 20
148.5758688686704
 30
0.0
 10
734.8316555643564
 20
148.6269549574976
 30
0.0
 10
741.1109072211044
 20
148.6513907079824
 30
0.0
 10
743.861088657688
 20
148.6620930577282
 30
0.0
  0
SPLINE
  5
145
330
1F
100
AcDbEntity
  8
0
  6
Continuous
 62
     7
370
    25
100
AcDbSpline
210
0.0
220
0.0
230
1.0
 70
     8
 71
     3
 72
    48
 73
    44
 74
     0
 42
0.000000001
 43
0.00000001
 40
0.0
 40
0.0
 40
0.0
 40
0.0
 40
0.0138825539673235
 40
0.0276168594799789
 40
0.0413868212772209
 40
0.0551782288152703
 40
0.0689769417113517
 40
0.0866938739937054
 40
0.1043888874438794
 40
0.1351992117131571
 40
0.1506281339751466
 40
0.166017518304083
 40
0.1814036357639632
 40
0.1968418305138054
 40
0.212256283667375
 40
0.2276723545135342
 40
0.2430900802224656
 40
0.2585094471614694
 40
0.2739304409552381
 40
0.281623008474594
 40
0.2893534078589798
 40
0.2970847181329666
 40
0.3047779917157505
 40
0.3124704907545935
 40
0.3202042347897158
 40
0.3279387879352034
 40
0.3356321129696671
 40
0.3433246887735523
 40
0.3510616825442811
 40
0.35879938947724
 40
0.3664929160356187
 40
0.3741857395450618
 40
0.3819258795902915
 40
0.3973574313074796
 40
0.4436644796192584
 40
0.4695111174583864
 40
0.505435172755573
 40
0.6561303045719881
 40
0.7797379238577961
 40
0.876033537251838
 40
0.9448844863546593
 40
0.9862180843288856
 40
0.9999999999999999
 40
0.9999999999999999
 40
0.9999999999999999
 40
0.9999999999999999
 10
744.049273475266
 20
517.0105999941782
 30
0.0
 10
744.1567552316897
 20
517.0175634047498
 30
0.0
 10
744.3705709727128
 20
517.0314158653065
 30
0.0
 10
744.6906587626279
 20
517.0527549925125
 30
0.0
 10
745.0096831684743
 20
517.0734548070094
 30
0.0
 10
745.3286669179485
 20
517.093894687132
 30
0.0
 10
745.6773498164071
 20
517.1158215452358
 30
0.0
 10
746.0549587652216
 20
517.1392631903245
 30
0.0
 10
746.5608923131376
 20
517.1719141374593
 30
0.0
 10
747.0461835662836
 20
517.2023789092349
 30
0.0
 10
747.5101895847715
 20
517.2296084483802
 30
0.0
 10
747.8558649192721
 20
517.2515370010514
 30
0.0
 10
748.199293932541
 20
517.2735436848441
 30
0.0
 10
748.540574789545
 20
517.2926572628988
 30
0.0
 10
748.8792787845379
 20
517.3132500733572
 30
0.0
 10
749.2149805901779
 20
517.3330381688272
 30
0.0
 10
749.5476426192342
 20
517.3525405700982
 30
0.0
 10
749.8770644012673
 20
517.3719206855401
 30
0.0
 10
750.1486462428411
 20
517.3869386296394
 30
0.0
 10
750.3641103292537
 20
517.4006233649577
 30
0.0
 10
750.5250248904624
 20
517.4089587810073
 30
0.0
 10
750.6849842189993
 20
517.4171902620033
 30
0.0
 10
750.8436156227228
 20
517.4269945963676
 30
0.0
 10
751.001263321218
 20
517.4367743762616
 30
0.0
 10
751.1582603057872
 20
517.4446731095626
 30
0.0
 10
751.3142145974466
 20
517.4524007184846
 30
0.0
 10
751.4687296721829
 20
517.4618969740718
 30
0.0
 10
751.622172125566
 20
517.4713606149037
 30
0.0
 10
751.7748918095854
 20
517.4787520219718
 30
0.0
 10
751.9264795419635
 20
517.4859728452387
 30
0.0
 10
752.0765258661974
 20
517.49512026829
 30
0.0
 10
752.2254086150492
 20
517.5043215027515
 30
0.0
 10
752.4226602302733
 20
517.5131082784591
 30
0.0
 10
752.8609392439978
 20
517.5377767433928
 30
0.0
 10
753.3946438910318
 20
517.5645778776053
 30
0.0
 10
754.0226986101611
 20
517.5962653789377
 30
0.0
 10
755.2040067441873
 20
517.6535821655547
 30
0.0
 10
756.6847552798124
 20
517.71702772559
 30
0.0
 10
757.9194862331096
 20
517.752090636455
 30
0.0
 10
758.5212543152487
 20
517.7533574436442
 30
0.0
 10
758.7481068089236
 20
517.7400731618483
 30
0.0
 10
758.8045201817584
 20
517.7266710984545
 30
0.0
 10
758.8088323757735
 20
517.7193148632833
 30
0.0
 10
758.80991066191
 20
517.7174753991093
 30
0.0
  0
SPLINE
  5
146
330
1F
100
AcDbEntity
  8
0
  6
Continuous
 62
     7
370
    25
100
AcDbSpline
210
0.0
220
0.0
230
1.0
 70
     8
 71
     3
 72
    29
 73
    25
 74
     0
 42
0.000000001
 43
0.00000001
 40
0.0
 40
0.0
 40
0.0
 40
0.0
 40
0.0167731576890293
 40
0.0364996087336704
 40
0.0591796615768578
 40
0.0848136657843088
 40
0.1134020202333161
 40
0.1449451760859499
 40
0.2198183257319783
 40
0.2870887522806532
 40
0.3979733295474295
 40
0.500408109479319
 40
0.564880420211463
 40
0.6279589309315079
 40
0.6896439485103478
 40
0.7499358181767445
 40
0.7815828601940786
 40
0.8131185092405678
 40
0.8445428721301657
 40
0.8758560706213495
 40
0.9070582415899922
 40
0.9381495308580481
 40
0.9691300792812011
 40
1.0
 40
1.0
 40
1.0
 40
1.0
 10
744.0492734342641
 20
517.010599993176
 30
0.0
 10
744.0580368488286
 20
517.140438868315
 30
0.0
 10
744.077106675077
 20
517.4229776859216
 30
0.0
 10
744.1072134437333
 20
517.8804705891126
 30
0.0
 10
744.1412855054955
 20
518.4051935778211
 30
0.0
 10
744.179127185027
 20
518.9958011465743
 30
0.0
 10
744.2206212618489
 20
519.6503328771267
 30
0.0
 10
744.284930100673
 20
520.6710845665209
 30
0.0
 10
744.3646419709199
 20
521.9587316071012
 30
0.0
 10
744.4727628950941
 20
523.7573070430401
 30
0.0
 10
744.5797613589519
 20
525.6202877330536
 30
0.0
 10
744.6678286238424
 20
527.2516675817077
 30
0.0
 10
744.7271680505237
 20
528.4363801564282
 30
0.0
 10
744.7672269930741
 20
529.2981085444982
 30
0.0
 10
744.7976854435022
 20
530.0243165912776
 30
0.0
 10
744.8156107082584
 20
530.5272683635304
 30
0.0
 10
744.8253659619271
 20
530.8680787522467
 30
0.0
 10
744.830406566622
 20
531.0953042940448
 30
0.0
 10
744.8330107941487
 20
531.2874891280013
 30
0.0
 10
744.8332021338107
 20
531.4444812052208
 30
0.0
 10
744.8310220964564
 20
531.5664968846024
 30
0.0
 10
744.8264392256372
 20
531.6527645163359
 30
0.0
 10
744.8196925088348
 20
531.706608521694
 30
0.0
 10
744.8132291469311
 20
531.7132515773433
 30
0.0
 10
744.810003246266
 20
531.7165671641783
 30
0.0
  0
SPLINE
  5
147
330
1F
100
AcDbEntity
  8
0
  6
Continuous
 62
     7
370
    25
100
AcDbSpline
210
0.0
220
0.0
230
1.0
 70
     8
 71
     3
 72
    27
 73
    23
 74
     0
 42
0.000000001
 43
0.00000001
 40
0.0
 40
0.0
 40
0.0
 40
0.0
 40
0.0159159947269693
 40
0.062314027388546
 40
0.0942003374943589
 40
0.1244245190691345
 40
0.1896949686329044
 40
0.2482509831584021
 40
0.3793812502267273
 40
0.4980570799161801
 40
0.5628431986241856
 40
0.6262209903630831
 40
0.6881907243686239
 40
0.7487527346454957
 40
0.7805517656732311
 40
0.8122382273082307
 40
0.8438122267908819
 40
0.8752738872240868
 40
0.906623348195699
 40
0.937860760001893
 40
0.9689862700086092
 40
1.0
 40
1.0
 40
1.0
 40
1.0
 10
595.5709207592237
 20
517.0119814591869
 30
0.0
 10
595.4476995310486
 20
517.0200226533044
 30
0.0
 10
594.9652659088295
 20
517.0515053974917
 30
0.0
 10
594.2372206898697
 20
517.0984811813529
 30
0.0
 10
593.4045049068505
 20
517.1514008671234
 30
0.0
 10
592.4346428935003
 20
517.2120541713776
 30
0.0
 10
591.279137396917
 20
517.2826473865875
 30
0.0
 10
589.425706903605
 20
517.3924784849087
 30
0.0
 10
587.3155746313334
 20
517.5103013971756
 30
0.0
 10
585.434178287725
 20
517.6064664690649
 30
0.0
 10
584.1529350120076
 20
517.6653118273973
 30
0.0
 10
583.2794689065508
 20
517.7015880694631
 30
0.0
 10
582.5425109926729
 20
517.7280812611631
 30
0.0
 10
582.031236430602
 20
517.7425299379054
 30
0.0
 10
581.6841626555514
 20
517.749391788147
 30
0.0
 10
581.4523583312158
 20
517.7521659037402
 30
0.0
 10
581.2558873636231
 20
517.7524657780735
 30
0.0
 10
581.0949116756069
 20
517.7503191150754
 30
0.0
 10
580.9692207268184
 20
517.7457717849513
 30
0.0
 10
580.8796002528213
 20
517.7387958143573
 30
0.0
 10
580.8227011249165
 20
517.7296362507053
 30
0.0
 10
580.8142906789551
 20
517.7215454849593
 30
0.0
 10
580.8100930205967
 20
517.7175073791782
 30
0.0
  0
SPLINE
  5
148
330
1F
100
AcDbEntity
  8
0
  6
Continuous
 62
     7
370
    25
100
AcDbSpline
210
0.0
220
0.0
230
1.0
 70
     8
 71
     3
 72
    68
 73
    64
 74
     0
 42
0.000000001
 43
0.00000001
 40
0.0
 40
0.0
 40
0.0
 40
0.0
 40
0.1250000000000004
 40
0.1250000000000004
 40
0.1875000000000009
 40
0.1875000000000009
 40
0.218750000000001
 40
0.218750000000001
 40
0.2343750000000011
 40
0.2343750000000011
 40
0.2421875000000011
 40
0.2421875000000011
 40
0.2500000000000012
 40
0.2500000000000012
 40
0.2578125000000013
 40
0.2578125000000013
 40
0.2656250000000013
 40
0.2656250000000013
 40
0.2734375000000014
 40
0.2734375000000014
 40
0.2812500000000016
 40
0.2812500000000016
 40
0.3125000000000016
 40
0.3125000000000016
 40
0.3750000000000014
 40
0.3750000000000014
 40
0.4375000000000014
 40
0.4375000000000014
 40
0.5000000000000013
 40
0.5000000000000013
 40
0.5625000000000013
 40
0.5625000000000013
 40
0.5937500000000013
 40
0.5937500000000013
 40
0.6250000000000012
 40
0.6250000000000012
 40
0.6562500000000012
 40
0.6562500000000012
 40
0.6718750000000011
 40
0.6718750000000011
 40
0.6875000000000011
 40
0.6875000000000011
 40
0.718750000000001
 40
0.718750000000001
 40
0.7500000000000009
 40
0.7500000000000009
 40
0.7656250000000009
 40
0.7656250000000009
 40
0.7734375000000009
 40
0.7734375000000009
 40
0.7812500000000009
 40
0.7812500000000009
 40
0.7890625000000009
 40
0.7890625000000009
 40
0.7968750000000009
 40
0.7968750000000009
 40
0.8125000000000009
 40
0.8125000000000009
 40
0.8750000000000006
 40
0.8750000000000006
 40
0.9375000000000002
 40
0.9375000000000002
 40
1.0
 40
1.0
 40
1.0
 40
1.0
 10
595.7588855073677
 20
148.6620213029581
 30
0.0
 10
595.7006161214479
 20
164.0173371233901
 30
0.0
 10
595.6178689116779
 20
179.3739601794788
 30
0.0
 10
595.477622982934
 20
202.4171910279622
 30
0.0
 10
595.4284364703392
 20
210.0994087832768
 30
0.0
 10
595.3532749587897
 20
221.6231814140265
 30
0.0
 10
595.3279743015332
 20
225.4644998291391
 30
0.0
 10
595.2896956394992
 20
231.226295306704
 30
0.0
 10
595.2768792907825
 20
233.14686267261
 30
0.0
 10
595.2575523485963
 20
236.0276261109172
 30
0.0
 10
595.2510564147898
 20
236.9931961289982
 30
0.0
 10
595.2382909022235
 20
238.8853275204836
 30
0.0
 10
595.2320540839313
 20
239.8070778078059
 30
0.0
 10
595.2198304841245
 20
241.6075168305669
 30
0.0
 10
595.2138301360278
 20
242.4881933946175
 30
0.0
 10
595.2017018294142
 20
244.261535969602
 30
0.0
 10
595.1955603043154
 20
245.1561898091478
 30
0.0
 10
595.1828703191372
 20
246.9984091521136
 30
0.0
 10
595.1763082924756
 20
247.9479624841455
 30
0.0
 10
595.1630032997138
 20
249.8671393889369
 30
0.0
 10
595.156321185757
 20
250.8278718391715
 30
0.0
 10
595.1228233785674
 20
255.6288905935117
 30
0.0
 10
595.0957017579076
 20
259.469781296365
 30
0.0
 10
595.0131706253798
 20
270.9922718604486
 30
0.0
 10
594.9567573866284
 20
278.6761453899796
 30
0.0
 10
594.8358138325767
 20
294.0509898184549
 30
0.0
 10
594.7712362993354
 20
301.7405716747541
 30
0.0
 10
594.6240016484671
 20
317.1080707444565
 30
0.0
 10
594.5412973128991
 20
324.7845989152148
 30
0.0
 10
594.3447271248915
 20
340.1302448913916
 30
0.0
 10
594.2307192997276
 20
347.8015404815376
 30
0.0
 10
594.026167455309
 20
359.3065394726777
 30
0.0
 10
593.9519405923904
 20
363.1385632641629
 30
0.0
 10
593.7936157927043
 20
370.7977853947162
 30
0.0
 10
593.7095773044482
 20
374.6264974381888
 30
0.0
 10
593.5424712300863
 20
382.3012393319114
 30
0.0
 10
593.4594366155198
 20
386.1497037703987
 30
0.0
 10
593.3490955764328
 20
391.9292302770783
 30
0.0
 10
593.3149049602254
 20
393.8466777266004
 30
0.0
 10
593.2537363877691
 20
397.69189168716
 30
0.0
 10
593.2266672273296
 20
399.6249627319361
 30
0.0
 10
593.1609265122979
 20
405.4229300499073
 30
0.0
 10
593.1383563320497
 20
409.2938686175177
 30
0.0
 10
593.1459329071583
 20
417.0358150439395
 30
0.0
 10
593.1759590017265
 20
420.9064873329747
 30
0.0
 10
593.2546926378749
 20
426.7068781185415
 30
0.0
 10
593.2864255831824
 20
428.6394421394757
 30
0.0
 10
593.3405480731271
 20
431.5362727809255
 30
0.0
 10
593.3596553901324
 20
432.5009937466447
 30
0.0
 10
593.3997878504921
 20
434.4340225582994
 30
0.0
 10
593.4208210719022
 20
435.4026981204406
 30
0.0
 10
593.464442346374
 20
437.3398240718558
 30
0.0
 10
593.4870186019078
 20
438.3077011844232
 30
0.0
 10
593.533368113469
 20
440.2379749539932
 30
0.0
 10
593.5571533680125
 20
441.2009267294171
 30
0.0
 10
593.6301679959668
 20
444.0907391552303
 30
0.0
 10
593.6809984710975
 20
446.0163236547063
 30
0.0
 10
593.9421882141245
 20
455.64021970265
 30
0.0
 10
594.1711473286193
 20
463.3265616413609
 30
0.0
 10
594.618878449293
 20
478.6898570970423
 30
0.0
 10
594.8406638129609
 20
486.3678407840658
 30
0.0
 10
595.2465040665674
 20
501.7079642499158
 30
0.0
 10
595.4292999894449
 20
509.3695236955226
 30
0.0
 10
595.570920641802
 20
517.0119814613256
 30
0.0
  0
SPLINE
  5
149
330
1F
100
AcDbEntity
  8
0
  6
Continuous
 62
     7
370
    25
100
AcDbSpline
210
0.0
220
0.0
230
1.0
 70
     8
 71
     3
 72
     8
 73
     4
 74
     0
 42
0.000000001
 43
0.00000001
 40
0.0
 40
0.0
 40
0.0
 40
0.0
 40
1.0
 40
1.0
 40
1.0
 40
1.0
 10
580.8100930205967
 20
517.7175073791782
 30
0.0
 10
580.8100304415079
 20
517.7171939773528
 30
0.0
 10
580.8099991521977
 20
517.7168805743178
 30
0.0
 10
580.809999152266
 20
517.7165671721782
 30
0.0
  0
SPLINE
  5
14A
330
1F
100
AcDbEntity
  8
0
  6
Continuous
 62
     7
370
    25
100
AcDbSpline
210
0.0
220
0.0
230
1.0
 70
     8
 71
     3
 72
    20
 73
    16
 74
     0
 42
0.000000001
 43
0.00000001
 40
0.0
 40
0.0
 40
0.0
 40
0.0
 40
0.1249999999999993
 40
0.1249999999999993
 40
0.2499999999999987
 40
0.2499999999999987
 40
0.4999999999999989
 40
0.4999999999999989
 40
0.7499999999999992
 40
0.7499999999999992
 40
0.8750000000000017
 40
0.8750000000000017
 40
0.9375000000000009
 40
0.9375000000000009
 40
1.0
 40
1.0
 40
1.0
 40
1.0
 10
758.809999152266
 20
147.7165671871782
 30
0.0
 10
758.8099991530136
 20
147.7132986537731
 30
0.0
 10
758.7126244901956
 20
147.716521984972
 30
0.0
 10
758.3272468180289
 20
147.7357966626886
 30
0.0
 10
758.0392514056716
 20
147.7518474449572
 30
0.0
 10
756.9071952249844
 20
147.8182211842576
 30
0.0
 10
755.7921391876233
 20
147.8869674742528
 30
0.0
 10
753.0183272747323
 20
148.0624602286673
 30
0.0
 10
751.3609630894758
 20
148.1691126701876
 30
0.0
 10
748.657073014319
 20
148.3453657718013
 30
0.0
 10
747.719929585937
 20
148.4067993916536
 30
0.0
 10
746.2865862927812
 20
148.501248750425
 30
0.0
 10
745.8042239777135
 20
148.5331145545836
 30
0.0
 10
744.834510238778
 20
148.5972956506463
 30
0.0
 10
744.3457570382701
 20
148.629122151066
 30
0.0
 10
743.861088657266
 20
148.6620930581782
 30
0.0
  0
SPLINE
  5
14B
330
1F
100
AcDbEntity
  8
0
  6
Continuous
 62
     7
370
    25
100
AcDbSpline
210
0.0
220
0.0
230
1.0
 70
     8
 71
     3
 72
    12
 73
     8
 74
     0
 42
0.000000001
 43
0.00000001
 40
0.0
 40
0.0
 40
0.0
 40
0.0
 40
0.1098907866904503
 40
0.249872267150975
 40
0.493882910684932
 40
0.7581054812544951
 40
1.0
 40
1.0
 40
1.0
 40
1.0
 10
595.758885499909
 20
148.6620212949987
 30
0.0
 10
598.4714013941648
 20
148.6514659914652
 30
0.0
 10
604.6391841227571
 20
148.6274650929022
 30
0.0
 10
616.8300244230994
 20
148.5767958290163
 30
0.0
 10
632.8303170439568
 20
148.5090588936577
 30
0.0
 10
651.3462307366212
 20
148.4356552857926
 30
0.0
 10
663.839122997113
 20
148.3941203394578
 30
0.0
 10
669.8099985610675
 20
148.3742690519457
 30
0.0
  0
SPLINE
  5
14C
330
1F
100
AcDbEntity
  8
0
  6
Continuous
 62
     7
370
    25
100
AcDbSpline
210
0.0
220
0.0
230
1.0
 70
     8
 71
     3
 72
    35
 73
    31
 74
     0
 42
0.000000001
 43
0.00000001
 40
0.0
 40
0.0
 40
0.0
 40
0.0
 40
0.0223808524752333
 40
0.046013811821498
 40
0.070898899299755
 40
0.097036125649863
 40
0.1244254881918436
 40
0.1808386111749425
 40
0.2485677225145359
 40
0.3185528127121752
 40
0.3758380769109583
 40
0.4383289901935501
 40
0.5007817151774349
 40
0.5632134862454145
 40
0.5944157052872568
 40
0.625621294160913
 40
0.6568845947187237
 40
0.6881341082790166
 40
0.7194796439698419
 40
0.7508155902128683
 40
0.7820032342009391
 40
0.8130884932706451
 40
0.8443597211195766
 40
0.8756237733211178
 40
0.9097045618700144
 40
0.9382555237250709
 40
0.9549939846786747
 40
0.9708642615603882
 40
0.9858662780436086
 40
1.0
 40
1.0
 40
1.0
 40
1.0
 10
743.861088657688
 20
148.6620930577282
 30
0.0
 10
743.8719881470731
 20
151.4106935644265
 30
0.0
 10
743.8943969026857
 20
157.0616662710136
 30
0.0
 10
743.934911172096
 20
165.7687254788941
 30
0.0
 10
743.9815295073562
 20
174.9370527145291
 30
0.0
 10
744.0346994567102
 20
184.5666435644327
 30
0.0
 10
744.1146002738906
 20
198.0680639577334
 30
0.0
 10
744.2328872479313
 20
216.6771741659885
 30
0.0
 10
744.390863612105
 20
240.5172933434293
 30
0.0
 10
744.5565691534308
 20
264.4643983838935
 30
0.0
 10
744.7301543289655
 20
287.7680576868811
 30
0.0
 10
744.9194066603842
 20
310.1463578654444
 30
0.0
 10
745.1702222779841
 20
333.1556482990571
 30
0.0
 10
745.4569758952337
 20
352.3210487401902
 30
0.0
 10
745.7564308179712
 20
367.6477363568382
 30
0.0
 10
746.0101196828184
 20
379.1470573807447
 30
0.0
 10
746.2566195919604
 20
390.6527320185683
 30
0.0
 10
746.4433902581547
 20
402.1776673986121
 30
0.0
 10
746.5034697203849
 20
413.7138256262335
 30
0.0
 10
746.4070653016219
 20
425.2419456335096
 30
0.0
 10
746.1814965080084
 20
436.7349418575672
 30
0.0
 10
745.885510488311
 20
448.216972052221
 30
0.0
 10
745.5568476759872
 20
459.7064474389013
 30
0.0
 10
745.2089748138291
 20
471.5626152521107
 30
0.0
 10
744.8745055170558
 20
483.0847318174613
 30
0.0
 10
744.6063249229588
 20
492.8248009241452
 30
0.0
 10
744.4134580212153
 20
500.3307194440782
 30
0.0
 10
744.2738798501266
 20
506.1743060444408
 30
0.0
 10
744.1515340766101
 20
511.6986582769292
 30
0.0
 10
744.0826763443997
 20
515.2754846574148
 30
0.0
 10
744.0492735170225
 20
517.0106000948646
 30
0.0
  0
LINE
  5
14D
330
1F
100
AcDbEntity
  8
0
  6
Continuous
 62
     7
370
    25
100
AcDbLine
 10
594.8100054113
 20
531.7165671642
 30
0.0
 11
594.8100021849
 21
531.7165671642
 31
0.0
  0
SPLINE
  5
14E
330
1F
100
AcDbEntity
  8
0
  6
Continuous
 62
     7
370
    25
100
AcDbSpline
210
0.0
220
0.0
230
1.0
 70
     8
 71
     3
 72
    28
 73
    24
 74
     0
 42
0.000000001
 43
0.00000001
 40
0.0
 40
0.0
 40
0.0
 40
0.0
 40
0.1250000000000002
 40
0.1250000000000002
 40
0.2500000000000005
 40
0.2500000000000005
 40
0.3750000000000008
 40
0.3750000000000008
 40
0.500000000000001
 40
0.500000000000001
 40
0.5625000000000009
 40
0.5625000000000009
 40
0.6250000000000008
 40
0.6250000000000008
 40
0.6875000000000007
 40
0.6875000000000007
 40
0.7500000000000006
 40
0.7500000000000006
 40
0.8125000000000006
 40
0.8125000000000006
 40
0.8750000000000004
 40
0.8750000000000004
 40
1.0
 40
1.0
 40
1.0
 40
1.0
 10
669.8099899186949
 20
517.9834285779947
 30
0.0
 10
672.9264509242063
 20
517.9755444715515
 30
0.0
 10
676.0412102330816
 20
517.9630745452554
 30
0.0
 10
682.268690630479
 20
517.9257193397392
 30
0.0
 10
685.3814210096825
 20
517.9014328309858
 30
0.0
 10
691.5998657645865
 20
517.8434270651943
 30
0.0
 10
694.7062507184967
 20
517.809621796921
 30
0.0
 10
700.9208905646365
 20
517.7332772868818
 30
0.0
 10
704.0299242515258
 20
517.6906656250135
 30
0.0
 10
708.6940934952755
 20
517.6217498198583
 30
0.0
 10
710.2473932742383
 20
517.5980001731207
 30
0.0
 10
713.3153831165819
 20
517.5498641440388
 30
0.0
 10
714.8313148681896
 20
517.5254549632596
 30
0.0
 10
717.8470757170323
 20
517.4758533703571
 30
0.0
 10
719.3482930999406
 20
517.4506358156877
 30
0.0
 10
722.3724636397025
 20
517.3989865916435
 30
0.0
 10
723.8968050822314
 20
517.3725297797736
 30
0.0
 10
726.9784517715377
 20
517.3184457342771
 30
0.0
 10
728.5337822819184
 20
517.2908541191674
 30
0.0
 10
731.6371384112988
 20
517.2354703887556
 30
0.0
 10
733.1886454406269
 20
517.2076208010868
 30
0.0
 10
737.8434789361314
 20
517.12378463126
 30
0.0
 10
740.9472322032708
 20
517.067623261809
 30
0.0
 10
744.0492734342641
 20
517.010599993176
 30
0.0
  0
SPLINE
  5
14F
330
1F
100
AcDbEntity
  8
0
  6
Continuous
 62
     7
370
    25
100
AcDbSpline
210
0.0
220
0.0
230
1.0
 70
     8
 71
     3
 72
    34
 73
    30
 74
     0
 42
0.000000001
 43
0.00000001
 40
0.0
 40
0.0
 40
0.0
 40
0.0
 40
0.0163759309659665
 40
0.0327826952901854
 40
0.0492203046107718
 40
0.065688775072825
 40
0.0821881258938018
 40
0.0987183781508317
 40
0.1152795537828541
 40
0.1318716747986289
 40
0.1484947626795674
 40
0.1651488379645407
 40
0.1818339200017921
 40
0.1985500268512905
 40
0.2152971753189595
 40
0.2320753811024608
 40
0.248884659026462
 40
0.3088983285983472
 40
0.370286219380225
 40
0.4330486748034989
 40
0.4971860095863064
 40
0.6149921797563602
 40
0.7447824968062685
 40
0.805332533504116
 40
0.8741443243753022
 40
0.9197168345709293
 40
0.9558833049695674
 40
0.9826442297622282
 40
1.0
 40
1.0
 40
1.0
 40
1.0
 10
594.810005410266
 20
531.7165671641782
 30
0.0
 10
594.8082406151963
 20
531.7156348223889
 30
0.0
 10
594.8047077022192
 20
531.7137683833544
 30
0.0
 10
594.8002352356551
 20
531.6986523340447
 30
0.0
 10
594.7963658507698
 20
531.6744659525906
 30
0.0
 10
594.7931630949739
 20
531.6402846832732
 30
0.0
 10
594.7906146831177
 20
531.5963139133977
 30
0.0
 10
594.7887287501063
 20
531.5424640554447
 30
0.0
 10
594.7875079848955
 20
531.4787335060431
 30
0.0
 10
594.7869565784526
 20
531.4051058169216
 30
0.0
 10
594.7870783533886
 20
531.3215774083877
 30
0.0
 10
594.7878772668513
 20
531.2281501634216
 30
0.0
 10
594.7893572612362
 20
531.1248336109434
 30
0.0
 10
594.7915223439155
 20
531.0116439556006
 30
0.0
 10
594.7943764037259
 20
530.8886061077749
 30
0.0
 10
594.7979238526059
 20
530.7557468442486
 30
0.0
 10
594.805800140314
 20
530.4910124010074
 30
0.0
 10
594.8217878563278
 20
530.0406652547648
 30
0.0
 10
594.8518742535579
 20
529.3213218076976
 30
0.0
 10
594.8914736044451
 20
528.4677212948822
 30
0.0
 10
594.9542074892216
 20
527.2126521352645
 30
0.0
 10
595.0543772655781
 20
525.3670433063205
 30
0.0
 10
595.1758340427087
 20
523.2747739399982
 30
0.0
 10
595.2899906053054
 20
521.4000795803886
 30
0.0
 10
595.371773919896
 20
520.0909880537992
 30
0.0
 10
595.444613903139
 20
518.9430562794842
 30
0.0
 10
595.4982818631898
 20
518.1081133689007
 30
0.0
 10
595.5386561544663
 20
517.4877351158142
 30
0.0
 10
595.5618115249165
 20
517.1463027165224
 30
0.0
 10
595.5709209853832
 20
517.0119811797493
 30
0.0
  0
SPLINE
  5
150
330
1F
100
AcDbEntity
  8
0
  6
Continuous
 62
     7
370
    25
100
AcDbSpline
210
0.0
220
0.0
230
1.0
 70
     8
 71
     3
 72
    18
 73
    14
 74
     0
 42
0.000000001
 43
0.00000001
 40
0.0
 40
0.0
 40
0.0
 40
0.0
 40
0.25
 40
0.25
 40
0.5
 40
0.5
 40
0.625
 40
0.625
 40
0.75
 40
0.75
 40
0.875
 40
0.875
 40
1.0
 40
1.0
 40
1.0
 40
1.0
 10
595.570920985399
 20
517.0119811797496
 30
0.0
 10
601.7385419854238
 20
517.1252901885554
 30
0.0
 10
607.9142687826054
 20
517.2360372699445
 30
0.0
 10
620.2781042048648
 20
517.4521500804535
 30
0.0
 10
626.4655943064978
 20
517.5558394745807
 30
0.0
 10
635.7506668808853
 20
517.6925139492677
 30
0.0
 10
638.8450006061526
 20
517.7348360553924
 30
0.0
 10
645.0301335486954
 20
517.810531195733
 30
0.0
 10
648.121740946146
 20
517.8440041055792
 30
0.0
 10
654.3109950571675
 20
517.9015530243746
 30
0.0
 10
657.4093330779416
 20
517.9257406358777
 30
0.0
 10
663.6079848970999
 20
517.9630538630194
 30
0.0
 10
666.7081780996577
 20
517.9755840014311
 30
0.0
 10
669.8099899164141
 20
517.9834293882589
 30
0.0
  0
LWPOLYLINE
  5
151
330
1F
100
AcDbEntity
  8
0
  6
Continuous
 62
     7
370
    25
100
AcDbPolyline
 90
        3
 70
   128
 43
0.0
 10
669.8099999901
 20
352.2061626667
 10
669.8099995749
 20
352.4613662024
 10
669.8099991119
 20
352.7165697381
  0
SPLINE
  5
152
330
1F
100
AcDbEntity
  8
0
  6
Continuous
 62
     7
370
    25
100
AcDbSpline
210
0.0
220
0.0
230
1.0
 70
     8
 71
     3
 72
    72
 73
    68
 74
     0
 42
0.000000001
 43
0.00000001
 40
0.0
 40
0.0
 40
0.0
 40
0.0
 40
0.0624999999999968
 40
0.0624999999999968
 40
0.0937499999999952
 40
0.0937499999999952
 40
0.1093749999999946
 40
0.1093749999999946
 40
0.1249999999999939
 40
0.1249999999999939
 40
0.187499999999992
 40
0.187499999999992
 40
0.2031249999999917
 40
0.2031249999999917
 40
0.2187499999999913
 40
0.2187499999999913
 40
0.249999999999991
 40
0.249999999999991
 40
0.3124999999999905
 40
0.3124999999999905
 40
0.3281249999999905
 40
0.3281249999999905
 40
0.3437499999999905
 40
0.3437499999999905
 40
0.3749999999999905
 40
0.3749999999999905
 40
0.4062499999999905
 40
0.4062499999999905
 40
0.4218749999999907
 40
0.4218749999999907
 40
0.4374999999999908
 40
0.4374999999999908
 40
0.4999999999999913
 40
0.4999999999999913
 40
0.5312499999999916
 40
0.5312499999999916
 40
0.5468749999999917
 40
0.5468749999999917
 40
0.5624999999999919
 40
0.5624999999999919
 40
0.6249999999999923
 40
0.6249999999999923
 40
0.6406249999999926
 40
0.6406249999999926
 40
0.6562499999999928
 40
0.6562499999999928
 40
0.6874999999999931
 40
0.6874999999999931
 40
0.7499999999999937
 40
0.7499999999999937
 40
0.765624999999994
 40
0.765624999999994
 40
0.7812499999999943
 40
0.7812499999999943
 40
0.812499999999995
 40
0.812499999999995
 40
0.8437499999999958
 40
0.8437499999999958
 40
0.8749999999999964
 40
0.8749999999999964
 40
0.937499999999998
 40
0.937499999999998
 40
0.9531249999999986
 40
0.9531249999999986
 40
0.968749999999999
 40
0.968749999999999
 40
1.0
 40
1.0
 40
1.0
 40
1.0
 10
669.8099991601936
 20
472.7165671641782
 30
0.0
 10
673.7735248451564
 20
472.7165671636545
 30
0.0
 10
677.6708232916508
 20
472.3276880437376
 30
0.0
 10
683.4214929799558
 20
471.1849073830155
 30
0.0
 10
685.3223851509407
 20
470.7100435942089
 30
0.0
 10
688.149179518932
 20
469.8536288704998
 30
0.0
 10
689.0889451629896
 20
469.5435154754103
 30
0.0
 10
690.9529588443143
 20
468.8766514688892
 30
0.0
 10
691.872941607724
 20
468.5215227526749
 30
0.0
 10
696.4139564530984
 20
466.6395995748858
 30
0.0
 10
699.8599680153776
 20
464.7969912762888
 30
0.0
 10
703.9360799908341
 20
462.0761792663083
 30
0.0
 10
704.739628096655
 20
461.5109513223657
 30
0.0
 10
706.3230027699827
 20
460.3376913674358
 30
0.0
 10
707.104835108255
 20
459.727981476629
 30
0.0
 10
709.398230842591
 20
457.8461956824512
 30
0.0
 10
710.8534097695311
 20
456.5260182510173
 30
0.0
 10
715.0046048817455
 20
452.3746792153996
 30
0.0
 10
717.4883079071474
 20
449.3545166460465
 30
0.0
 10
720.2297892959908
 20
445.2560399796738
 30
0.0
 10
720.7611254573183
 20
444.417651156105
 30
0.0
 10
721.7771675166705
 20
442.7230566323288
 30
0.0
 10
722.2623791277518
 20
441.8663833217416
 30
0.0
 10
723.6508491697582
 20
439.2687546040835
 30
0.0
 10
724.4871014023825
 20
437.5002556023881
 30
0.0
 10
725.9835272280155
 20
433.8908786428291
 30
0.0
 10
726.6437000640021
 20
432.050000373731
 30
0.0
 10
727.5001058231092
 20
429.233661099098
 30
0.0
 10
727.7632259806921
 20
428.2856947868473
 30
0.0
 10
728.243970774355
 20
426.3710607551854
 30
0.0
 10
728.4619024938829
 20
425.4023248193091
 30
0.0
 10
729.4257084066998
 20
420.5622421610118
 30
0.0
 10
729.8073416012074
 20
416.6696601539392
 30
0.0
 10
729.8113073799037
 20
410.8008369503125
 30
0.0
 10
729.7171999264799
 20
408.8395349172919
 30
0.0
 10
729.4285485078769
 20
405.8898114453972
 30
0.0
 10
729.3074491763396
 20
404.904656449872
 30
0.0
 10
729.0185890719758
 20
402.9536071573423
 30
0.0
 10
728.8506172323603
 20
401.9849728656074
 30
0.0
 10
727.8950060817535
 20
397.175680397329
 30
0.0
 10
726.7634109042149
 20
393.4356933303333
 30
0.0
 10
724.8875260976719
 20
388.8957521917204
 30
0.0
 10
724.4890726171222
 20
387.9945766782027
 30
0.0
 10
723.6446916257191
 20
386.2061206411084
 30
0.0
 10
723.1993036344031
 20
385.3203438732496
 30
0.0
 10
721.8067615861295
 20
382.7128968692384
 30
0.0
 10
720.7990105810796
 20
381.0315282034891
 30
0.0
 10
717.5433201477714
 20
376.1541002280925
 30
0.0
 10
715.065211042885
 20
373.1230927703393
 30
0.0
 10
711.5680655952737
 20
369.62081649713
 30
0.0
 10
710.851667806911
 20
368.9381390048303
 30
0.0
 10
709.3932241292594
 20
367.6151521256054
 30
0.0
 10
708.6499922070288
 20
366.9736475978102
 30
0.0
 10
706.3788881980208
 20
365.1082132989562
 30
0.0
 10
704.8097052539981
 20
363.9432238681081
 30
0.0
 10
701.5619964796673
 20
361.7692501670622
 30
0.0
 10
699.8834739944089
 20
360.7602611243152
 30
0.0
 10
696.4148005828512
 20
358.901549118766
 30
0.0
 10
694.6165765188065
 20
358.0493447876253
 30
0.0
 10
689.1642237428033
 20
355.7876648162704
 30
0.0
 10
685.4248421989257
 20
354.6516633640604
 30
0.0
 10
680.6216511335184
 20
353.6905732718317
 30
0.0
 10
679.6545065459511
 20
353.5215078261289
 30
0.0
 10
677.7070088461683
 20
353.2303787356538
 30
0.0
 10
676.7255358711019
 20
353.1082071193123
 30
0.0
 10
673.7683647627501
 20
352.8145114141003
 30
0.0
 10
671.7917620402968
 20
352.7165671666629
 30
0.0
 10
669.8099992274927
 20
352.7165671641782
 30
0.0
  0
LWPOLYLINE
  5
153
330
1F
100
AcDbEntity
  8
0
  6
Continuous
 62
     7
370
    25
100
AcDbPolyline
 90
        3
 70
   128
 43
0.0
 10
669.809999153
 20
472.7165414456
 10
669.8100054855
 20
472.7919775123
 10
669.8100118683
 20
472.867413579
  0
SPLINE
  5
154
330
1F
100
AcDbEntity
  8
0
  6
Continuous
 62
     7
370
    25
100
AcDbSpline
210
0.0
220
0.0
230
1.0
 70
     8
 71
     3
 72
    72
 73
    68
 74
     0
 42
0.000000001
 43
0.00000001
 40
0.0
 40
0.0
 40
0.0
 40
0.0
 40
0.0624999999999991
 40
0.0624999999999991
 40
0.0937499999999987
 40
0.0937499999999987
 40
0.1093749999999984
 40
0.1093749999999984
 40
0.1249999999999982
 40
0.1249999999999982
 40
0.1874999999999974
 40
0.1874999999999974
 40
0.2031249999999972
 40
0.2031249999999972
 40
0.2187499999999971
 40
0.2187499999999971
 40
0.2499999999999969
 40
0.2499999999999969
 40
0.3124999999999966
 40
0.3124999999999966
 40
0.3281249999999965
 40
0.3281249999999965
 40
0.3437499999999964
 40
0.3437499999999964
 40
0.3749999999999961
 40
0.3749999999999961
 40
0.4062499999999958
 40
0.4062499999999958
 40
0.4218749999999957
 40
0.4218749999999957
 40
0.4374999999999954
 40
0.4374999999999954
 40
0.4999999999999947
 40
0.4999999999999947
 40
0.5312499999999943
 40
0.5312499999999943
 40
0.5468749999999942
 40
0.5468749999999942
 40
0.5624999999999941
 40
0.5624999999999941
 40
0.624999999999994
 40
0.624999999999994
 40
0.6406249999999939
 40
0.6406249999999939
 40
0.6562499999999938
 40
0.6562499999999938
 40
0.6874999999999937
 40
0.6874999999999937
 40
0.7499999999999936
 40
0.7499999999999936
 40
0.7656249999999937
 40
0.7656249999999937
 40
0.7812499999999939
 40
0.7812499999999939
 40
0.8124999999999947
 40
0.8124999999999947
 40
0.8437499999999954
 40
0.8437499999999954
 40
0.8749999999999962
 40
0.8749999999999962
 40
0.9374999999999979
 40
0.9374999999999979
 40
0.9531249999999984
 40
0.9531249999999984
 40
0.968749999999999
 40
0.968749999999999
 40
1.0
 40
1.0
 40
1.0
 40
1.0
 10
669.8099991767185
 20
352.7165671641782
 30
0.0
 10
665.846473506321
 20
352.7165671625629
 30
0.0
 10
661.94917502561
 20
353.1054462799788
 30
0.0
 10
656.1985052714618
 20
354.2482269569512
 30
0.0
 10
654.2976130726511
 20
354.7230907545502
 30
0.0
 10
651.4708186536255
 20
355.5795054998997
 30
0.0
 10
650.5310529633318
 20
355.8896189138425
 30
0.0
 10
648.6670393310884
 20
356.5564829085237
 30
0.0
 10
647.7470565863413
 20
356.9116116195967
 30
0.0
 10
643.2060418074911
 20
358.7935347791433
 30
0.0
 10
639.7600302134164
 20
360.6361430868616
 30
0.0
 10
635.6839181240548
 20
363.3569551925758
 30
0.0
 10
634.880369991708
 20
363.9221831599085
 30
0.0
 10
633.2969952585374
 20
365.0954431717019
 30
0.0
 10
632.5151628681408
 20
365.7051531131027
 30
0.0
 10
630.2217672622785
 20
367.586938825469
 30
0.0
 10
628.7665883900817
 20
368.9071162148499
 30
0.0
 10
624.6153933716964
 20
373.0584551788746
 30
0.0
 10
622.1316903159959
 20
376.0786177711894
 30
0.0
 10
619.3902088361385
 20
380.1770946146214
 30
0.0
 10
618.8588726623211
 20
381.0154834709294
 30
0.0
 10
617.8428306614231
 20
382.7100779165993
 30
0.0
 10
617.3576190734944
 20
383.566751193584
 30
0.0
 10
615.9691490861619
 20
386.1643798277466
 30
0.0
 10
615.1328968703292
 20
387.9328787967889
 30
0.0
 10
613.6364710549127
 20
391.5422557435652
 30
0.0
 10
612.9762982122504
 20
393.3831340325385
 30
0.0
 10
612.1198924370053
 20
396.1994733828702
 30
0.0
 10
611.8567722730296
 20
397.1474397280197
 30
0.0
 10
611.3760274667129
 20
399.0620738417741
 30
0.0
 10
611.1580957535359
 20
400.0308097766552
 30
0.0
 10
610.1942899036393
 20
404.8708922150063
 30
0.0
 10
609.8126567008022
 20
408.7634741592403
 30
0.0
 10
609.8086909258499
 20
414.6322974438874
 30
0.0
 10
609.9027983830496
 20
416.593599533475
 30
0.0
 10
610.1914498249779
 20
419.543323136721
 30
0.0
 10
610.3125491569509
 20
420.5284780918976
 30
0.0
 10
610.6014092538301
 20
422.4795272955365
 30
0.0
 10
610.7693810887176
 20
423.4481615511673
 30
0.0
 10
611.7249922164136
 20
428.2574538784022
 30
0.0
 10
612.8565873778684
 20
431.9974409580781
 30
0.0
 10
614.732472252507
 20
436.5373822435128
 30
0.0
 10
615.1309257511233
 20
437.4385577930125
 30
0.0
 10
615.9753067900408
 20
439.2270139149271
 30
0.0
 10
616.4206947496352
 20
440.112790608454
 30
0.0
 10
617.813236740864
 20
442.720237492223
 30
0.0
 10
618.8209877158971
 20
444.4016061112052
 30
0.0
 10
622.0766781053537
 20
449.2790340279373
 30
0.0
 10
624.5547872411857
 20
452.3100415550761
 30
0.0
 10
628.0519328803475
 20
455.8123179981791
 30
0.0
 10
628.7683305849653
 20
456.4949954044601
 30
0.0
 10
630.226774201717
 20
457.8179822250374
 30
0.0
 10
630.9700060981729
 20
458.4594867305532
 30
0.0
 10
633.2411100456054
 20
460.3249209804594
 30
0.0
 10
634.8102929695287
 20
461.4899104024803
 30
0.0
 10
638.0580017555676
 20
463.6638841184518
 30
0.0
 10
639.736524272598
 20
464.6728731850355
 30
0.0
 10
643.2051978114413
 20
466.5315852565866
 30
0.0
 10
645.003421875044
 20
467.3837895783892
 30
0.0
 10
650.4557744305521
 20
469.6454694564569
 30
0.0
 10
654.1951559334498
 20
470.7814709238995
 30
0.0
 10
658.998347104577
 20
471.7425610447183
 30
0.0
 10
659.9654917212295
 20
471.9116264966439
 30
0.0
 10
661.9129894957285
 20
472.2027555982879
 30
0.0
 10
662.8944625617925
 20
472.3249272236329
 30
0.0
 10
665.8516336162388
 20
472.6186229179696
 30
0.0
 10
667.8282363067859
 20
472.7165671642803
 30
0.0
 10
669.8099991553568
 20
472.7165671641782
 30
0.0
  0
SPLINE
  5
155
330
1F
100
AcDbEntity
  8
0
  6
Continuous
 62
     7
370
    25
100
AcDbSpline
210
0.0
220
0.0
230
1.0
 70
     8
 71
     3
 72
    10
 73
     6
 74
     0
 42
0.000000001
 43
0.00000001
 40
0.0
 40
0.0
 40
0.0
 40
0.0
 40
0.2840367910434525
 40
0.6173711036121278
 40
1.0
 40
1.0
 40
1.0
 40
1.0
 10
234.8099399062675
 20
531.716567164062
 30
0.0
 10
234.8168373140508
 20
531.7158339347702
 30
0.0
 10
234.8318292460453
 20
531.7142402166626
 30
0.0
 10
234.8556965324249
 20
531.7009226044753
 30
0.0
 10
234.8726156421017
 20
531.6820307273928
 30
0.0
 10
234.8816576433981
 20
531.6719344291635
 30
0.0
  0
SPLINE
  5
156
330
1F
100
AcDbEntity
  8
0
  6
Continuous
 62
     7
370
    25
100
AcDbSpline
210
0.0
220
0.0
230
1.0
 70
     8
 71
     3
 72
    16
 73
    12
 74
     0
 42
0.000000001
 43
0.00000001
 40
0.0
 40
0.0
 40
0.0
 40
0.0
 40
0.073718304177137
 40
0.1569715608471867
 40
0.2497597133827349
 40
0.3731098598025623
 40
0.4964599566042701
 40
0.6110566785810447
 40
0.7479144469712643
 40
0.880762091947659
 40
1.0
 40
1.0
 40
1.0
 40
1.0
 10
235.7895826984825
 20
148.6953434970606
 30
0.0
 10
239.5742982893454
 20
148.6890912774298
 30
0.0
 10
247.6332562414017
 20
148.6757781568261
 30
0.0
 10
260.4559607565118
 20
148.6492709782325
 30
0.0
 10
275.8267533310533
 20
148.6138531905659
 30
0.0
 10
293.2561053393252
 20
148.5714756912991
 30
0.0
 10
311.8051041936723
 20
148.5238482665142
 30
0.0
 10
331.0476002649767
 20
148.4777600507416
 30
0.0
 10
350.7777245481251
 20
148.4370831887331
 30
0.0
 10
370.7461486816296
 20
148.3995262093324
 30
0.0
 10
383.6882896500574
 20
148.3822813709558
 30
0.0
 10
389.8099963335733
 20
148.3741244637945
 30
0.0
  0
SPLINE
  5
157
330
1F
100
AcDbEntity
  8
0
  6
Continuous
 62
     7
370
    25
100
AcDbSpline
210
0.0
220
0.0
230
1.0
 70
     8
 71
     3
 72
    26
 73
    22
 74
     0
 42
0.000000001
 43
0.00000001
 40
0.0
 40
0.0
 40
0.0
 40
0.0
 40
0.017858985982897
 40
0.0386665764740427
 40
0.0624227575354766
 40
0.1021415228936952
 40
0.1253393852871671
 40
0.1912950371811306
 40
0.2502867228488608
 40
0.311076072753427
 40
0.3752375121834841
 40
0.4341972819224282
 40
0.500263075506728
 40
0.6252398583171399
 40
0.6877433695624664
 40
0.7502199426941822
 40
0.8501380156124932
 40
0.9250686317101375
 40
0.9550394518376576
 40
0.9819428885271011
 40
1.0
 40
1.0
 40
1.0
 40
1.0
 10
235.7321772130591
 20
516.7917914839444
 30
0.0
 10
235.7194413944682
 20
514.6005520216899
 30
0.0
 10
235.6918670123629
 20
509.8562889195546
 30
0.0
 10
235.6428261320679
 20
502.1972890378568
 30
0.0
 10
235.5733568442839
 20
491.8562285000791
 30
0.0
 10
235.5007334287862
 20
481.2219153590023
 30
0.0
 10
235.3945964454431
 20
465.4099033140797
 30
0.0
 10
235.2879452764724
 20
447.2330121141245
 30
0.0
 10
235.1910503830289
 20
424.4433936893532
 30
0.0
 10
235.1433341817345
 20
401.8736368194882
 30
0.0
 10
235.1378458670149
 20
379.3077013771211
 30
0.0
 10
235.1666468972001
 20
356.0943835445852
 30
0.0
 10
235.2341834467976
 20
325.4190936467368
 30
0.0
 10
235.3372895502884
 20
294.3091652771233
 30
0.0
 10
235.4498881045444
 20
263.6397356654566
 30
0.0
 10
235.5517059148488
 20
236.044992218351
 30
0.0
 10
235.6519135953447
 20
206.9254110810416
 30
0.0
 10
235.722589567539
 20
181.7941485483452
 30
0.0
 10
235.758790460518
 20
165.6217048258875
 30
0.0
 10
235.7778195560134
 20
156.4276239842329
 30
0.0
 10
235.7862120818003
 20
150.9109549860425
 30
0.0
 10
235.7895826984825
 20
148.6953434970606
 30
0.0
  0
SPLINE
  5
158
330
1F
100
AcDbEntity
  8
0
  6
Continuous
 62
     7
370
    25
100
AcDbSpline
210
0.0
220
0.0
230
1.0
 70
     8
 71
     3
 72
    15
 73
    11
 74
     0
 42
0.000000001
 43
0.00000001
 40
0.0
 40
0.0
 40
0.0
 40
0.0
 40
0.1098690720996544
 40
0.2300755179104772
 40
0.3606192972753062
 40
0.5015004974601238
 40
0.6263755582100986
 40
0.7512505423327853
 40
0.8758475541104986
 40
1.0
 40
1.0
 40
1.0
 40
1.0
 10
389.809996581266
 20
148.3741288331784
 30
0.0
 10
395.4508748477022
 20
148.3812437085858
 30
0.0
 10
407.2633709743928
 20
148.3961428846044
 30
0.0
 10
425.7781993710871
 20
148.4278508296545
 30
0.0
 10
445.8852244221501
 20
148.467264415349
 30
0.0
 10
466.2319240810422
 20
148.512583623844
 30
0.0
 10
486.2875622819115
 20
148.5599078174086
 30
0.0
 10
505.5071351047408
 20
148.6078746737024
 30
0.0
 10
524.6896219783042
 20
148.653938098007
 30
0.0
 10
537.4608494035516
 20
148.6783764719106
 30
0.0
 10
543.8350507253363
 20
148.6905738206894
 30
0.0
  0
SPLINE
  5
159
330
1F
100
AcDbEntity
  8
0
  6
Continuous
 62
     7
370
    25
100
AcDbSpline
210
0.0
220
0.0
230
1.0
 70
     8
 71
     3
 72
    20
 73
    16
 74
     0
 42
0.000000001
 43
0.00000001
 40
0.0
 40
0.0
 40
0.0
 40
0.0
 40
0.062500000000002
 40
0.062500000000002
 40
0.125000000000004
 40
0.125000000000004
 40
0.2500000000000039
 40
0.2500000000000039
 40
0.5000000000000037
 40
0.5000000000000037
 40
0.7500000000000034
 40
0.7500000000000034
 40
0.8750000000000018
 40
0.8750000000000018
 40
1.0
 40
1.0
 40
1.0
 40
1.0
 10
543.8350507952659
 20
148.6905737481782
 30
0.0
 10
543.8680534008276
 20
148.2049145150219
 30
0.0
 10
543.9000878465762
 20
147.715434431538
 30
0.0
 10
543.9646130094411
 20
146.7444009710027
 30
0.0
 10
543.9966940706089
 20
146.2613286019124
 30
0.0
 10
544.0919170755712
 20
144.8258063006899
 30
0.0
 10
544.1540372301837
 20
143.8871417523002
 30
0.0
 10
544.3328102714844
 20
141.1787389902657
 30
0.0
 10
544.4417582562822
 20
139.5184356911339
 30
0.0
 10
544.6226964000173
 20
136.7397064033697
 30
0.0
 10
544.6945916097012
 20
135.622674617732
 30
0.0
 10
544.7659896607774
 20
134.4886421244901
 30
0.0
 10
544.783764831666
 20
134.2001489495494
 30
0.0
 10
544.806527655773
 20
133.8141079527636
 30
0.0
 10
544.8115148237525
 20
133.7165671634307
 30
0.0
 10
544.809999150266
 20
133.7165671641782
 30
0.0
  0
SPLINE
  5
15A
330
1F
100
AcDbEntity
  8
0
  6
Continuous
 62
     7
370
    25
100
AcDbSpline
210
0.0
220
0.0
230
1.0
 70
     8
 71
     3
 72
    20
 73
    16
 74
     0
 42
0.000000001
 43
0.00000001
 40
0.0
 40
0.0
 40
0.0
 40
0.0
 40
0.1250000000000001
 40
0.1250000000000001
 40
0.2500000000000003
 40
0.2500000000000003
 40
0.5000000000000007
 40
0.5000000000000007
 40
0.7500000000000011
 40
0.7500000000000011
 40
0.8750000000000002
 40
0.8750000000000002
 40
0.9375000000000001
 40
0.9375000000000001
 40
1.0
 40
1.0
 40
1.0
 40
1.0
 10
558.8099991272659
 20
147.7165657841782
 30
0.0
 10
558.80994223636
 20
147.7149933834972
 30
0.0
 10
558.7123444305636
 20
147.7199238376732
 30
0.0
 10
558.3261914165665
 20
147.7425746685643
 30
0.0
 10
558.0376432344552
 20
147.7602945543072
 30
0.0
 10
556.9034522500793
 20
147.8315310788641
 30
0.0
 10
555.7863232299521
 20
147.9033243035366
 30
0.0
 10
553.0074390772864
 20
148.0840833288698
 30
0.0
 10
551.3471269171637
 20
148.1929574889764
 30
0.0
 10
548.6387171537458
 20
148.3716467763308
 30
0.0
 10
547.7000146635496
 20
148.4337410715875
 30
0.0
 10
546.264578463304
 20
148.5289426038986
 30
0.0
 10
545.7815409449561
 20
148.5610182144331
 30
0.0
 10
544.8111242563563
 20
148.6255716959114
 30
0.0
 10
544.3247326269292
 20
148.6583761503913
 30
0.0
 10
543.8350507952659
 20
148.6905737481782
 30
0.0
  0
SPLINE
  5
15B
330
1F
100
AcDbEntity
  8
0
  6
Continuous
 62
     7
370
    25
100
AcDbSpline
210
0.0
220
0.0
230
1.0
 70
     8
 71
     3
 72
    25
 73
    21
 74
     0
 42
0.000000001
 43
0.00000001
 40
0.0
 40
0.0
 40
0.0
 40
0.0
 40
0.0402053018346366
 40
0.0821918312557886
 40
0.1259596020778919
 40
0.183488636587771
 40
0.2507982717686199
 40
0.3132434231094314
 40
0.3757120381068642
 40
0.5006227691397405
 40
0.5667339113136949
 40
0.6255133234309547
 40
0.6896024861646683
 40
0.7503428540036624
 40
0.8095444319649694
 40
0.8752205821224923
 40
0.9005686185439156
 40
0.9376537929155597
 40
0.9727800380146104
 40
1.0
 40
1.0
 40
1.0
 40
1.0
 10
543.8350507253363
 20
148.6905738206894
 30
0.0
 10
543.8446801167282
 20
153.6239002861096
 30
0.0
 10
543.864365513337
 20
163.7091158639768
 30
0.0
 10
543.9023484816308
 20
179.1647511466032
 30
0.0
 10
543.9512463741618
 20
196.7460301840142
 30
0.0
 10
544.0169059485686
 20
217.4344792533048
 30
0.0
 10
544.0966723700859
 20
240.4146426785618
 30
0.0
 10
544.1827603981208
 20
264.0008793893464
 30
0.0
 10
544.2935364751945
 20
294.6549125348662
 30
0.0
 10
544.3949146802403
 20
325.7588758770443
 30
0.0
 10
544.4609086620742
 20
356.4103337338139
 30
0.0
 10
544.4890819892715
 20
379.5988479435665
 30
0.0
 10
544.483352482311
 20
402.128386177119
 30
0.0
 10
544.4358759969992
 20
424.7096323120573
 30
0.0
 10
544.339974874434
 20
447.4853255935825
 30
0.0
 10
544.232089402839
 20
465.9180020527324
 30
0.0
 10
544.1265910361394
 20
481.6368339661325
 30
0.0
 10
544.044318279601
 20
493.6072063618398
 30
0.0
 10
543.9606356848155
 20
505.8072617349191
 30
0.0
 10
543.9136655417329
 20
513.4571130841654
 30
0.0
 10
543.8931586726073
 20
516.796990081628
 30
0.0
  0
SPLINE
  5
15C
330
1F
100
AcDbEntity
  8
0
  6
Continuous
 62
     7
370
    25
100
AcDbSpline
210
0.0
220
0.0
230
1.0
 70
     8
 71
     3
 72
    25
 73
    21
 74
     0
 42
0.000000001
 43
0.00000001
 40
0.0
 40
0.0
 40
0.0
 40
0.0
 40
0.026781830479541
 40
0.0548544077663089
 40
0.084217793457629
 40
0.1148720527918844
 40
0.1468172556194688
 40
0.1800534765142449
 40
0.2145807942618491
 40
0.2503992906701988
 40
0.3079884541060347
 40
0.3754326655884433
 40
0.4277937181212809
 40
0.4996400441575728
 40
0.6247714469235001
 40
0.6907093319916455
 40
0.7501744534522653
 40
0.8377473848919432
 40
0.9210224158009516
 40
0.9999999999999999
 40
0.9999999999999999
 40
0.9999999999999999
 40
0.9999999999999999
 10
389.8099959258119
 20
517.9830143347745
 30
0.0
 10
388.434415257172
 20
517.9850122703538
 30
0.0
 10
385.6169579899899
 20
517.9891044317555
 30
0.0
 10
381.2913148176767
 20
517.9864734741997
 30
0.0
 10
376.7667884756282
 20
517.9777833459741
 30
0.0
 10
372.0433820079423
 20
517.9622948873733
 30
0.0
 10
367.1210994255829
 20
517.9402192073974
 30
0.0
 10
361.999941644184
 20
517.911489370734
 30
0.0
 10
356.6799070699521
 20
517.8761435295233
 30
0.0
 10
350.1091705195679
 20
517.8260743926273
 30
0.0
 10
341.8479490600155
 20
517.7541471291506
 30
0.0
 10
332.7372490607881
 20
517.6674286158369
 30
0.0
 10
322.8944290642229
 20
517.5681542447855
 30
0.0
 10
310.0890058131487
 20
517.4359691802581
 30
0.0
 10
296.5863769813596
 20
517.2954731224648
 30
0.0
 10
283.7195171035093
 20
517.1685218822171
 30
0.0
 10
272.7814875267927
 20
517.0656111677481
 30
0.0
 10
260.9528963742748
 20
516.9639916331788
 30
0.0
 10
248.1219524519168
 20
516.8664623259303
 30
0.0
 10
239.78852886366
 20
516.8162383514059
 30
0.0
 10
235.7321772130591
 20
516.7917914839444
 30
0.0
  0
SPLINE
  5
15D
330
1F
100
AcDbEntity
  8
0
  6
Continuous
 62
     7
370
    25
100
AcDbSpline
210
0.0
220
0.0
230
1.0
 70
     8
 71
     3
 72
    22
 73
    18
 74
     0
 42
0.000000001
 43
0.00000001
 40
0.0
 40
0.0
 40
0.0
 40
0.0
 40
0.0465849888782179
 40
0.0948298792307408
 40
0.1447347421340003
 40
0.1962996528693836
 40
0.2495246914960494
 40
0.3091399273516435
 40
0.374777212816975
 40
0.5002760891082112
 40
0.6252596000018443
 40
0.7501959134590891
 40
0.8158838570828536
 40
0.8752187515714904
 40
0.9175708114052863
 40
0.9591644238895849
 40
1.0
 40
1.0
 40
1.0
 40
1.0
 10
543.8931586726073
 20
516.796990081628
 30
0.0
 10
541.5004383928439
 20
516.8116045224253
 30
0.0
 10
536.6297411870105
 20
516.8413541411162
 30
0.0
 10
529.1958999962443
 20
516.893490085589
 30
0.0
 10
521.5063537177014
 20
516.9520194531722
 30
0.0
 10
513.561101608602
 20
517.0174682807282
 30
0.0
 10
505.1171977464728
 20
517.0918710176036
 30
0.0
 10
495.950615360596
 20
517.1776516894079
 30
0.0
 10
483.0721517631518
 20
517.3036931503684
 30
0.0
 10
466.8365203439619
 20
517.4708887135114
 30
0.0
 10
447.5552294812163
 20
517.6682625753233
 30
0.0
 10
431.3454508895647
 20
517.8181667333992
 30
0.0
 10
418.5070426947887
 20
517.91116838868
 30
0.0
 10
409.9101432511225
 20
517.9569604020371
 30
0.0
 10
402.5506978615723
 20
517.9802443323841
 30
0.0
 10
396.141398130106
 20
517.9895060592013
 30
0.0
 10
391.907484678937
 20
517.9851653150727
 30
0.0
 10
389.8099959382651
 20
517.9830149022122
 30
0.0
  0
SPLINE
  5
15E
330
1F
100
AcDbEntity
  8
0
  6
Continuous
 62
     7
370
    25
100
AcDbSpline
210
0.0
220
0.0
230
1.0
 70
     8
 71
     3
 72
    72
 73
    68
 74
     0
 42
0.000000001
 43
0.00000001
 40
0.0
 40
0.0
 40
0.0
 40
0.0
 40
0.0624999999999979
 40
0.0624999999999979
 40
0.0937499999999971
 40
0.0937499999999971
 40
0.1093749999999966
 40
0.1093749999999966
 40
0.124999999999996
 40
0.124999999999996
 40
0.1874999999999945
 40
0.1874999999999945
 40
0.2031249999999943
 40
0.2031249999999943
 40
0.2187499999999941
 40
0.2187499999999941
 40
0.2499999999999937
 40
0.2499999999999937
 40
0.3124999999999932
 40
0.3124999999999932
 40
0.328124999999993
 40
0.328124999999993
 40
0.3437499999999929
 40
0.3437499999999929
 40
0.3749999999999926
 40
0.3749999999999926
 40
0.4062499999999924
 40
0.4062499999999924
 40
0.4218749999999924
 40
0.4218749999999924
 40
0.4374999999999923
 40
0.4374999999999923
 40
0.4999999999999927
 40
0.4999999999999927
 40
0.5312499999999929
 40
0.5312499999999929
 40
0.546874999999993
 40
0.546874999999993
 40
0.5624999999999931
 40
0.5624999999999931
 40
0.6249999999999941
 40
0.6249999999999941
 40
0.6406249999999942
 40
0.6406249999999942
 40
0.6562499999999943
 40
0.6562499999999943
 40
0.6874999999999944
 40
0.6874999999999944
 40
0.7499999999999949
 40
0.7499999999999949
 40
0.7656249999999952
 40
0.7656249999999952
 40
0.7812499999999954
 40
0.7812499999999954
 40
0.8124999999999962
 40
0.8124999999999962
 40
0.843749999999997
 40
0.843749999999997
 40
0.8749999999999977
 40
0.8749999999999977
 40
0.9374999999999993
 40
0.9374999999999993
 40
0.9531249999999996
 40
0.9531249999999996
 40
0.9687499999999998
 40
0.9687499999999998
 40
1.0
 40
1.0
 40
1.0
 40
1.0
 10
389.8099991547678
 20
472.7165671641781
 30
0.0
 10
393.7735248607794
 20
472.7165671640129
 30
0.0
 10
397.6708232841116
 20
472.3276880469385
 30
0.0
 10
403.4214930214403
 20
471.1849073739204
 30
0.0
 10
405.3223852155002
 20
470.7100435779909
 30
0.0
 10
408.1491796265275
 20
469.8536288362315
 30
0.0
 10
409.0889453093874
 20
469.5435154253827
 30
0.0
 10
410.9529589502026
 20
468.8766514286596
 30
0.0
 10
411.8729416982692
 20
468.5215227166799
 30
0.0
 10
416.4139564892827
 20
466.6395995537713
 30
0.0
 10
419.8599680789779
 20
464.7969912471206
 30
0.0
 10
423.9360801507435
 20
462.0761791562469
 30
0.0
 10
424.7396282789597
 20
461.5109511925603
 30
0.0
 10
426.3230030027631
 20
460.337691189669
 30
0.0
 10
427.1048353849175
 20
459.7279812562606
 30
0.0
 10
429.3982310115811
 20
457.8461955305112
 30
0.0
 10
430.8534098925818
 20
456.5260181342865
 30
0.0
 10
435.0046049264814
 20
452.3746791580142
 30
0.0
 10
437.4883079788635
 20
449.3545165673881
 30
0.0
 10
440.2297894458974
 20
445.256039748426
 30
0.0
 10
440.761125617912
 20
444.4176508967127
 30
0.0
 10
441.7771676275528
 20
442.7230564389428
 30
0.0
 10
442.2623792189782
 20
441.8663831566504
 30
0.0
 10
443.6508492146633
 20
439.2687545089106
 30
0.0
 10
444.4871014332248
 20
437.5002555339039
 30
0.0
 10
445.9835272503975
 20
433.890878582936
 30
0.0
 10
446.6437000920433
 20
432.05000029581
 30
0.0
 10
447.5001058645743
 20
429.2336609555903
 30
0.0
 10
447.7632260274538
 20
428.2856946150326
 30
0.0
 10
448.2439708315759
 20
426.3710605128726
 30
0.0
 10
448.461902545493
 20
425.4023245776672
 30
0.0
 10
449.4257084035575
 20
420.5622421066432
 30
0.0
 10
449.8073416043973
 20
416.6696601513377
 30
0.0
 10
449.8113073783585
 20
410.8008368782806
 30
0.0
 10
449.7171999211891
 20
408.8395347974264
 30
0.0
 10
449.4285484820932
 20
405.8898112148152
 30
0.0
 10
449.3074491498315
 20
404.9046562526555
 30
0.0
 10
449.0185890510525
 20
402.9536070341921
 30
0.0
 10
448.8506172150716
 20
401.9849727726912
 30
0.0
 10
447.8950060822461
 20
397.1756804234461
 30
0.0
 10
446.763410917855
 20
393.4356933497068
 30
0.0
 10
444.8875260563055
 20
388.8957520950164
 30
0.0
 10
444.4890725611508
 20
387.9945765528525
 30
0.0
 10
443.6446915313102
 20
386.2061204479427
 30
0.0
 10
443.1993035648528
 20
385.3203437389711
 30
0.0
 10
441.806761561046
 20
382.7128968303708
 30
0.0
 10
440.7990105794253
 20
381.0315282020497
 30
0.0
 10
437.5433201805736
 20
376.1541002751559
 30
0.0
 10
435.0652110520764
 20
373.1230927650316
 30
0.0
 10
431.5680654557307
 20
369.6208163610103
 30
0.0
 10
430.8516677314974
 20
368.9381389348594
 30
0.0
 10
429.3932241002874
 20
367.6151521008853
 30
0.0
 10
428.6499921977326
 20
366.9736475903489
 30
0.0
 10
426.378888235752
 20
365.1082133295989
 30
0.0
 10
424.8097053071065
 20
363.9432239059533
 30
0.0
 10
421.5619965238929
 20
361.769250194371
 30
0.0
 10
419.8834740144079
 20
360.7602611338302
 30
0.0
 10
416.4148005059218
 20
358.9015490787444
 30
0.0
 10
414.61657644167
 20
358.0493447547697
 30
0.0
 10
409.1642238300454
 20
355.7876648541767
 30
0.0
 10
405.4248423142475
 20
354.651663390555
 30
0.0
 10
400.6216511676138
 20
353.690573277799
 30
0.0
 10
399.6545065579792
 20
353.521507827659
 30
0.0
 10
397.7070088021948
 20
353.2303787293482
 30
0.0
 10
396.7255357591993
 20
353.1082071065674
 30
0.0
 10
393.7683646930472
 20
352.8145114104399
 30
0.0
 10
391.791761991031
 20
352.7165671639696
 30
0.0
 10
389.809999145949
 20
352.7165671641782
 30
0.0
  0
SPLINE
  5
15F
330
1F
100
AcDbEntity
  8
0
  6
Continuous
 62
     7
370
    25
100
AcDbSpline
210
0.0
220
0.0
230
1.0
 70
     8
 71
     3
 72
    71
 73
    67
 74
     0
 42
0.000000001
 43
0.00000001
 40
0.0
 40
0.0
 40
0.0
 40
0.0
 40
0.0625
 40
0.0625
 40
0.0937500000000002
 40
0.0937500000000002
 40
0.1093750000000004
 40
0.1093750000000004
 40
0.1250000000000005
 40
0.1250000000000005
 40
0.1875000000000009
 40
0.1875000000000009
 40
0.203125000000001
 40
0.203125000000001
 40
0.2187500000000011
 40
0.2187500000000011
 40
0.2500000000000013
 40
0.2500000000000013
 40
0.3125000000000021
 40
0.3125000000000021
 40
0.3281250000000023
 40
0.3281250000000023
 40
0.3437500000000025
 40
0.3437500000000025
 40
0.3750000000000026
 40
0.4062500000000028
 40
0.4062500000000028
 40
0.4218750000000028
 40
0.4218750000000028
 40
0.4375000000000028
 40
0.4375000000000028
 40
0.5000000000000026
 40
0.5000000000000026
 40
0.5312500000000026
 40
0.5312500000000026
 40
0.5468750000000026
 40
0.5468750000000026
 40
0.5625000000000026
 40
0.5625000000000026
 40
0.625000000000002
 40
0.625000000000002
 40
0.6406250000000019
 40
0.6406250000000019
 40
0.6562500000000018
 40
0.6562500000000018
 40
0.6875000000000017
 40
0.6875000000000017
 40
0.7500000000000019
 40
0.7500000000000019
 40
0.7656250000000019
 40
0.7656250000000019
 40
0.7812500000000019
 40
0.7812500000000019
 40
0.8125000000000017
 40
0.8125000000000017
 40
0.8437500000000014
 40
0.8437500000000014
 40
0.8750000000000012
 40
0.8750000000000012
 40
0.9375000000000004
 40
0.9375000000000004
 40
0.9531250000000002
 40
0.9531250000000002
 40
0.96875
 40
0.96875
 40
1.0
 40
1.0
 40
1.0
 40
1.0
 10
389.8099991486724
 20
352.7165671641782
 30
0.0
 10
385.8464734561434
 20
352.7165671644156
 30
0.0
 10
381.9491750041473
 20
353.1054462855095
 30
0.0
 10
376.1985053102292
 20
354.2482269486143
 30
0.0
 10
374.2976131372993
 20
354.7230907384285
 30
0.0
 10
371.4708187663284
 20
355.5795054640226
 30
0.0
 10
370.5310531209245
 20
355.8896188599294
 30
0.0
 10
368.6670394386123
 20
356.5564828675894
 30
0.0
 10
367.747056674663
 20
356.9116115844227
 30
0.0
 10
363.2060418263778
 20
358.7935347655998
 30
0.0
 10
359.7600302610367
 20
360.6361430678828
 30
0.0
 10
355.6839182816389
 20
363.3569550841864
 30
0.0
 10
354.8803701750258
 20
363.922183029477
 30
0.0
 10
353.2969955001249
 20
365.0954429872841
 30
0.0
 10
352.5151631608328
 20
365.7051528798381
 30
0.0
 10
350.221767427099
 20
367.5869386764374
 30
0.0
 10
348.7665885004896
 20
368.9071161096022
 30
0.0
 10
344.615393388375
 20
373.0584551518673
 30
0.0
 10
342.1316903621842
 20
376.0786177275553
 30
0.0
 10
339.3902089739717
 20
380.1770944022086
 30
0.0
 10
338.8588728129198
 20
381.0154832273581
 30
0.0
 10
337.8428307550265
 20
382.7100777528811
 30
0.0
 10
337.3576191446764
 20
383.5667510643665
 30
0.0
 10
335.9691491049066
 20
386.164379784768
 30
0.0
 10
334.2966438857297
 20
389.7013774807565
 30
0.0
 10
332.9762982174033
 20
393.383134022482
 30
0.0
 10
332.1198924611733
 20
396.1994732999469
 30
0.0
 10
331.8567723045718
 20
397.147439613182
 30
0.0
 10
331.3760275129279
 20
399.062073646932
 30
0.0
 10
331.1580957944431
 20
400.0308095839121
 30
0.0
 10
330.1942898870761
 20
404.8708922474399
 30
0.0
 10
329.8126566976443
 20
408.7634742581963
 30
0.0
 10
329.8086909273808
 20
414.6322974655113
 30
0.0
 10
329.9027983837346
 20
416.5935994995116
 30
0.0
 10
330.191449806936
 20
419.5433229728382
 30
0.0
 10
330.3125491400831
 20
420.5284779691663
 30
0.0
 10
330.6014092477179
 20
422.4795272630585
 30
0.0
 10
330.7693810889911
 20
423.4481615553516
 30
0.0
 10
331.7249922479469
 20
428.2574540258673
 30
0.0
 10
332.8565874323218
 20
431.9974410929613
 30
0.0
 10
334.732472247515
 20
436.5373822306562
 30
0.0
 10
335.1309257297982
 20
437.4385577439244
 30
0.0
 10
335.9753067246581
 20
439.2270137803623
 30
0.0
 10
336.4206947183325
 20
440.1127905490956
 30
0.0
 10
337.8132367732551
 20
442.7202375543634
 30
0.0
 10
338.8209877827062
 20
444.401606220349
 30
0.0
 10
342.0766782287375
 20
449.2790341946722
 30
0.0
 10
344.5547873413959
 20
452.31004164906
 30
0.0
 10
348.0519327950212
 20
455.812317914321
 30
0.0
 10
348.768330587819
 20
456.4949954081319
 30
0.0
 10
350.2267742712872
 20
457.8179822870628
 30
0.0
 10
350.9700061962083
 20
458.4594868143857
 30
0.0
 10
353.2411102125189
 20
460.3249211109416
 30
0.0
 10
354.8102931603715
 20
461.4899105390792
 30
0.0
 10
358.0580019400744
 20
463.6638842331076
 30
0.0
 10
359.7365244268894
 20
464.6728732715588
 30
0.0
 10
363.2051978393307
 20
466.5315852676866
 30
0.0
 10
365.0034219068281
 20
467.38378959586
 30
0.0
 10
370.4557747015539
 20
469.6454695602975
 30
0.0
 10
374.1951562528942
 20
470.7814710039438
 30
0.0
 10
378.9983473214578
 20
471.7425610840835
 30
0.0
 10
379.965491909362
 20
471.911626527295
 30
0.0
 10
381.9129896088837
 20
472.2027556126764
 30
0.0
 10
382.8944625825955
 20
472.324927226355
 30
0.0
 10
385.851633692656
 20
472.6186229242474
 30
0.0
 10
387.828236362779
 20
472.716567167924
 30
0.0
 10
389.8099992656744
 20
472.7165671641782
 30
0.0
  0
SPLINE
  5
160
330
1F
100
AcDbEntity
  8
0
  6
Continuous
 62
     8
370
    25
100
AcDbSpline
210
0.0
220
0.0
230
1.0
 70
     8
 71
     3
 72
    12
 73
     8
 74
     0
 42
0.000000001
 43
0.00000001
 40
0.0
 40
0.0
 40
0.0
 40
0.0
 40
0.2636005345609426
 40
0.4531130705265103
 40
0.6509913616037228
 40
0.8488696526565405
 40
1.0
 40
1.0
 40
1.0
 40
1.0
 10
702.7669446683624
 20
397.4752811566407
 30
0.0
 10
702.886433803376
 20
397.4200221460278
 30
0.0
 10
703.0918282611332
 20
397.3250353129594
 30
0.0
 10
703.3387683780198
 20
397.2108352609675
 30
0.0
 10
703.5061722370117
 20
397.1334175854883
 30
0.0
 10
703.6058962427978
 20
397.0872991704328
 30
0.0
 10
703.6113145792333
 20
397.0847934037561
 30
0.0
 10
703.6136608680567
 20
397.0837083378105
 30
0.0
  0
SPLINE
  5
161
330
1F
100
AcDbEntity
  8
0
  6
Continuous
 62
     8
370
    25
100
AcDbSpline
210
0.0
220
0.0
230
1.0
 70
     8
 71
     3
 72
    12
 73
     8
 74
     0
 42
0.000000001
 43
0.00000001
 40
0.0
 40
0.0
 40
0.0
 40
0.0
 40
0.1511297784501388
 40
0.3490077426240241
 40
0.5468857068222892
 40
0.7363979297284575
 40
1.0
 40
1.0
 40
1.0
 40
1.0
 10
636.0063374683723
 20
428.3494260033055
 30
0.0
 10
636.0086837563067
 20
428.3483409377791
 30
0.0
 10
636.0141020971786
 20
428.3458351690692
 30
0.0
 10
636.1138260667711
 20
428.2997167705808
 30
0.0
 10
636.281229918072
 20
428.2222990993308
 30
0.0
 10
636.5281707903354
 20
428.1080986952936
 30
0.0
 10
636.7335662677104
 20
428.0131113995324
 30
0.0
 10
636.8530563696024
 20
427.9578519469194
 30
0.0
  0
SPLINE
  5
162
330
1F
100
AcDbEntity
  8
0
  6
Continuous
 62
     8
370
    25
100
AcDbSpline
210
0.0
220
0.0
230
1.0
 70
     8
 71
     3
 72
    12
 73
     8
 74
     0
 42
0.000000001
 43
0.00000001
 40
0.0
 40
0.0
 40
0.0
 40
0.0
 40
0.2636005345609418
 40
0.453113070526512
 40
0.6509913616037215
 40
0.8488696526565417
 40
1.0
 40
1.0
 40
1.0
 40
1.0
 10
422.7668485038988
 20
397.4757641086107
 30
0.0
 10
422.8863376389126
 20
397.4205050979978
 30
0.0
 10
423.0917320966696
 20
397.3255182649294
 30
0.0
 10
423.3386722135562
 20
397.2113182129376
 30
0.0
 10
423.5060760725481
 20
397.1339005374583
 30
0.0
 10
423.6058000783343
 20
397.0877821224028
 30
0.0
 10
423.6112184147699
 20
397.085276355726
 30
0.0
 10
423.6135647035932
 20
397.0841912897806
 30
0.0
  0
SPLINE
  5
163
330
1F
100
AcDbEntity
  8
0
  6
Continuous
 62
     8
370
    25
100
AcDbSpline
210
0.0
220
0.0
230
1.0
 70
     8
 71
     3
 72
    12
 73
     8
 74
     0
 42
0.000000001
 43
0.00000001
 40
0.0
 40
0.0
 40
0.0
 40
0.0
 40
0.1511297784501368
 40
0.3490077426240191
 40
0.5468857068222853
 40
0.7363979297284556
 40
1.0
 40
1.0
 40
1.0
 40
1.0
 10
356.0062413039088
 20
428.3499089552755
 30
0.0
 10
356.0085875918432
 20
428.3488238897492
 30
0.0
 10
356.014005932715
 20
428.3463181210392
 30
0.0
 10
356.1137299023076
 20
428.3001997225508
 30
0.0
 10
356.2811337536085
 20
428.2227820513008
 30
0.0
 10
356.5280746258719
 20
428.1085816472636
 30
0.0
 10
356.733470103247
 20
428.0135943515024
 30
0.0
 10
356.852960205139
 20
427.9583348988893
 30
0.0
  0
LINE
  5
164
330
1F
100
AcDbEntity
  8
0
  6
Continuous
 62
     8
370
    25
100
AcDbLine
 10
375.7953838608
 20
471.0168425933
 30
0.0
 11
375.0599029848
 21
471.0168425933
 31
0.0
  0
LINE
  5
165
330
1F
100
AcDbEntity
  8
0
  6
Continuous
 62
     8
370
    25
100
AcDbLine
 10
655.7938967404
 20
471.0163596413
 30
0.0
 11
655.0599991492
 21
471.0163596413
 31
0.0
  0
SPLINE
  5
166
330
1F
100
AcDbEntity
  8
0
  6
Continuous
 62
     8
370
    25
100
AcDbSpline
210
0.0
220
0.0
230
1.0
 70
     8
 71
     3
 72
    25
 73
    21
 74
     0
 42
0.000000001
 43
0.00000001
 40
0.0
 40
0.0
 40
0.0
 40
0.0
 40
0.0208229712730492
 40
0.0413814317396549
 40
0.0616815317415785
 40
0.0817552739247292
 40
0.1124150620365211
 40
0.1430710146199158
 40
0.2145914624997924
 40
0.2860654966093203
 40
0.4288525593774242
 40
0.5716066644523372
 40
0.6430207906118516
 40
0.7144690910038077
 40
0.7858536183382335
 40
0.8572415289259077
 40
0.8929692132552787
 40
0.9286162696125173
 40
0.9642638410629014
 40
1.0
 40
1.0
 40
1.0
 40
1.0
 10
595.7588843696932
 20
148.6620201234904
 30
0.0
 10
595.7586805923847
 20
148.5191734528789
 30
0.0
 10
595.7582756263178
 20
148.2352946696049
 30
0.0
 10
595.7568101072691
 20
147.8125319619902
 30
0.0
 10
595.7551872577025
 20
147.3956105868154
 30
0.0
 10
595.7522629158808
 20
146.910792281502
 30
0.0
 10
595.747385364691
 20
146.3574978087905
 30
0.0
 10
595.7371129600115
 20
145.4606459571287
 30
0.0
 10
595.7188737544504
 20
144.3041433853322
 30
0.0
 10
595.6761055446067
 20
142.4585792330798
 30
0.0
 10
595.6024199085564
 20
140.2885300448023
 30
0.0
 10
595.5028921103243
 20
138.3896057096134
 30
0.0
 10
595.4111853772213
 20
137.0776771812399
 30
0.0
 10
595.3360121147251
 20
136.2049267832251
 30
0.0
 10
595.2565941096009
 20
135.4521984615872
 30
0.0
 10
595.1861575869267
 20
134.9308171105501
 30
0.0
 10
595.128588554613
 20
134.5802112785562
 30
0.0
 10
595.0846426460231
 20
134.3517839044308
 30
0.0
 10
595.0398518285609
 20
134.1550552910512
 30
0.0
 10
595.009539632335
 20
134.0533032924679
 30
0.0
 10
594.9943647254454
 20
134.0023641558635
 30
0.0
  0
SPLINE
  5
167
330
1F
100
AcDbEntity
  8
0
  6
Continuous
 62
     8
370
    25
100
AcDbSpline
210
0.0
220
0.0
230
1.0
 70
     8
 71
     3
 72
    26
 73
    22
 74
     0
 42
0.000000001
 43
0.00000001
 40
0.0
 40
0.0
 40
0.0
 40
0.0
 40
0.0170879629069415
 40
0.0356907986599858
 40
0.0558084455228328
 40
0.0774408388828937
 40
0.1005879107476249
 40
0.1539609592215125
 40
0.2040542815470085
 40
0.2508679241573404
 40
0.3666841748143824
 40
0.4733074802235162
 40
0.6065319598870962
 40
0.7342254995108382
 40
0.8005660437203351
 40
0.8663183432731524
 40
0.899474479403201
 40
0.9328011042651417
 40
0.9600412828500795
 40
0.9824409558311029
 40
1.0
 40
1.0
 40
1.0
 40
1.0
 10
580.8549129373474
 20
147.7902502045575
 30
0.0
 10
580.8656740265079
 20
147.7981975876374
 30
0.0
 10
580.8881501910855
 20
147.814796900904
 30
0.0
 10
580.9370721806702
 20
147.8405892576535
 30
0.0
 10
581.0019422203877
 20
147.8683862910806
 30
0.0
 10
581.0867484632612
 20
147.8981641504172
 30
0.0
 10
581.2387590108143
 20
147.9431291118489
 30
0.0
 10
581.4872088023006
 20
148.0004968739632
 30
0.0
 10
581.8642057228636
 20
148.0668770070218
 30
0.0
 10
582.5035519143792
 20
148.1582433023237
 30
0.0
 10
583.5337041063065
 20
148.2672309403132
 30
0.0
 10
585.2507315346613
 20
148.3951872218047
 30
0.0
 10
587.3762631985566
 20
148.5051313502505
 30
0.0
 10
589.5354930204467
 20
148.5789065833962
 30
0.0
 10
591.355969438612
 20
148.6209539980359
 30
0.0
 10
592.5506132107292
 20
148.64028661528
 30
0.0
 10
593.5207136433407
 20
148.6511962844619
 30
0.0
 10
594.2136724700181
 20
148.6566116363022
 30
0.0
 10
594.8299492238533
 20
148.6600010362877
 30
0.0
 10
595.3302666793495
 20
148.6621354539097
 30
0.0
 10
595.6280365876562
 20
148.6620561510043
 30
0.0
 10
595.7588855073677
 20
148.6620213029581
 30
0.0
  0
LINE
  5
168
330
1F
100
AcDbEntity
  8
0
  6
Continuous
 62
     8
370
    25
100
AcDbLine
 10
594.7932565204
 20
531.7149176486
 30
0.0
 11
594.7971974564
 21
531.5572779841
 31
0.0
  0
SPLINE
  5
169
330
1F
100
AcDbEntity
  8
0
  6
Continuous
 62
     8
370
    25
100
AcDbSpline
210
0.0
220
0.0
230
1.0
 70
     8
 71
     3
 72
    20
 73
    16
 74
     0
 42
0.000000001
 43
0.00000001
 40
0.0
 40
0.0
 40
0.0
 40
0.0
 40
0.0000815689640397
 40
0.0750516510031533
 40
0.1508163481067594
 40
0.2161490676068089
 40
0.3036003977255449
 40
0.3913522188392434
 40
0.4735333257384869
 40
0.6067349725388411
 40
0.7344844258584532
 40
0.8008152384812426
 40
0.8665056888517509
 40
0.9329234884770002
 40
1.0
 40
1.0
 40
1.0
 40
1.0
 10
220.8546622176267
 20
147.7925669376786
 30
0.0
 10
220.854685646734
 20
147.7926068824763
 30
0.0
 10
220.8762427818176
 20
147.8293601138618
 30
0.0
 10
221.0572602372673
 20
147.9007309750561
 30
0.0
 10
221.4367309911531
 20
148.0033343933769
 30
0.0
 10
222.025317975826
 20
148.1077409599553
 30
0.0
 10
222.8292621458195
 20
148.2126611618174
 30
0.0
 10
223.90797108449
 20
148.316570752639
 30
0.0
 10
225.4041125296742
 20
148.4275966782737
 30
0.0
 10
227.3939432576374
 20
148.5339128548913
 30
0.0
 10
229.5583937032444
 20
148.6101532051507
 30
0.0
 10
231.3828483418302
 20
148.6535733188557
 30
0.0
 10
232.8201137209063
 20
148.6773857341149
 30
0.0
 10
234.2920781063148
 20
148.6921580837753
 30
0.0
 10
235.2887751411129
 20
148.6942782049747
 30
0.0
 10
235.7895827003604
 20
148.6953434963181
 30
0.0
  0
SPLINE
  5
16A
330
1F
100
AcDbEntity
  8
0
  6
Continuous
 62
     8
370
    25
100
AcDbSpline
210
0.0
220
0.0
230
1.0
 70
     8
 71
     3
 72
    29
 73
    25
 74
     0
 42
0.000000001
 43
0.00000001
 40
0.0
 40
0.0
 40
0.0
 40
0.0
 40
0.0193050440805765
 40
0.0385928869230031
 40
0.0578505673265293
 40
0.0770899338778225
 40
0.0963282308862987
 40
0.1155800171854648
 40
0.1348571995027755
 40
0.1541714140060835
 40
0.2272571130945841
 40
0.3003063446688787
 40
0.3707438451974812
 40
0.4411588361171991
 40
0.5102380497484197
 40
0.5793247728421268
 40
0.6481152162543119
 40
0.7169390610030308
 40
0.7866295746922247
 40
0.8563452085239346
 40
0.8922981995038698
 40
0.928169281561058
 40
0.9640403915140332
 40
1.0
 40
1.0
 40
1.0
 40
1.0
 10
235.7895824362681
 20
148.6953432241802
 30
0.0
 10
235.7896932530765
 20
148.5635424824685
 30
0.0
 10
235.7899147879531
 20
148.3000584365364
 30
0.0
 10
235.7885521995509
 20
147.9053717519593
 30
0.0
 10
235.7868043774173
 20
147.5116949424796
 30
0.0
 10
235.7844138232679
 20
147.1192013742303
 30
0.0
 10
235.7813306158814
 20
146.7278591948996
 30
0.0
 10
235.7775152233646
 20
146.3376432673435
 30
0.0
 10
235.7730174410008
 20
145.9485646023245
 30
0.0
 10
235.763142375786
 20
145.2011662808534
 30
0.0
 10
235.7443362866037
 20
144.1081813929054
 30
0.0
 10
235.7095306860026
 20
142.7233998259934
 30
0.0
 10
235.6674158549683
 20
141.413133628901
 30
0.0
 10
235.6176006444671
 20
140.1944226720601
 30
0.0
 10
235.5616783316283
 20
139.060902806744
 30
0.0
 10
235.4988701646479
 20
138.0219683635844
 30
0.0
 10
235.4306915488328
 20
137.0790430914184
 30
0.0
 10
235.3560981066536
 20
136.2365196088785
 30
0.0
 10
235.2769098590626
 20
135.5017621896367
 30
0.0
 10
235.206076634757
 20
134.9832032729513
 30
0.0
 10
235.1476339761374
 20
134.6286770126293
 30
0.0
 10
235.1023324964937
 20
134.3933240169765
 30
0.0
 10
235.0561527212819
 20
134.1896787485021
 30
0.0
 10
235.024871228099
 20
134.0833248613137
 30
0.0
 10
235.0092112114353
 20
134.030082401439
 30
0.0
  0
SPLINE
  5
16B
330
1F
100
AcDbEntity
  8
0
  6
Continuous
 62
     8
370
    25
100
AcDbSpline
210
0.0
220
0.0
230
1.0
 70
     8
 71
     3
 72
    26
 73
    22
 74
     0
 42
0.000000001
 43
0.00000001
 40
0.0
 40
0.0
 40
0.0
 40
0.0
 40
0.0170791643536398
 40
0.0356817540580604
 40
0.0558076879446148
 40
0.0774568803703302
 40
0.1006292407204054
 40
0.154041572789275
 40
0.2041331598428833
 40
0.2509041725047044
 40
0.3668064751929058
 40
0.473449131639132
 40
0.606709039680144
 40
0.7343689432976724
 40
0.8006743218313374
 40
0.8664222004442153
 40
0.8995467173123703
 40
0.9328530082855242
 40
0.9600402938722304
 40
0.9824226603197165
 40
1.0
 40
1.0
 40
1.0
 40
1.0
 10
234.8816576433981
 20
531.6719344291635
 30
0.0
 10
234.8893980502663
 20
531.6612206645628
 30
0.0
 10
234.9055692919301
 20
531.6388374902107
 30
0.0
 10
234.9307008217133
 20
531.590081666999
 30
0.0
 10
234.9577972008479
 20
531.5253824260116
 30
0.0
 10
234.9868357632345
 20
531.4407406387243
 30
0.0
 10
235.03069089103
 20
531.2889718059799
 30
0.0
 10
235.0866278205475
 20
531.0409206802993
 30
0.0
 10
235.1513219794302
 20
530.664667557197
 30
0.0
 10
235.2403956843402
 20
530.0264561686446
 30
0.0
 10
235.3466579363728
 20
528.99794774671
 30
0.0
 10
235.4714631357979
 20
527.2830751298179
 30
0.0
 10
235.5786921657258
 20
525.1606816004869
 30
0.0
 10
235.6507215668395
 20
523.004754061223
 30
0.0
 10
235.6918040516728
 20
521.1871982617432
 30
0.0
 10
235.7107226351822
 20
519.9945425372204
 30
0.0
 10
235.7214286234839
 20
519.0259749295922
 30
0.0
 10
235.726756013574
 20
518.3345515327132
 30
0.0
 10
235.7301167983496
 20
517.7195885820096
 30
0.0
 10
235.7322536130562
 20
517.2201537736638
 30
0.0
 10
235.7322005532284
 20
516.9226544721157
 30
0.0
 10
235.7321772134517
 20
516.7917914907605
 30
0.0
  0
SPLINE
  5
16C
330
1F
100
AcDbEntity
  8
0
  6
Continuous
 62
     8
370
    25
100
AcDbSpline
210
0.0
220
0.0
230
1.0
 70
     8
 71
     3
 72
    31
 73
    27
 74
     0
 42
0.000000001
 43
0.00000001
 40
0.0
 40
0.0
 40
0.0
 40
0.0
 40
0.0189436097445553
 40
0.0379234949295082
 40
0.0569397125418974
 40
0.0759923257741144
 40
0.0950814020286823
 40
0.1142070112468016
 40
0.1333692245494253
 40
0.1525681131764176
 40
0.1718037477065672
 40
0.1910761975378929
 40
0.2103855306051269
 40
0.2297318133079554
 40
0.2491151106210215
 40
0.2685354863538426
 40
0.28799300352609
 40
0.4213352878172224
 40
0.560836865307839
 40
0.6899988469529811
 40
0.8321713614671016
 40
0.8589531735316174
 40
0.889126887356625
 40
0.9226925586974769
 40
0.9596502412499806
 40
1.0
 40
1.0
 40
1.0
 40
1.0
 10
235.7321772259832
 20
516.7917914711785
 30
0.0
 10
235.5992257954056
 20
516.791897027175
 30
0.0
 10
235.3330683432953
 20
516.792108341299
 30
0.0
 10
234.9338041095062
 20
516.7932658207621
 30
0.0
 10
234.5343977485148
 20
516.7950380209625
 30
0.0
 10
234.1351432707787
 20
516.7974854438185
 30
0.0
 10
233.7363308179357
 20
516.8005916369984
 30
0.0
 10
233.3382545953805
 20
516.8043608863337
 30
0.0
 10
232.9412104994857
 20
516.808791964407
 30
0.0
 10
232.545496494214
 20
516.8138851857365
 30
0.0
 10
232.1514122899012
 20
516.8196405096148
 30
0.0
 10
231.7592590223973
 20
516.8260580568908
 30
0.0
 10
231.3693395983117
 20
516.8331379469637
 30
0.0
 10
230.9819563330451
 20
516.8408804337921
 30
0.0
 10
230.5974187435167
 20
516.84928552598
 30
0.0
 10
230.2160132924104
 20
516.8583543756217
 30
0.0
 10
229.1010791186214
 20
516.8870605292414
 30
0.0
 10
227.2925482502902
 20
516.9486188031178
 30
0.0
 10
225.1134419270469
 20
517.0603306053282
 30
0.0
 10
223.2766514250426
 20
517.1986572010019
 30
0.0
 10
222.2732385564425
 20
517.3122600323044
 30
0.0
 10
221.7579383644488
 20
517.392404262451
 30
0.0
 10
221.5471379883173
 20
517.4295237437402
 30
0.0
 10
221.343289168889
 20
517.4713471357763
 30
0.0
 10
221.1528383342602
 20
517.517869466497
 30
0.0
 10
221.056779156012
 20
517.5506532770894
 30
0.0
 10
221.006642136823
 20
517.5677644222266
 30
0.0
  0
SPLINE
  5
16D
330
1F
100
AcDbEntity
  8
0
  6
Continuous
 62
     8
370
    25
100
AcDbSpline
210
0.0
220
0.0
230
1.0
 70
     8
 71
     3
 72
    22
 73
    18
 74
     0
 42
0.000000001
 43
0.00000001
 40
0.0
 40
0.0
 40
0.0
 40
0.0
 40
0.0127099101816471
 40
0.0371904083073548
 40
0.0538362888377799
 40
0.0739249476100985
 40
0.145319961010128
 40
0.2815904247183293
 40
0.4165047908167626
 40
0.5395176139516143
 40
0.6699760762995651
 40
0.7957381025011764
 40
0.8634112918911658
 40
0.9299126292450766
 40
0.9537763746633244
 40
0.9771388041477901
 40
1.0
 40
1.0
 40
1.0
 40
1.0
 10
543.8931586583849
 20
516.7969900961606
 30
0.0
 10
543.8990977934426
 20
516.8895419729246
 30
0.0
 10
543.9164762685559
 20
517.1603575835206
 30
0.0
 10
543.9429606784184
 20
517.5520608233054
 30
0.0
 10
543.972612786667
 20
517.9966566247069
 30
0.0
 10
544.0244745612631
 20
518.780244619395
 30
0.0
 10
544.1320080070749
 20
520.4188735341381
 30
0.0
 10
544.2870770875403
 20
522.8066978433636
 30
0.0
 10
544.4469190135105
 20
525.3229650516935
 30
0.0
 10
544.582445503821
 20
527.4946861669499
 30
0.0
 10
544.6879505022415
 20
529.2510701634885
 30
0.0
 10
544.7526801497395
 20
530.3823127574865
 30
0.0
 10
544.7878157489522
 20
531.0420227462706
 30
0.0
 10
544.8018303339559
 20
531.3358973915012
 30
0.0
 10
544.8083107290698
 20
531.4931106942527
 30
0.0
 10
544.811351171237
 20
531.5738440220669
 30
0.0
 10
544.8124072031189
 20
531.6128260240088
 30
0.0
 10
544.8129294934306
 20
531.6321056710423
 30
0.0
  0
SPLINE
  5
16E
330
1F
100
AcDbEntity
  8
0
  6
Continuous
 62
     8
370
    25
100
AcDbSpline
210
0.0
220
0.0
230
1.0
 70
     8
 71
     3
 72
    26
 73
    22
 74
     0
 42
0.000000001
 43
0.00000001
 40
0.0
 40
0.0
 40
0.0
 40
0.0
 40
0.0180920347240193
 40
0.0361504050547928
 40
0.0541876355282232
 40
0.0722154462644891
 40
0.0902449498327388
 40
0.1082868220555447
 40
0.1263514346664276
 40
0.1444489499944721
 40
0.2165797093037797
 40
0.2887339652274895
 40
0.3608134947284965
 40
0.4328905575359983
 40
0.5767461902363299
 40
0.7204950283861379
 40
0.8641674896294756
 40
0.9344311675644129
 40
0.9641666979915821
 40
0.9800374303069506
 40
1.0
 40
1.0
 40
1.0
 40
1.0
 10
558.5178034001365
 20
517.711501070549
 30
0.0
 10
558.4926232990911
 20
517.7104074984484
 30
0.0
 10
558.4423099503719
 20
517.7082223890898
 30
0.0
 10
558.3555408498759
 20
517.7041339755255
 30
0.0
 10
558.26066659456
 20
517.6995148978955
 30
0.0
 10
558.1568891929727
 20
517.694323035476
 30
0.0
 10
558.0444307499715
 20
517.6885786813393
 30
0.0
 10
557.9232226456837
 20
517.6822659732594
 30
0.0
 10
557.7932534133201
 20
517.6753645789247
 30
0.0
 10
557.5165451213287
 20
517.6603482433258
 30
0.0
 10
557.0380782291016
 20
517.6331254856312
 30
0.0
 10
556.2720885791979
 20
517.5886669653381
 30
0.0
 10
555.3853047016885
 20
517.5351388449983
 30
0.0
 10
554.0556958809502
 20
517.4540700005977
 30
0.0
 10
552.1357115089736
 20
517.3337583456732
 30
0.0
 10
549.5153162391124
 20
517.1663369797615
 30
0.0
 10
547.1585047426776
 20
517.012547325683
 30
0.0
 10
545.5099904209094
 20
516.9047670623202
 30
0.0
 10
544.7211345950125
 20
516.8518682674013
 30
0.0
 10
544.2738641698305
 20
516.8239367961697
 30
0.0
 10
544.0293677880082
 20
516.8066318414945
 30
0.0
 10
543.8931599648868
 20
516.7969913298929
 30
0.0
  0
ENDSEC
  0
SECTION
  2
OBJECTS
  0
DICTIONARY
  5
C
330
0
100
AcDbDictionary
281
     1
  3
ACAD_GROUP
350
D
  3
ACAD_LAYOUT
350
1A
  3
ACAD_MLINESTYLE
350
17
  3
ACAD_PLOTSETTINGS
350
19
  3
ACAD_PLOTSTYLENAME
350
E
  3
ACAD_SCALELIST
350
47
  0
DICTIONARY
  5
D
102
{ACAD_REACTORS
330
C
102
}
330
C
100
AcDbDictionary
281
     1
  0
DICTIONARY
  5
1A
102
{ACAD_REACTORS
330
C
102
}
330
C
100
AcDbDictionary
281
     1
  3
Layout1
350
1E
  3
Layout2
350
26
  3
Model
350
22
  0
DICTIONARY
  5
17
102
{ACAD_REACTORS
330
C
102
}
330
C
100
AcDbDictionary
281
     1
  3
Standard
350
18
  0
DICTIONARY
  5
19
102
{ACAD_REACTORS
330
C
102
}
330
C
100
AcDbDictionary
281
     1
  0
ACDBDICTIONARYWDFLT
  5
E
102
{ACAD_REACTORS
330
C
102
}
330
C
100
AcDbDictionary
281
     1
  3
Normal
350
F
100
AcDbDictionaryWithDefault
340
F
  0
DICTIONARY
  5
47
102
{ACAD_REACTORS
330
C
102
}
330
C
100
AcDbDictionary
281
     1
  3
A0
350
48
  3
A1
350
49
  3
A2
350
4A
  3
A3
350
4B
  3
A4
350
4C
  3
A5
350
4D
  3
A6
350
4E
  3
A7
350
4F
  3
A8
350
50
  3
A9
350
51
  3
B0
350
52
  3
B1
350
53
  3
B2
350
54
  3
B3
350
55
  3
B4
350
56
  3
B5
350
57
  3
B6
350
58
  3
B7
350
59
  3
B8
350
5A
  3
B9
350
5B
  3
C0
350
5C
  3
C1
350
5D
  3
C2
350
5E
  3
C3
350
5F
  3
C4
350
60
  3
C5
350
61
  3
C6
350
62
  3
C7
350
63
  3
C8
350
64
  3
C9
350
65
  3
D0
350
66
  3
D1
350
67
  3
D2
350
68
  0
LAYOUT
  5
1E
102
{ACAD_REACTORS
330
1A
102
}
330
1A
100
AcDbPlotSettings
  1

  2
none_device
  4

  6

 40
0.0
 41
0.0
 42
0.0
 43
0.0
 44
0.0
 45
0.0
 46
0.0
 47
0.0
 48
0.0
 49
0.0
140
0.0
141
0.0
142
1.0
143
1.0
 70
   688
 72
     1
 73
     0
 74
     5
  7

 75
    16
147
1.0
148
0.0
149
0.0
100
AcDbLayout
  1
Layout1
 70
     1
 71
     1
 10
0.0
 20
0.0
 11
420.0
 21
297.0
 12
0.0
 22
0.0
 32
0.0
 14
1.0000000000E+20
 24
1.0000000000E+20
 34
1.0000000000E+20
 15
-1.0000000000E+20
 25
-1.0000000000E+20
 35
-1.0000000000E+20
146
0.0
 13
0.0
 23
0.0
 33
0.0
 16
1.0
 26
0.0
 36
0.0
 17
0.0
 27
1.0
 37
0.0
 76
     0
330
1B
  0
LAYOUT
  5
26
102
{ACAD_REACTORS
330
1A
102
}
330
1A
100
AcDbPlotSettings
  1

  2
none_device
  4

  6

 40
0.0
 41
0.0
 42
0.0
 43
0.0
 44
0.0
 45
0.0
 46
0.0
 47
0.0
 48
0.0
 49
0.0
140
0.0
141
0.0
142
1.0
143
1.0
 70
   688
 72
     1
 73
     0
 74
     5
  7

 75
    16
147
1.0
148
0.0
149
0.0
100
AcDbLayout
  1
Layout2
 70
     1
 71
     2
 10
0.0
 20
0.0
 11
0.0
 21
0.0
 12
0.0
 22
0.0
 32
0.0
 14
0.0
 24
0.0
 34
0.0
 15
0.0
 25
0.0
 35
0.0
146
0.0
 13
0.0
 23
0.0
 33
0.0
 16
1.0
 26
0.0
 36
0.0
 17
0.0
 27
1.0
 37
0.0
 76
     0
330
23
  0
LAYOUT
  5
22
102
{ACAD_REACTORS
330
1A
102
}
330
1A
100
AcDbPlotSettings
  1

  2
none_device
  4
Letter_(8.50_x_11.00_Inches)
  6

 40
6.35
 41
6.35
 42
6.35000508
 43
6.35000508
 44
215.9
 45
279.4
 46
0.0
 47
0.0
 48
0.0
 49
0.0
140
0.0
141
0.0
142
1.0
143
1.0
 70
  1712
 72
     1
 73
     0
 74
     0
  7

 75
     0
147
1.0
148
0.0
149
0.0
100
AcDbLayout
  1
Model
 70
     1
 71
     0
 10
0.0
 20
0.0
 11
1000.0
 21
700.0
 12
0.0
 22
0.0
 32
0.0
 14
0.0
 24
0.0
 34
0.0
 15
1000.0
 25
700.0
 35
0.0
146
0.0
 13
0.0
 23
0.0
 33
0.0
 16
1.0
 26
0.0
 36
0.0
 17
0.0
 27
1.0
 37
0.0
 76
     0
330
1F
331
29
  0
MLINESTYLE
  5
18
102
{ACAD_REACTORS
330
17
102
}
330
17
100
AcDbMlineStyle
  2
Standard
 70
     0
  3

 62
   256
 51
90.0
 52
90.0
 71
     2
 49
0.5
 62
   256
  6
BYLAYER
 49
-0.5
 62
   256
  6
BYLAYER
  0
ACDBPLACEHOLDER
  5
F
102
{ACAD_REACTORS
330
E
102
}
330
E
  0
SCALE
  5
48
102
{ACAD_REACTORS
330
47
102
}
330
47
100
AcDbScale
 70
     0
300
1:1
140
1.0
141
1.0
290
     1
  0
SCALE
  5
49
102
{ACAD_REACTORS
330
47
102
}
330
47
100
AcDbScale
 70
     0
300
1:2
140
1.0
141
2.0
290
     0
  0
SCALE
  5
4A
102
{ACAD_REACTORS
330
47
102
}
330
47
100
AcDbScale
 70
     0
300
1:4
140
1.0
141
4.0
290
     0
  0
SCALE
  5
4B
102
{ACAD_REACTORS
330
47
102
}
330
47
100
AcDbScale
 70
     0
300
1:5
140
1.0
141
5.0
290
     0
  0
SCALE
  5
4C
102
{ACAD_REACTORS
330
47
102
}
330
47
100
AcDbScale
 70
     0
300
1:8
140
1.0
141
8.0
290
     0
  0
SCALE
  5
4D
102
{ACAD_REACTORS
330
47
102
}
330
47
100
AcDbScale
 70
     0
300
1:10
140
1.0
141
10.0
290
     0
  0
SCALE
  5
4E
102
{ACAD_REACTORS
330
47
102
}
330
47
100
AcDbScale
 70
     0
300
1:16
140
1.0
141
16.0
290
     0
  0
SCALE
  5
4F
102
{ACAD_REACTORS
330
47
102
}
330
47
100
AcDbScale
 70
     0
300
1:20
140
1.0
141
20.0
290
     0
  0
SCALE
  5
50
102
{ACAD_REACTORS
330
47
102
}
330
47
100
AcDbScale
 70
     0
300
1:30
140
1.0
141
30.0
290
     0
  0
SCALE
  5
51
102
{ACAD_REACTORS
330
47
102
}
330
47
100
AcDbScale
 70
     0
300
1:40
140
1.0
141
40.0
290
     0
  0
SCALE
  5
52
102
{ACAD_REACTORS
330
47
102
}
330
47
100
AcDbScale
 70
     0
300
1:50
140
1.0
141
50.0
290
     0
  0
SCALE
  5
53
102
{ACAD_REACTORS
330
47
102
}
330
47
100
AcDbScale
 70
     0
300
1:100
140
1.0
141
100.0
290
     0
  0
SCALE
  5
54
102
{ACAD_REACTORS
330
47
102
}
330
47
100
AcDbScale
 70
     0
300
2:1
140
2.0
141
1.0
290
     0
  0
SCALE
  5
55
102
{ACAD_REACTORS
330
47
102
}
330
47
100
AcDbScale
 70
     0
300
4:1
140
4.0
141
1.0
290
     0
  0
SCALE
  5
56
102
{ACAD_REACTORS
330
47
102
}
330
47
100
AcDbScale
 70
     0
300
8:1
140
8.0
141
1.0
290
     0
  0
SCALE
  5
57
102
{ACAD_REACTORS
330
47
102
}
330
47
100
AcDbScale
 70
     0
300
10:1
140
10.0
141
1.0
290
     0
  0
SCALE
  5
58
102
{ACAD_REACTORS
330
47
102
}
330
47
100
AcDbScale
 70
     0
300
100:1
140
100.0
141
1.0
290
     0
  0
SCALE
  5
59
102
{ACAD_REACTORS
330
47
102
}
330
47
100
AcDbScale
 70
     0
300
1/128" = 1'-0"
140
0.0078125
141
12.0
290
     0
  0
SCALE
  5
5A
102
{ACAD_REACTORS
330
47
102
}
330
47
100
AcDbScale
 70
     0
300
1/64" = 1'-0"
140
0.015625
141
12.0
290
     0
  0
SCALE
  5
5B
102
{ACAD_REACTORS
330
47
102
}
330
47
100
AcDbScale
 70
     0
300
1/32" = 1'-0"
140
0.03125
141
12.0
290
     0
  0
SCALE
  5
5C
102
{ACAD_REACTORS
330
47
102
}
330
47
100
AcDbScale
 70
     0
300
1/16" = 1'-0"
140
0.0625
141
12.0
290
     0
  0
SCALE
  5
5D
102
{ACAD_REACTORS
330
47
102
}
330
47
100
AcDbScale
 70
     0
300
3/32" = 1'-0"
140
0.09375
141
12.0
290
     0
  0
SCALE
  5
5E
102
{ACAD_REACTORS
330
47
102
}
330
47
100
AcDbScale
 70
     0
300
1/8" = 1'-0"
140
0.125
141
12.0
290
     0
  0
SCALE
  5
5F
102
{ACAD_REACTORS
330
47
102
}
330
47
100
AcDbScale
 70
     0
300
3/16" = 1'-0"
140
0.1875
141
12.0
290
     0
  0
SCALE
  5
60
102
{ACAD_REACTORS
330
47
102
}
330
47
100
AcDbScale
 70
     0
300
1/4" = 1'-0"
140
0.25
141
12.0
290
     0
  0
SCALE
  5
61
102
{ACAD_REACTORS
330
47
102
}
330
47
100
AcDbScale
 70
     0
300
3/8" = 1'-0"
140
0.375
141
12.0
290
     0
  0
SCALE
  5
62
102
{ACAD_REACTORS
330
47
102
}
330
47
100
AcDbScale
 70
     0
300
1/2" = 1'-0"
140
0.5
141
12.0
290
     0
  0
SCALE
  5
63
102
{ACAD_REACTORS
330
47
102
}
330
47
100
AcDbScale
 70
     0
300
3/4" = 1'-0"
140
0.75
141
12.0
290
     0
  0
SCALE
  5
64
102
{ACAD_REACTORS
330
47
102
}
330
47
100
AcDbScale
 70
     0
300
1" = 1'-0"
140
1.0
141
12.0
290
     0
  0
SCALE
  5
65
102
{ACAD_REACTORS
330
47
102
}
330
47
100
AcDbScale
 70
     0
300
1-1/2" = 1'-0"
140
1.5
141
12.0
290
     0
  0
SCALE
  5
66
102
{ACAD_REACTORS
330
47
102
}
330
47
100
AcDbScale
 70
     0
300
3" = 1'-0"
140
3.0
141
12.0
290
     0
  0
SCALE
  5
67
102
{ACAD_REACTORS
330
47
102
}
330
47
100
AcDbScale
 70
     0
300
6" = 1'-0"
140
6.0
141
12.0
290
     0
  0
SCALE
  5
68
102
{ACAD_REACTORS
330
47
102
}
330
47
100
AcDbScale
 70
     0
300
1'-0" = 1'-0"
140
12.0
141
12.0
290
     0
  0
ENDSEC
  0
EOF
