  0
SECTION
  2
HEADER
  9
$ACADVER
  1
AC1015
  9
$ACADMAINTVER
 70
     6
  9
$DWGCODEPAGE
  3
ANSI_1252
  9
$INSBASE
 10
0.0
 20
0.0
 30
0.0
  9
$EXTMIN
 10
0.0
 20
0.0
 30
0.0
  9
$EXTMAX
 10
750.0
 20
750.0
 30
0.0
  9
$LIMMIN
 10
0.0
 20
0.0
  9
$LIMMAX
 10
750.0
 20
750.0
  9
$ORTHOMODE
 70
     0
  9
$REGENMODE
 70
     1
  9
$FILLMODE
 70
     1
  9
$QTEXTMODE
 70
     0
  9
$MIRRTEXT
 70
     1
  9
$LTSCALE
 40
1.0
  9
$ATTMODE
 70
     1
  9
$TEXTSIZE
 40
5.0
  9
$TRACEWID
 40
1.0
  9
$TEXTSTYLE
  7
Standard
  9
$CLAYER
  8
0
  9
$CELTYPE
  6
ByLayer
  9
$CECOLOR
 62
   256
  9
$CELTSCALE
 40
1.0
  9
$DISPSILH
 70
     0
  9
$DIMSCALE
 40
1.0
  9
$DIMASZ
 40
6.0
  9
$DIMEXO
 40
1.0
  9
$DIMDLI
 40
3.75
  9
$DIMRND
 40
0.0
  9
$DIMDLE
 40
0.0
  9
$DIMEXE
 40
1.0
  9
$DIMTP
 40
0.0
  9
$DIMTM
 40
0.0
  9
$DIMTXT
 40
5.0
  9
$DIMCEN
 40
2.5
  9
$DIMTSZ
 40
0.0
  9
$DIMTOL
 70
     0
  9
$DIMLIM
 70
     0
  9
$DIMTIH
 70
     1
  9
$DIMTOH
 70
     1
  9
$DIMSE1
 70
     0
  9
$DIMSE2
 70
     0
  9
$DIMTAD
 70
     1
  9
$DIMZIN
 70
     0
  9
$DIMBLK
  1

  9
$DIMASO
 70
     1
  9
$DIMSHO
 70
     1
  9
$DIMPOST
  1

  9
$DIMAPOST
  1

  9
$DIMALT
 70
     0
  9
$DIMALTD
 70
     3
  9
$DIMALTF
 40
0.0393700787
  9
$DIMLFAC
 40
1.0
  9
$DIMTOFL
 70
     1
  9
$DIMTVP
 40
0.0
  9
$DIMTIX
 70
     0
  9
$DIMSOXD
 70
     0
  9
$DIMSAH
 70
     0
  9
$DIMBLK1
  1

  9
$DIMBLK2
  1

  9
$DIMSTYLE
  2
ISO-25
  9
$DIMCLRD
 70
     0
  9
$DIMCLRE
 70
     0
  9
$DIMCLRT
 70
     0
  9
$DIMTFAC
 40
1.0
  9
$DIMGAP
 40
1.524
  9
$DIMJUST
 70
     0
  9
$DIMSD1
 70
     0
  9
$DIMSD2
 70
     0
  9
$DIMTOLJ
 70
     0
  9
$DIMTZIN
 70
     0
  9
$DIMALTZ
 70
     0
  9
$DIMALTTZ
 70
     0
  9
$DIMUPT
 70
     0
  9
$DIMDEC
 70
     2
  9
$DIMTDEC
 70
     2
  9
$DIMALTU
 70
     2
  9
$DIMALTTD
 70
     3
  9
$DIMTXSTY
  7
Standard
  9
$DIMAUNIT
 70
     0
  9
$DIMADEC
 70
     2
  9
$DIMALTRND
 40
0.0
  9
$DIMAZIN
 70
     0
  9
$DIMDSEP
 70
    44
  9
$DIMATFIT
 70
     3
  9
$DIMFRAC
 70
     0
  9
$DIMLDRBLK
  1

  9
$DIMLUNIT
 70
     2
  9
$DIMLWD
 70
    -2
  9
$DIMLWE
 70
    -2
  9
$DIMTMOVE
 70
     0
  9
$LUNITS
 70
     2
  9
$LUPREC
 70
     2
  9
$SKETCHINC
 40
1.0
  9
$FILLETRAD
 40
10.0
  9
$AUNITS
 70
     0
  9
$AUPREC
 70
     2
  9
$MENU
  1
.
  9
$ELEVATION
 40
0.0
  9
$PELEVATION
 40
0.0
  9
$THICKNESS
 40
0.0
  9
$LIMCHECK
 70
     0
  9
$CHAMFERA
 40
0.0
  9
$CHAMFERB
 40
0.0
  9
$CHAMFERC
 40
0.0
  9
$CHAMFERD
 40
0.0
  9
$SKPOLY
 70
     0
  9
$TDCREATE
 40
2458569.642925393
  9
$TDUCREATE
 40
2458569.55959206
  9
$TDUPDATE
 40
2458569.642928345
  9
$TDUUPDATE
 40
2458569.559595012
  9
$TDINDWG
 40
0.0000000116
  9
$TDUSRTIMER
 40
0.0000000116
  9
$USRTIMER
 70
     1
  9
$ANGBASE
 50
0.0
  9
$ANGDIR
 70
     0
  9
$PDMODE
 70
     0
  9
$PDSIZE
 40
-1.0
  9
$PLINEWID
 40
0.0
  9
$SPLFRAME
 70
     0
  9
$SPLINETYPE
 70
     6
  9
$SPLINESEGS
 70
     8
  9
$HANDSEED
  5
250
  9
$SURFTAB1
 70
     6
  9
$SURFTAB2
 70
     6
  9
$SURFTYPE
 70
     6
  9
$SURFU
 70
     6
  9
$SURFV
 70
     6
  9
$UCSBASE
  2

  9
$UCSNAME
  2

  9
$UCSORG
 10
0.0
 20
0.0
 30
0.0
  9
$UCSXDIR
 10
1.0
 20
0.0
 30
0.0
  9
$UCSYDIR
 10
0.0
 20
1.0
 30
0.0
  9
$UCSORTHOREF
  2

  9
$UCSORTHOVIEW
 70
     0
  9
$UCSORGTOP
 10
0.0
 20
0.0
 30
0.0
  9
$UCSORGBOTTOM
 10
0.0
 20
0.0
 30
0.0
  9
$UCSORGLEFT
 10
0.0
 20
0.0
 30
0.0
  9
$UCSORGRIGHT
 10
0.0
 20
0.0
 30
0.0
  9
$UCSORGFRONT
 10
0.0
 20
0.0
 30
0.0
  9
$UCSORGBACK
 10
0.0
 20
0.0
 30
0.0
  9
$PUCSBASE
  2

  9
$PUCSNAME
  2

  9
$PUCSORG
 10
0.0
 20
0.0
 30
0.0
  9
$PUCSXDIR
 10
1.0
 20
0.0
 30
0.0
  9
$PUCSYDIR
 10
0.0
 20
1.0
 30
0.0
  9
$PUCSORTHOREF
  2

  9
$PUCSORTHOVIEW
 70
     0
  9
$PUCSORGTOP
 10
0.0
 20
0.0
 30
0.0
  9
$PUCSORGBOTTOM
 10
0.0
 20
0.0
 30
0.0
  9
$PUCSORGLEFT
 10
0.0
 20
0.0
 30
0.0
  9
$PUCSORGRIGHT
 10
0.0
 20
0.0
 30
0.0
  9
$PUCSORGFRONT
 10
0.0
 20
0.0
 30
0.0
  9
$PUCSORGBACK
 10
0.0
 20
0.0
 30
0.0
  9
$USERI1
 70
     0
  9
$USERI2
 70
     0
  9
$USERI3
 70
     0
  9
$USERI4
 70
     0
  9
$USERI5
 70
     0
  9
$USERR1
 40
0.0
  9
$USERR2
 40
0.0
  9
$USERR3
 40
0.0
  9
$USERR4
 40
0.0
  9
$USERR5
 40
0.0
  9
$WORLDVIEW
 70
     1
  9
$SHADEDGE
 70
     3
  9
$SHADEDIF
 70
    70
  9
$TILEMODE
 70
     1
  9
$MAXACTVP
 70
    64
  9
$PINSBASE
 10
0.0
 20
0.0
 30
0.0
  9
$PLIMCHECK
 70
     0
  9
$PEXTMIN
 10
1.0000000000E+20
 20
1.0000000000E+20
 30
1.0000000000E+20
  9
$PEXTMAX
 10
-1.0000000000E+20
 20
-1.0000000000E+20
 30
-1.0000000000E+20
  9
$PLIMMIN
 10
0.0
 20
0.0
  9
$PLIMMAX
 10
420.0
 20
297.0
  9
$UNITMODE
 70
     0
  9
$VISRETAIN
 70
     1
  9
$PLINEGEN
 70
     0
  9
$PSLTSCALE
 70
     1
  9
$TREEDEPTH
 70
  3020
  9
$CMLSTYLE
  2
Standard
  9
$CMLJUST
 70
     0
  9
$CMLSCALE
 40
20.0
  9
$PROXYGRAPHICS
 70
     1
  9
$MEASUREMENT
 70
     1
  9
$CELWEIGHT
370
    -1
  9
$ENDCAPS
280
     0
  9
$JOINSTYLE
280
     0
  9
$LWDISPLAY
290
     1
  9
$INSUNITS
 70
     4
  9
$HYPERLINKBASE
  1

  9
$STYLESHEET
  1

  9
$XEDIT
290
     1
  9
$CEPSNTYPE
380
     0
  9
$PSTYLEMODE
290
     1
  9
$FINGERPRINTGUID
  2
{EBF5664D-BE40-48F9-A10E-DABD0E2B9720}
  9
$VERSIONGUID
  2
{FAEB1C32-E019-11D5-929B-00C0DF256EC4}
  9
$EXTNAMES
290
     1
  9
$PSVPSCALE
 40
0.0
  9
$OLESTARTUP
290
     0
  0
ENDSEC
  0
SECTION
  2
CLASSES
  0
CLASS
  1
ACDBDICTIONARYWDFLT
  2
AcDbDictionaryWithDefault
  3
ObjectDBX Classes
 90
        0
280
     0
281
     0
  0
CLASS
  1
VISUALSTYLE
  2
AcDbVisualStyle
  3
ObjectDBX Classes
 90
     4095
280
     0
281
     0
  0
CLASS
  1
MATERIAL
  2
AcDbMaterial
  3
ObjectDBX Classes
 90
     1153
280
     0
281
     0
  0
CLASS
  1
SCALE
  2
AcDbScale
  3
ObjectDBX Classes
 90
     1153
280
     0
281
     0
  0
CLASS
  1
TABLESTYLE
  2
AcDbTableStyle
  3
ObjectDBX Classes
 90
     4095
280
     0
281
     0
  0
CLASS
  1
MLEADERSTYLE
  2
AcDbMLeaderStyle
  3
ACDB_MLEADERSTYLE_CLASS
 90
     4095
280
     0
281
     0
  0
CLASS
  1
SUN
  2
AcDbSun
  3
SCENEOE
 90
     1153
280
     0
281
     0
  0
CLASS
  1
ACDBPLACEHOLDER
  2
AcDbPlaceHolder
  3
ObjectDBX Classes
 90
        0
280
     0
281
     0
  0
CLASS
  1
LAYOUT
  2
AcDbLayout
  3
ObjectDBX Classes
 90
        0
280
     0
281
     0
  0
ENDSEC
  0
SECTION
  2
TABLES
  0
TABLE
  2
VPORT
  5
8
330
0
100
AcDbSymbolTable
 70
     1
  0
VPORT
  5
29
330
8
100
AcDbSymbolTableRecord
100
AcDbViewportTableRecord
  2
*Active
 70
     0
 10
0.0
 20
0.0
 11
1.0
 21
1.0
 12
375.0
 22
375.0
 13
0.0
 23
0.0
 14
10.0
 24
10.0
 15
10.0
 25
10.0
 16
0.0
 26
0.0
 36
1.0
 17
0.0
 27
0.0
 37
0.0
 40
750.0
 41
1.0
 42
50.0
 43
0.0
 44
0.0
 50
0.0
 51
0.0
 71
     0
 72
  2000
 73
     1
 74
     3
 75
     0
 76
     0
 77
     0
 78
     0
281
     0
 65
     1
110
0.0
120
0.0
130
0.0
111
1.0
121
0.0
131
0.0
112
0.0
122
1.0
132
0.0
 79
     0
146
0.0
  0
ENDTAB
  0
TABLE
  2
LTYPE
  5
5
330
0
100
AcDbSymbolTable
 70
     6
  0
LTYPE
  5
14
330
5
100
AcDbSymbolTableRecord
100
AcDbLinetypeTableRecord
  2
ByBlock
 70
     0
  3

 72
    65
 73
     0
 40
0.0
  0
LTYPE
  5
15
330
5
100
AcDbSymbolTableRecord
100
AcDbLinetypeTableRecord
  2
ByLayer
 70
     0
  3

 72
    65
 73
     0
 40
0.0
  0
LTYPE
  5
16
330
5
100
AcDbSymbolTableRecord
100
AcDbLinetypeTableRecord
  2
Continuous
 70
     0
  3
Solid line
 72
    65
 73
     0
 40
0.0
  0
LTYPE
  5
6E
330
5
100
AcDbSymbolTableRecord
100
AcDbLinetypeTableRecord
  2
HIDDEN
 70
     0
  3
Hidden __ __ __ __ __ __ __ __ __ __ __ __ __ __
 72
    65
 73
     2
 40
1.905
 49
1.27
 74
     0
 49
-0.635
 74
     0
  0
LTYPE
  5
6F
330
5
100
AcDbSymbolTableRecord
100
AcDbLinetypeTableRecord
  2
PHANTOM
 70
     0
  3
Phantom ______  __  __  ______  __  __  ______
 72
    65
 73
     6
 40
12.7
 49
6.35
 74
     0
 49
-1.27
 74
     0
 49
1.27
 74
     0
 49
-1.27
 74
     0
 49
1.27
 74
     0
 49
-1.27
 74
     0
  0
LTYPE
  5
70
330
5
100
AcDbSymbolTableRecord
100
AcDbLinetypeTableRecord
  2
CENTER
 70
     0
  3
Center ____ _ ____ _ ____ _ ____ _ ____ _ ____
 72
    65
 73
     4
 40
10.16
 49
6.35
 74
     0
 49
-1.27
 74
     0
 49
1.27
 74
     0
 49
-1.27
 74
     0
  0
LTYPE
  5
71
330
5
100
AcDbSymbolTableRecord
100
AcDbLinetypeTableRecord
  2
CENTERX2
 70
     0
  3
Center (2x) ________  __  ________  __  _____
 72
    65
 73
     4
 40
20.32
 49
12.7
 74
     0
 49
-2.54
 74
     0
 49
2.54
 74
     0
 49
-2.54
 74
     0
  0
LTYPE
  5
72
330
5
100
AcDbSymbolTableRecord
100
AcDbLinetypeTableRecord
  2
DOT2
 70
     0
  3
Dot (.5x) ........................................
 72
    65
 73
     2
 40
0.635
 49
0.0
 74
     0
 49
-0.635
 74
     0
  0
ENDTAB
  0
TABLE
  2
LAYER
  5
2
330
0
100
AcDbSymbolTable
 70
     2
  0
LAYER
  5
10
330
2
100
AcDbSymbolTableRecord
100
AcDbLayerTableRecord
  2
0
 70
     0
 62
     7
  6
Continuous
370
    -3
390
F
  0
LAYER
  5
73
330
2
100
AcDbSymbolTableRecord
100
AcDbLayerTableRecord
  2
TABLE_BL1
 70
     0
 62
   179
  6
Continuous
370
    -3
390
F
  0
ENDTAB
  0
TABLE
  2
STYLE
  5
3
330
0
100
AcDbSymbolTable
 70
     1
  0
STYLE
  5
11
330
3
100
AcDbSymbolTableRecord
100
AcDbTextStyleTableRecord
  2
Standard
 70
     0
 40
0.0
 41
1.0
 50
0.0
 71
     0
 42
5.0
  3
txt
  4

  0
ENDTAB
  0
TABLE
  2
VIEW
  5
6
330
0
100
AcDbSymbolTable
 70
     0
  0
ENDTAB
  0
TABLE
  2
UCS
  5
7
330
0
100
AcDbSymbolTable
 70
     0
  0
ENDTAB
  0
TABLE
  2
APPID
  5
9
330
0
100
AcDbSymbolTable
 70
     1
  0
APPID
  5
12
330
9
100
AcDbSymbolTableRecord
100
AcDbRegAppTableRecord
  2
ACAD
 70
     0
  0
ENDTAB
  0
TABLE
  2
DIMSTYLE
  5
A
330
0
100
AcDbSymbolTable
 70
     1
100
AcDbDimStyleTable
  0
DIMSTYLE
105
27
330
A
100
AcDbSymbolTableRecord
100
AcDbDimStyleTableRecord
  2
ISO-25
 70
     0
 41
2.5
 42
0.625
 43
3.75
 44
1.25
 73
     0
 74
     0
 77
     1
 78
     8
140
2.5
141
2.5
143
0.0393700787
147
0.625
171
     3
172
     1
178
     0
271
     2
272
     2
274
     3
278
    44
283
     0
284
     8
340
11
  0
ENDTAB
  0
TABLE
  2
BLOCK_RECORD
  5
1
330
0
100
AcDbSymbolTable
 70
     1
  0
BLOCK_RECORD
  5
1F
330
1
100
AcDbSymbolTableRecord
100
AcDbBlockTableRecord
  2
*Model_Space
340
22
  0
BLOCK_RECORD
  5
1B
330
1
100
AcDbSymbolTableRecord
100
AcDbBlockTableRecord
  2
*Paper_Space
340
1E
  0
BLOCK_RECORD
  5
23
330
1
100
AcDbSymbolTableRecord
100
AcDbBlockTableRecord
  2
*Paper_Space0
340
26
  0
ENDTAB
  0
ENDSEC
  0
SECTION
  2
BLOCKS
  0
BLOCK
  5
20
330
1F
100
AcDbEntity
  8
0
100
AcDbBlockBegin
  2
*Model_Space
 70
     0
 10
0.0
 20
0.0
 30
0.0
  3
*Model_Space
  1

  0
ENDBLK
  5
21
330
1F
100
AcDbEntity
  8
0
100
AcDbBlockEnd
  0
BLOCK
  5
1C
330
1B
100
AcDbEntity
 67
     1
  8
0
100
AcDbBlockBegin
  2
*Paper_Space
 70
     0
 10
0.0
 20
0.0
 30
0.0
  3
*Paper_Space
  1

  0
ENDBLK
  5
1D
330
1B
100
AcDbEntity
 67
     1
  8
0
100
AcDbBlockEnd
  0
BLOCK
  5
24
330
23
100
AcDbEntity
  8
0
100
AcDbBlockBegin
  2
*Paper_Space0
 70
     0
 10
0.0
 20
0.0
 30
0.0
  3
*Paper_Space0
  1

  0
ENDBLK
  5
25
330
23
100
AcDbEntity
  8
0
100
AcDbBlockEnd
  0
ENDSEC
  0
SECTION
  2
ENTITIES
  0
LWPOLYLINE
  5
74
330
1F
100
AcDbEntity
  8
0
  6
CENTERX2
 62
     7
100
AcDbPolyline
 90
       17
 70
   128
 43
0.0
 10
482.8497712375
 20
268.7725706055
 10
482.7380186806
 20
268.6631673177
 10
482.5651269463
 20
268.4742286208
 10
482.3574172337
 20
268.2345187187
 10
482.1465114638
 20
267.980531271
 10
481.9645181281
 20
267.7509335641
 10
481.8391440623
 20
267.5806797678
 10
481.7894763313
 20
267.495689479
 10
481.8230763969
 20
267.5089016989
 10
481.9348289538
 20
267.6183049867
 10
482.1077206881
 20
267.8072436835
 10
482.3154304007
 20
268.0469535856
 10
482.5263361706
 20
268.3009410334
 10
482.7083295063
 20
268.5305387402
 10
482.8337035721
 20
268.7007925366
 10
482.8833713031
 20
268.7857828253
 10
482.8497712375
 20
268.7725706055
  0
LWPOLYLINE
  5
75
330
1F
100
AcDbEntity
  8
0
  6
CENTERX2
 62
     7
100
AcDbPolyline
 90
       17
 70
   128
 43
0.0
 10
196.6412735386
 20
516.9292204393
 10
196.7530260955
 20
517.0386237271
 10
196.9259178298
 20
517.227562424
 10
197.1336275424
 20
517.4672723261
 10
197.3445333123
 20
517.7212597738
 10
197.526526648
 20
517.9508574806
 10
197.6519007138
 20
518.121111277
 10
197.7015684448
 20
518.2061015658
 10
197.6679683792
 20
518.1928893459
 10
197.5562158223
 20
518.0834860581
 10
197.383324088
 20
517.8945473612
 10
197.1756143754
 20
517.6548374591
 10
196.9647086055
 20
517.4008500114
 10
196.7827152698
 20
517.1712523046
 10
196.657341204
 20
517.0009985082
 10
196.607673473
 20
516.9160082195
 10
196.6412735386
 20
516.9292204393
  0
LWPOLYLINE
  5
76
330
1F
100
AcDbEntity
  8
0
  6
CENTERX2
 62
     7
100
AcDbPolyline
 90
       17
 70
   128
 43
0.0
 10
215.6671974711
 20
249.7466466729
 10
215.5577941834
 20
249.8583992298
 10
215.3688554865
 20
250.0312909642
 10
215.1291455844
 20
250.2390006767
 10
214.8751581366
 20
250.4499064466
 10
214.6455604298
 20
250.6318997823
 10
214.4753066335
 20
250.7572738481
 10
214.3903163447
 20
250.8069415792
 10
214.4035285645
 20
250.7733415135
 10
214.5129318523
 20
250.6615889567
 10
214.7018705492
 20
250.4886972223
 10
214.9415804513
 20
250.2809875097
 10
215.195567899
 20
250.0700817398
 10
215.4251656059
 20
249.8880884042
 10
215.5954194022
 20
249.7627143383
 10
215.680409691
 20
249.7130466073
 10
215.6671974711
 20
249.7466466729
  0
LWPOLYLINE
  5
77
330
1F
100
AcDbEntity
  8
0
  6
CENTERX2
 62
     7
100
AcDbPolyline
 90
       17
 70
   128
 43
0.0
 10
463.823847305
 20
535.9551443718
 10
463.9332505928
 20
535.8433918149
 10
464.1221892897
 20
535.6705000806
 10
464.3618991918
 20
535.462790368
 10
464.6158866395
 20
535.2518845981
 10
464.8454843463
 20
535.0698912624
 10
465.0157381427
 20
534.9445171966
 10
465.1007284315
 20
534.8948494656
 10
465.0875162116
 20
534.9284495312
 10
464.9781129238
 20
535.0402020881
 10
464.7891742269
 20
535.2130938224
 10
464.5494643248
 20
535.420803535
 10
464.2954768771
 20
535.6317093049
 10
464.0658791703
 20
535.8137026406
 10
463.8956253739
 20
535.9390767064
 10
463.8106350852
 20
535.9887444374
 10
463.823847305
 20
535.9551443718
  0
LINE
  5
78
330
1F
100
AcDbEntity
  8
0
  6
CENTERX2
 62
     7
100
AcDbLine
 10
482.3364238172
 20
268.1407361522
 30
0.0
 11
481.7899822392
 21
267.4896704853
 31
0.0
  0
LINE
  5
79
330
1F
100
AcDbEntity
  8
0
  6
CENTERX2
 62
     7
100
AcDbLine
 10
482.3364238172
 20
268.1407361522
 30
0.0
 11
482.8828653952
 21
268.7918018191
 31
0.0
  0
LINE
  5
7A
330
1F
100
AcDbEntity
  8
0
  6
CENTERX2
 62
     7
100
AcDbLine
 10
482.3364238172
 20
268.1407361522
 30
0.0
 11
482.0303939074
 21
268.3974633286
 31
0.0
  0
LINE
  5
7B
330
1F
100
AcDbEntity
  8
0
  6
CENTERX2
 62
     7
100
AcDbLine
 10
197.1546209589
 20
517.5610548926
 30
0.0
 11
197.7010625369
 21
518.2121205595
 31
0.0
  0
LINE
  5
7C
330
1F
100
AcDbEntity
  8
0
  6
CENTERX2
 62
     7
100
AcDbLine
 10
197.1546209589
 20
517.5610548926
 30
0.0
 11
196.6081793809
 21
516.9099892257
 31
0.0
  0
LINE
  5
7D
330
1F
100
AcDbEntity
  8
0
  6
CENTERX2
 62
     7
100
AcDbLine
 10
197.1546209589
 20
517.5610548926
 30
0.0
 11
197.4606508687
 21
517.3043277162
 31
0.0
  0
LINE
  5
7E
330
1F
100
AcDbEntity
  8
0
  6
CENTERX2
 62
     7
100
AcDbLine
 10
215.0353630178
 20
250.2599940932
 30
0.0
 11
214.384297351
 21
250.8064356712
 31
0.0
  0
LINE
  5
7F
330
1F
100
AcDbEntity
  8
0
  6
CENTERX2
 62
     7
100
AcDbLine
 10
215.0353630178
 20
250.2599940932
 30
0.0
 11
215.6864286847
 21
249.7135525152
 31
0.0
  0
LINE
  5
80
330
1F
100
AcDbEntity
  8
0
  6
CENTERX2
 62
     7
100
AcDbLine
 10
215.0353630178
 20
250.2599940932
 30
0.0
 11
215.2920901943
 21
250.566024003
 31
0.0
  0
LINE
  5
81
330
1F
100
AcDbEntity
  8
0
  6
CENTERX2
 62
     7
100
AcDbLine
 10
464.4556817583
 20
535.4417969515
 30
0.0
 11
465.1067474252
 21
534.8953553735
 31
0.0
  0
LINE
  5
82
330
1F
100
AcDbEntity
  8
0
  6
CENTERX2
 62
     7
100
AcDbLine
 10
464.4556817583
 20
535.4417969515
 30
0.0
 11
463.8046160914
 21
535.9882385295
 31
0.0
  0
LINE
  5
83
330
1F
100
AcDbEntity
  8
0
  6
CENTERX2
 62
     7
100
AcDbLine
 10
464.4556817583
 20
535.4417969515
 30
0.0
 11
464.1989545819
 21
535.1357670417
 31
0.0
  0
LINE
  5
84
330
1F
100
AcDbEntity
  8
0
  6
Continuous
 62
     7
370
    25
100
AcDbLine
 10
379.2455223881
 20
482.9646858859
 30
0.0
 11
379.2455223881
 21
482.9856255839
 31
0.0
  0
LINE
  5
85
330
1F
100
AcDbEntity
  8
0
  6
Continuous
 62
     7
370
    25
100
AcDbLine
 10
300.2455223881
 20
482.9856255839
 30
0.0
 11
300.2455223881
 21
482.9646858859
 31
0.0
  0
SPLINE
  5
86
330
1F
100
AcDbEntity
  8
0
  6
Continuous
 62
     7
370
    25
100
AcDbSpline
210
0.0
220
0.0
230
1.0
 70
     8
 71
     3
 72
    18
 73
    14
 74
     0
 42
0.000000001
 43
0.00000001
 40
0.0
 40
0.0
 40
0.0
 40
0.0
 40
0.1181381225111057
 40
0.2416938056674995
 40
0.3519590816899584
 40
0.4393122375730151
 40
0.5540117259975652
 40
0.6249810583392356
 40
0.701849371078515
 40
0.7811774988272048
 40
0.8592627941111882
 40
0.932916817781537
 40
1.0
 40
1.0
 40
1.0
 40
1.0
 10
348.1497431309755
 20
479.769670825973
 30
0.0
 10
348.4290679256928
 20
480.8533056669033
 30
0.0
 10
349.000526750478
 20
483.0702685159083
 30
0.0
 10
348.2393898125924
 20
486.4063079195396
 30
0.0
 10
346.5847478130395
 20
488.9763302652281
 30
0.0
 10
344.292416284183
 20
490.8523283503833
 30
0.0
 10
341.8485350242146
 20
491.7950148873561
 30
0.0
 10
339.3778617008289
 20
491.9833691521766
 30
0.0
 10
337.2542313884947
 20
491.6518614487402
 30
0.0
 10
335.2096255960936
 20
490.7889399212003
 30
0.0
 10
333.4718360601232
 20
489.4686572280661
 30
0.0
 10
332.1380688208394
 20
487.8773258656979
 30
0.0
 10
331.5970973987661
 20
486.6701403875962
 30
0.0
 10
331.3392403221478
 20
486.0947286271626
 30
0.0
  0
SPLINE
  5
87
330
1F
100
AcDbEntity
  8
0
  6
Continuous
 62
     7
370
    25
100
AcDbSpline
210
0.0
220
0.0
230
1.0
 70
     8
 71
     3
 72
    18
 73
    14
 74
     0
 42
0.000000001
 43
0.00000001
 40
0.0
 40
0.0
 40
0.0
 40
0.0
 40
0.1181903412216124
 40
0.2417694205330596
 40
0.3520348787592134
 40
0.4393774043511482
 40
0.5540560568299289
 40
0.6250118056492799
 40
0.7018667090245384
 40
0.7811835858654108
 40
0.8592615795687915
 40
0.9329134348398971
 40
1.0
 40
1.0
 40
1.0
 40
1.0
 10
331.3392403221496
 20
486.0947286271616
 30
0.0
 10
331.0607519079251
 20
485.0107846499429
 30
0.0
 10
330.4910777548909
 20
482.7934756502921
 30
0.0
 10
331.2537993903039
 20
479.4583834004832
 30
0.0
 10
332.9090661021409
 20
476.8898549284024
 30
0.0
 10
335.2010289800924
 20
475.0155605218404
 30
0.0
 10
337.6436199707428
 20
474.0734440236407
 30
0.0
 10
340.112997243003
 20
473.8850825855995
 30
0.0
 10
342.2355701415647
 20
474.2161963360379
 30
0.0
 10
344.2793286875585
 20
475.0783711895689
 30
0.0
 10
346.0166624716729
 20
476.3976828804945
 30
0.0
 10
347.3503920371078
 20
477.9880083408078
 30
0.0
 10
347.8917100600613
 20
479.1945445192674
 30
0.0
 10
348.1497431309735
 20
479.7696708259734
 30
0.0
  0
LINE
  5
88
330
1F
100
AcDbEntity
  8
0
  6
Continuous
 62
     7
370
    25
100
AcDbLine
 10
396.7455223881
 20
482.6880592184
 30
0.0
 11
396.7455223881
 21
482.7089989164
 31
0.0
  0
LINE
  5
89
330
1F
100
AcDbEntity
  8
0
  6
Continuous
 62
     7
370
    25
100
AcDbLine
 10
282.7455223881
 20
482.7089989164
 30
0.0
 11
282.7455223881
 21
482.6880592184
 31
0.0
  0
LWPOLYLINE
  5
8A
330
1F
100
AcDbEntity
  8
0
  6
Continuous
 62
     7
370
    25
100
AcDbPolyline
 90
        3
 70
   128
 43
0.0
 10
348.1942043246
 20
500.8784462736
 10
346.9253577685
 20
501.4386476436
 10
346.6330722044
 20
501.5526291799
  0
LWPOLYLINE
  5
8B
330
1F
100
AcDbEntity
  8
0
  6
Continuous
 62
     7
370
    25
100
AcDbPolyline
 90
        3
 70
   128
 43
0.0
 10
339.7934817436
 20
502.8190945096
 10
339.1722179
 20
502.8106642452
 10
338.0130337005
 20
502.7414866079
  0
LINE
  5
8C
330
1F
100
AcDbEntity
  8
0
  6
Continuous
 62
     7
370
    25
100
AcDbLine
 10
331.4272669105
 20
500.9411064786
 30
0.0
 11
329.7379304008
 21
500.0319700107
 31
0.0
  0
LWPOLYLINE
  5
8D
330
1F
100
AcDbEntity
  8
0
  6
Continuous
 62
     7
370
    25
100
AcDbPolyline
 90
        3
 70
   128
 43
0.0
 10
324.4181179598
 20
495.2844694499
 10
323.6134815677
 20
494.1599250124
 10
323.5745074882
 20
494.1008869056
  0
LWPOLYLINE
  5
8E
330
1F
100
AcDbEntity
  8
0
  6
Continuous
 62
     7
370
    25
100
AcDbPolyline
 90
        3
 70
   128
 43
0.0
 10
320.8095120035
 20
487.4597233542
 10
320.6919202059
 20
486.8527183825
 10
320.5655527056
 20
486.0389257103
  0
LINE
  5
8F
330
1F
100
AcDbEntity
  8
0
  6
Continuous
 62
     7
370
    25
100
AcDbLine
 10
320.9530830539
 20
478.8721648277
 30
0.0
 11
321.2385834215
 21
477.834983775
 31
0.0
  0
LINE
  5
90
330
1F
100
AcDbEntity
  8
0
  6
Continuous
 62
     7
370
    25
100
AcDbLine
 10
324.8633980221
 20
471.1213867468
 30
0.0
 11
325.6147571849
 21
470.2699179393
 31
0.0
  0
LINE
  5
91
330
1F
100
AcDbEntity
  8
0
  6
Continuous
 62
     7
370
    25
100
AcDbLine
 10
348.8424166346
 20
466.4130250253
 30
0.0
 11
349.2591842512
 21
466.6414954705
 31
0.0
  0
LINE
  5
92
330
1F
100
AcDbEntity
  8
0
  6
Continuous
 62
     7
370
    25
100
AcDbLine
 10
354.9103442019
 20
471.4694992741
 30
0.0
 11
355.4891505997
 21
472.2378758522
 31
0.0
  0
LWPOLYLINE
  5
93
330
1F
100
AcDbEntity
  8
0
  6
Continuous
 62
     7
370
    25
100
AcDbPolyline
 90
        3
 70
   128
 43
0.0
 10
358.615107363
 20
479.1985472945
 10
358.7991245702
 20
480.109164427
 10
358.8882683385
 20
480.6581660428
  0
LWPOLYLINE
  5
94
330
1F
100
AcDbEntity
  8
0
  6
Continuous
 62
     7
370
    25
100
AcDbPolyline
 90
        3
 70
   128
 43
0.0
 10
358.6224137088
 20
487.731052746
 10
358.5658400794
 20
487.9746611121
 10
358.2269322581
 20
489.2098127223
  0
LINE
  5
95
330
1F
100
AcDbEntity
  8
0
  6
Continuous
 62
     7
370
    25
100
AcDbLine
 10
354.7964147653
 20
495.6346654646
 30
0.0
 11
353.7874854779
 21
496.7861994514
 31
0.0
  0
LWPOLYLINE
  5
96
330
1F
100
AcDbEntity
  8
0
  6
Continuous
 62
     7
370
    25
100
AcDbPolyline
 90
        3
 70
   128
 43
0.0
 10
320.5675346747
 20
486.0746646921
 10
320.6919202049
 20
486.8736580751
 10
320.8261618943
 20
487.5590014998
  0
LWPOLYLINE
  5
97
330
1F
100
AcDbEntity
  8
0
  6
Continuous
 62
     7
370
    25
100
AcDbPolyline
 90
        3
 70
   128
 43
0.0
 10
323.518108266
 20
494.0355519625
 10
323.6134815652
 20
494.1808647067
 10
324.4158430414
 20
495.3024580757
  0
LINE
  5
98
330
1F
100
AcDbEntity
  8
0
  6
Continuous
 62
     7
370
    25
100
AcDbLine
 10
329.7654746648
 20
500.0695128644
 30
0.0
 11
331.1143294647
 21
500.8096743647
 31
0.0
  0
LWPOLYLINE
  5
99
330
1F
100
AcDbEntity
  8
0
  6
Continuous
 62
     7
370
    25
100
AcDbPolyline
 90
        3
 70
   128
 43
0.0
 10
338.025897104
 20
502.7635776369
 10
339.1722178979
 20
502.8316039432
 10
339.7599457868
 20
502.8400882333
  0
LWPOLYLINE
  5
9A
330
1F
100
AcDbEntity
  8
0
  6
Continuous
 62
     7
370
    25
100
AcDbPolyline
 90
        3
 70
   128
 43
0.0
 10
346.8009042145
 20
501.5087875262
 10
346.9253577676
 20
501.459587342
 10
348.1968031214
 20
500.8981252257
  0
LINE
  5
9B
330
1F
100
AcDbEntity
  8
0
  6
Continuous
 62
     7
370
    25
100
AcDbLine
 10
353.980590199
 20
496.6005876872
 30
0.0
 11
354.9241284944
 21
495.4959208227
 31
0.0
  0
LWPOLYLINE
  5
9C
330
1F
100
AcDbEntity
  8
0
  6
Continuous
 62
     7
370
    25
100
AcDbPolyline
 90
        3
 70
   128
 43
0.0
 10
358.2158692085
 20
489.2662776699
 10
358.5658400798
 20
487.9956008087
 10
358.6432234179
 20
487.6586016317
  0
SPLINE
  5
9D
330
1F
100
AcDbEntity
  8
0
  6
Continuous
 62
     7
370
    25
100
AcDbSpline
210
0.0
220
0.0
230
1.0
 70
     8
 71
     3
 72
     9
 73
     5
 74
     0
 42
0.000000001
 43
0.00000001
 40
0.0
 40
0.0
 40
0.0
 40
0.0
 40
0.5600000004406459
 40
1.0
 40
1.0
 40
1.0
 40
1.0
 10
355.3865238060141
 20
497.0626165380505
 30
0.0
 10
355.3189296939292
 20
497.0001238407554
 30
0.0
 10
355.1982259224442
 20
496.8885297385305
 30
0.0
 10
355.0089195449362
 20
496.7221047434522
 30
0.0
 10
354.9256247389162
 20
496.648877745691
 30
0.0
  0
SPLINE
  5
9E
330
1F
100
AcDbEntity
  8
0
  6
Continuous
 62
     7
370
    25
100
AcDbSpline
210
0.0
220
0.0
230
1.0
 70
     8
 71
     3
 72
     9
 73
     5
 74
     0
 42
0.000000001
 43
0.00000001
 40
0.0
 40
0.0
 40
0.0
 40
0.0
 40
0.5599999995281604
 40
0.9999999999999999
 40
0.9999999999999999
 40
0.9999999999999999
 40
0.9999999999999999
 10
324.5654200372032
 20
470.4723491870275
 30
0.0
 10
324.4597600710958
 20
470.3831830362553
 30
0.0
 10
324.2710815600309
 20
470.223957766885
 30
0.0
 10
324.1554144837317
 20
470.1318446236594
 30
0.0
 10
324.1045209701055
 20
470.0913148405967
 30
0.0
  0
SPLINE
  5
9F
330
1F
100
AcDbEntity
  8
0
  6
Continuous
 62
     7
370
    25
100
AcDbSpline
210
0.0
220
0.0
230
1.0
 70
     8
 71
     3
 72
     9
 73
     5
 74
     0
 42
0.000000001
 43
0.00000001
 40
0.0
 40
0.0
 40
0.0
 40
0.0
 40
0.560000000044038
 40
0.9999999999999999
 40
0.9999999999999999
 40
0.9999999999999999
 40
0.9999999999999999
 10
323.0537461139062
 20
469.2193605272108
 30
0.0
 10
323.2956801950577
 20
469.4244451040856
 30
0.0
 10
323.7277053399371
 20
469.790667562762
 30
0.0
 10
323.989382860885
 20
469.999450394589
 30
0.0
 10
324.1045209700904
 20
470.0913148405837
 30
0.0
  0
SPLINE
  5
A0
330
1F
100
AcDbEntity
  8
0
  6
Continuous
 62
     7
370
    25
100
AcDbSpline
210
0.0
220
0.0
230
1.0
 70
     8
 71
     3
 72
     9
 73
     5
 74
     0
 42
0.000000001
 43
0.00000001
 40
0.0
 40
0.0
 40
0.0
 40
0.0
 40
0.5599999999792217
 40
1.0
 40
1.0
 40
1.0
 40
1.0
 10
355.3865238060291
 20
497.0626165380634
 30
0.0
 10
355.5402322045841
 20
497.204443309206
 30
0.0
 10
355.8147114877283
 20
497.4577054005413
 30
0.0
 10
356.2470636927959
 20
497.8361152772964
 30
0.0
 10
356.4372986630347
 20
498.0026156230765
 30
0.0
  0
SPLINE
  5
A1
330
1F
100
AcDbEntity
  8
0
  6
Continuous
 62
     7
370
    25
100
AcDbSpline
210
0.0
220
0.0
230
1.0
 70
     8
 71
     3
 72
    11
 73
     7
 74
     0
 42
0.000000001
 43
0.00000001
 40
0.0
 40
0.0
 40
0.0
 40
0.0
 40
0.2723457484539313
 40
0.5618939965503452
 40
0.7876533507593181
 40
1.0
 40
1.0
 40
1.0
 40
1.0
 10
360.188965048389
 20
501.2795021223917
 30
0.0
 10
360.1847005304335
 20
501.2740534226262
 30
0.0
 10
360.1759021296839
 20
501.262811860367
 30
0.0
 10
360.1106327939167
 20
501.2021917000031
 30
0.0
 10
360.0275443507408
 20
501.1276703082267
 30
0.0
 10
359.9676982691745
 20
501.0753351739714
 30
0.0
 10
359.9386913284098
 20
501.0499687322674
 30
0.0
  0
SPLINE
  5
A2
330
1F
100
AcDbEntity
  8
0
  6
Continuous
 62
     7
370
    25
100
AcDbSpline
210
0.0
220
0.0
230
1.0
 70
     8
 71
     3
 72
    11
 73
     7
 74
     0
 42
0.000000001
 43
0.00000001
 40
0.0
 40
0.0
 40
0.0
 40
0.0
 40
0.2723457483393865
 40
0.5618939964058062
 40
0.7876533506641238
 40
1.0
 40
1.0
 40
1.0
 40
1.0
 10
319.5523534477097
 20
466.2289213348388
 30
0.0
 10
319.5152369405001
 20
466.1974207830428
 30
0.0
 10
319.4386594918132
 20
466.1324299724811
 30
0.0
 10
319.357157731779
 20
466.0658764805987
 30
0.0
 10
319.3099953813169
 20
466.02948528979
 30
0.0
 10
319.3046638704945
 20
466.0277327994064
 30
0.0
 10
319.3020797277305
 20
466.0268833806404
 30
0.0
  0
LWPOLYLINE
  5
A3
330
1F
100
AcDbEntity
  8
0
  6
Continuous
 62
     7
370
    25
100
AcDbPolyline
 90
        3
 70
   128
 43
0.0
 10
313.4795026212
 20
477.4043058578
 10
313.561099647
 20
477.0711585042
 10
314.2120655985
 20
474.8811491786
  0
LINE
  5
A4
330
1F
100
AcDbEntity
  8
0
  6
Continuous
 62
     7
370
    25
100
AcDbLine
 10
318.7462482056
 20
466.6920704444
 30
0.0
 11
319.3020797348
 21
466.0268833721
 31
0.0
  0
LINE
  5
A5
330
1F
100
AcDbEntity
  8
0
  6
Continuous
 62
     7
370
    25
100
AcDbLine
 10
319.3020797348
 20
466.0268833721
 30
0.0
 11
320.488963645
 21
464.7389471912
 31
0.0
  0
LWPOLYLINE
  5
A6
330
1F
100
AcDbEntity
  8
0
  6
Continuous
 62
     7
370
    25
100
AcDbPolyline
 90
        3
 70
   128
 43
0.0
 10
328.0637807394
 20
459.3259401942
 10
329.3920898556
 20
458.7323362216
 10
330.4782103898
 20
458.3088910632
  0
LWPOLYLINE
  5
A7
330
1F
100
AcDbEntity
  8
0
  6
Continuous
 62
     7
370
    25
100
AcDbPolyline
 90
        3
 70
   128
 43
0.0
 10
339.6127756954
 20
456.6699665527
 10
341.6846345396
 20
456.7393204891
 10
342.2348404966
 20
456.7845690595
  0
LINE
  5
A8
330
1F
100
AcDbEntity
  8
0
  6
Continuous
 62
     7
370
    25
100
AcDbLine
 10
351.1952839216
 20
459.216033955
 30
0.0
 11
353.509590808
 21
460.4391181054
 31
0.0
  0
LWPOLYLINE
  5
A9
330
1F
100
AcDbEntity
  8
0
  6
Continuous
 62
     7
370
    25
100
AcDbPolyline
 90
        3
 70
   128
 43
0.0
 10
360.5885198318
 20
466.5006221173
 10
360.6645958689
 20
466.5933728191
 10
362.1531567046
 20
468.5992375116
  0
LWPOLYLINE
  5
AA
330
1F
100
AcDbEntity
  8
0
  6
Continuous
 62
     7
370
    25
100
AcDbPolyline
 90
        3
 70
   128
 43
0.0
 10
365.9535978415
 20
477.1658620612
 10
366.1005893906
 20
477.7907246503
 10
366.4603784292
 20
479.7419510522
  0
LINE
  5
AB
330
1F
100
AcDbEntity
  8
0
  6
Continuous
 62
     7
370
    25
100
AcDbLine
 10
360.1889650485
 20
501.3026879573
 30
0.0
 11
361.1324260295
 21
500.1466411898
 31
0.0
  0
LWPOLYLINE
  5
AC
330
1F
100
AcDbEntity
  8
0
  6
Continuous
 62
     7
370
    25
100
AcDbPolyline
 90
        3
 70
   128
 43
0.0
 10
365.5141065609
 20
491.7324896603
 10
365.8732758269
 20
490.4796174236
 10
366.1803708732
 20
489.1683731423
  0
LWPOLYLINE
  5
AD
330
1F
100
AcDbEntity
  8
0
  6
Continuous
 62
     7
370
    25
100
AcDbPolyline
 90
        3
 70
   128
 43
0.0
 10
312.9282886433
 20
486.810703762
 10
313.0287189327
 20
487.5743119863
 10
313.3606891586
 20
489.4035573383
  0
LWPOLYLINE
  5
AE
330
1F
100
AcDbEntity
  8
0
  6
Continuous
 62
     7
370
    25
100
AcDbPolyline
 90
        3
 70
   128
 43
0.0
 10
316.9772829461
 20
498.1798525959
 10
317.4908037399
 20
498.9552143951
 10
318.5092957912
 20
500.3402333411
  0
LWPOLYLINE
  5
AF
330
1F
100
AcDbEntity
  8
0
  6
Continuous
 62
     7
370
    25
100
AcDbPolyline
 90
        3
 70
   128
 43
0.0
 10
325.6371706442
 20
506.6830936911
 10
326.5196267518
 20
507.2008516805
 10
327.9785351125
 20
507.9625629305
  0
LWPOLYLINE
  5
B0
330
1F
100
AcDbEntity
  8
0
  6
Continuous
 62
     7
370
    25
100
AcDbPolyline
 90
        3
 70
   128
 43
0.0
 10
337.1909969327
 20
510.5388885962
 10
338.2624451122
 20
510.6191931585
 10
339.871156753
 20
510.6596387961
  0
LWPOLYLINE
  5
B1
330
1F
100
AcDbEntity
  8
0
  6
Continuous
 62
     7
370
    25
100
AcDbPolyline
 90
        3
 70
   128
 43
0.0
 10
349.2804494394
 20
508.921338369
 10
350.3095955903
 20
508.5087844153
 10
351.7305646021
 20
507.8558287633
  0
LINE
  5
B2
330
1F
100
AcDbEntity
  8
0
  6
Continuous
 62
     7
370
    25
100
AcDbLine
 10
359.4023081773
 20
502.1748509861
 30
0.0
 11
360.1889650485
 21
501.3026879573
 31
0.0
  0
ARC
  5
B3
330
1F
100
AcDbEntity
  8
0
  6
Continuous
 62
     7
370
    25
100
AcDbCircle
 10
339.7440740982
 20
482.9663463695
 30
0.0
 40
39.48959828986759
100
AcDbArc
 50
221.0984490407
 51
41.0920552911
  0
ARC
  5
B4
330
1F
100
AcDbEntity
  8
0
  6
Continuous
 62
     7
370
    25
100
AcDbCircle
 10
339.746970678
 20
482.9630254023
 30
0.0
 40
39.4895982898643
100
AcDbArc
 50
41.0984490172
 51
221.0920553249
  0
ARC
  5
B5
330
1F
100
AcDbEntity
  8
0
  6
Continuous
 62
     7
370
    25
100
AcDbCircle
 10
339.747889086
 20
482.9634838444
 30
0.0
 40
39.50237290343001
100
AcDbArc
 50
41.1217111705
 51
179.9678847574
  0
ARC
  5
B6
330
1F
100
AcDbEntity
  8
0
  6
Continuous
 62
     7
370
    25
100
AcDbCircle
 10
339.7836949055
 20
482.9841224026
 30
0.0
 40
39.46182751122657
100
AcDbArc
 50
0.0021825128
 51
41.1333277058
  0
SPLINE
  5
B7
330
1F
100
AcDbEntity
  8
0
  6
Continuous
 62
     7
370
    25
100
AcDbSpline
210
0.0
220
0.0
230
1.0
 70
     8
 71
     3
 72
     9
 73
     5
 74
     0
 42
0.000000001
 43
0.00000001
 40
0.0
 40
0.0
 40
0.0
 40
0.0
 40
0.5599999999871925
 40
1.0
 40
1.0
 40
1.0
 40
1.0
 10
310.8903139174512
 20
457.815838324757
 30
0.0
 10
310.7437274557691
 20
457.6819931792451
 30
0.0
 10
310.481965917045
 20
457.4429839908254
 30
0.0
 10
310.1371671859296
 20
457.1406808975651
 30
0.0
 10
309.9854557442345
 20
457.0076675365267
 30
0.0
  0
SPLINE
  5
B8
330
1F
100
AcDbEntity
  8
0
  6
Continuous
 62
     7
370
    25
100
AcDbSpline
210
0.0
220
0.0
230
1.0
 70
     8
 71
     3
 72
     9
 73
     5
 74
     0
 42
0.000000001
 43
0.00000001
 40
0.0
 40
0.0
 40
0.0
 40
0.0
 40
0.5600000000054335
 40
1.0
 40
1.0
 40
1.0
 40
1.0
 10
369.5055890318848
 20
508.9217042352525
 30
0.0
 10
369.3116527184951
 20
508.7536895069113
 30
0.0
 10
368.9653378731595
 20
508.4536632063049
 30
0.0
 10
368.7121385571608
 20
508.243774103866
 30
0.0
 10
368.6007308581227
 20
508.1514228987941
 30
0.0
  0
ARC
  5
B9
330
1F
100
AcDbEntity
  8
0
  6
Continuous
 62
     7
370
    25
100
AcDbCircle
 10
339.7471919837
 20
482.9817163985
 30
0.0
 40
38.28891263668745
100
AcDbArc
 50
41.0990530799
 51
221.0914512386
  0
SPLINE
  5
BA
330
1F
100
AcDbEntity
  8
0
  6
Continuous
 62
     7
370
    25
100
AcDbSpline
210
0.0
220
0.0
230
1.0
 70
     8
 71
     3
 72
    12
 73
     8
 74
     0
 42
0.000000001
 43
0.00000001
 40
0.0
 40
0.0
 40
0.0
 40
0.0
 40
0.3203755331913669
 40
0.5620058561934794
 40
0.7625110883902271
 40
0.8964635022549355
 40
1.0
 40
1.0
 40
1.0
 40
1.0
 10
355.6463838136682
 20
515.6781101583448
 30
0.0
 10
355.6804761581625
 20
515.7753657665235
 30
0.0
 10
355.7402812783174
 20
515.945972494196
 30
0.0
 10
355.6884225647786
 20
516.2103077991899
 30
0.0
 10
355.5723878725983
 20
516.4047467238071
 30
0.0
 10
355.4303401674942
 20
516.534366284556
 30
0.0
 10
355.3341920952814
 20
516.5823630444544
 30
0.0
 10
355.2922750449468
 20
516.6032878800154
 30
0.0
  0
LINE
  5
BB
330
1F
100
AcDbEntity
  8
0
  6
Continuous
 62
     7
370
    25
100
AcDbLine
 10
353.3186136833
 20
517.4475916696
 30
0.0
 11
355.2922750449
 21
516.60328788
 31
0.0
  0
SPLINE
  5
BC
330
1F
100
AcDbEntity
  8
0
  6
Continuous
 62
     7
370
    25
100
AcDbSpline
210
0.0
220
0.0
230
1.0
 70
     8
 71
     3
 72
    12
 73
     8
 74
     0
 42
0.000000001
 43
0.00000001
 40
0.0
 40
0.0
 40
0.0
 40
0.0
 40
0.1369201212178418
 40
0.2732892266835614
 40
0.4609277195254392
 40
0.717304269115001
 40
1.0
 40
1.0
 40
1.0
 40
1.0
 10
353.3186136833397
 20
517.4475916695903
 30
0.0
 10
353.2596292056534
 20
517.4675959348688
 30
0.0
 10
353.1418976250072
 20
517.5075239610762
 30
0.0
 10
352.9415444430087
 20
517.5086636598844
 30
0.0
 10
352.7232087260427
 20
517.4503497777439
 30
0.0
 10
352.5102476379116
 20
517.3059947497993
 30
0.0
 10
352.4295013255373
 20
517.1527326584552
 30
0.0
 10
352.3871570266006
 20
517.0723602473727
 30
0.0
  0
SPLINE
  5
BD
330
1F
100
AcDbEntity
  8
0
  6
Continuous
 62
     7
370
    25
100
AcDbSpline
210
0.0
220
0.0
230
1.0
 70
     8
 71
     3
 72
    11
 73
     7
 74
     0
 42
0.000000001
 43
0.00000001
 40
0.0
 40
0.0
 40
0.0
 40
0.0
 40
0.2603296700639488
 40
0.5282089223352213
 40
0.7614183595322316
 40
1.0
 40
1.0
 40
1.0
 40
1.0
 10
346.5878920591106
 20
501.7745541642682
 30
0.0
 10
347.145095010694
 20
503.2610651687827
 30
0.0
 10
348.2756598460642
 20
506.2771961212831
 30
0.0
 10
349.817532666855
 20
510.3546750660975
 30
0.0
 10
351.2168890774963
 20
514.0314778914914
 30
0.0
 10
351.9941176545113
 20
516.0510672241231
 30
0.0
 10
352.3871570266006
 20
517.0723602473727
 30
0.0
  0
SPLINE
  5
BE
330
1F
100
AcDbEntity
  8
0
  6
Continuous
 62
     7
370
    25
100
AcDbSpline
210
0.0
220
0.0
230
1.0
 70
     8
 71
     3
 72
    12
 73
     8
 74
     0
 42
0.000000001
 43
0.00000001
 40
0.0
 40
0.0
 40
0.0
 40
0.0
 40
0.2229001245800305
 40
0.4458326905764712
 40
0.6679313583905889
 40
0.8889145851689171
 40
1.0
 40
1.0
 40
1.0
 40
1.0
 10
346.5878920591106
 20
501.7745541642682
 30
0.0
 10
346.5676342512354
 20
501.6982089665101
 30
0.0
 10
346.5271156871152
 20
501.5455074595313
 30
0.0
 10
346.5676093917662
 20
501.3067343998708
 30
0.0
 10
346.6798791841215
 20
501.0965563300924
 30
0.0
 10
346.8270165203962
 20
500.9589096413098
 30
0.0
 10
346.9329839533328
 20
500.9070702127199
 30
0.0
 10
346.9684327574997
 20
500.8897286040644
 30
0.0
  0
LINE
  5
BF
330
1F
100
AcDbEntity
  8
0
  6
Continuous
 62
     7
370
    25
100
AcDbLine
 10
347.4760454067
 20
500.6725792532
 30
0.0
 11
346.9684327575
 21
500.8897286041
 31
0.0
  0
SPLINE
  5
C0
330
1F
100
AcDbEntity
  8
0
  6
Continuous
 62
     7
370
    25
100
AcDbSpline
210
0.0
220
0.0
230
1.0
 70
     8
 71
     3
 72
    12
 73
     8
 74
     0
 42
0.000000001
 43
0.00000001
 40
0.0
 40
0.0
 40
0.0
 40
0.0
 40
0.2201335749264469
 40
0.440254606678472
 40
0.6607438481110207
 40
0.8821597119403948
 40
1.0
 40
1.0
 40
1.0
 40
1.0
 10
347.4760454067145
 20
500.6725792532336
 30
0.0
 10
347.5511831287716
 20
500.6487681112955
 30
0.0
 10
347.7014542915508
 20
500.601147184174
 30
0.0
 10
347.9408602190295
 20
500.6286209495449
 30
0.0
 10
348.1559097340923
 20
500.7278483325237
 30
0.0
 10
348.3028130441749
 20
500.8669366904514
 30
0.0
 10
348.3608953230579
 20
500.9712317312304
 30
0.0
 10
348.381070145052
 20
501.007458510259
 30
0.0
  0
SPLINE
  5
C1
330
1F
100
AcDbEntity
  8
0
  6
Continuous
 62
     7
370
    25
100
AcDbSpline
210
0.0
220
0.0
230
1.0
 70
     8
 71
     3
 72
    11
 73
     7
 74
     0
 42
0.000000001
 43
0.00000001
 40
0.0
 40
0.0
 40
0.0
 40
0.0
 40
0.2832270505253227
 40
0.5762690817459337
 40
0.7861908663395981
 40
1.0
 40
1.0
 40
1.0
 40
1.0
 10
355.6463838136682
 20
515.6781101583448
 30
0.0
 10
355.0573396179855
 20
514.5065390015423
 30
0.0
 10
353.8588384256587
 20
512.122796934962
 30
0.0
 10
351.9379704529707
 20
508.2501032107939
 30
0.0
 10
350.0916690644662
 20
504.5036881576233
 30
0.0
 10
348.9547465311898
 20
502.1799743855143
 30
0.0
 10
348.381070145052
 20
501.007458510259
 30
0.0
  0
SPLINE
  5
C2
330
1F
100
AcDbEntity
  8
0
  6
Continuous
 62
     7
370
    25
100
AcDbSpline
210
0.0
220
0.0
230
1.0
 70
     8
 71
     3
 72
    13
 73
     9
 74
     0
 42
0.000000001
 43
0.00000001
 40
0.0
 40
0.0
 40
0.0
 40
0.0
 40
0.3201770901877565
 40
0.4946667587105367
 40
0.6890181118666815
 40
0.8387695944500633
 40
0.9672348183767329
 40
1.0
 40
1.0
 40
1.0
 40
1.0
 10
339.9084881031342
 20
519.3423403673464
 30
0.0
 10
339.8957070550245
 20
519.4445660274351
 30
0.0
 10
339.8759606089635
 20
519.6025024866098
 30
0.0
 10
339.7396000096201
 20
519.7985846808338
 30
0.0
 10
339.5889422906998
 20
519.9245273573327
 30
0.0
 10
339.4047231727229
 20
520.0015975826565
 30
0.0
 10
339.264827098225
 20
520.0221216328392
 30
0.0
 10
339.1922137407198
 20
520.0203524699176
 30
0.0
 10
339.177457281857
 20
520.0199929413023
 30
0.0
  0
LINE
  5
C3
330
1F
100
AcDbEntity
  8
0
  6
Continuous
 62
     7
370
    25
100
AcDbLine
 10
337.0326969272
 20
519.9248664613
 30
0.0
 11
339.1774572819
 21
520.0199929413
 31
0.0
  0
SPLINE
  5
C4
330
1F
100
AcDbEntity
  8
0
  6
Continuous
 62
     7
370
    25
100
AcDbSpline
210
0.0
220
0.0
230
1.0
 70
     8
 71
     3
 72
    12
 73
     8
 74
     0
 42
0.000000001
 43
0.00000001
 40
0.0
 40
0.0
 40
0.0
 40
0.0
 40
0.1369201143547649
 40
0.2732892131935814
 40
0.4609276901286871
 40
0.7173042183016252
 40
1.0
 40
1.0
 40
1.0
 40
1.0
 10
337.0326969272171
 20
519.9248664613449
 30
0.0
 10
336.9709145501653
 20
519.9173232746292
 30
0.0
 10
336.8475984304465
 20
519.9022672576796
 30
0.0
 10
336.6676979839115
 20
519.816669429421
 30
0.0
 10
336.4983404018252
 20
519.6699210022778
 30
0.0
 10
336.3723311814117
 20
519.4482453449139
 30
0.0
 10
336.3686470525842
 20
519.27572428212
 30
0.0
 10
336.3667150526285
 20
519.1852522326142
 30
0.0
  0
SPLINE
  5
C5
330
1F
100
AcDbEntity
  8
0
  6
Continuous
 62
     7
370
    25
100
AcDbSpline
210
0.0
220
0.0
230
1.0
 70
     8
 71
     3
 72
    11
 73
     7
 74
     0
 42
0.000000001
 43
0.00000001
 40
0.0
 40
0.0
 40
0.0
 40
0.0
 40
0.2603296700649098
 40
0.5282089223371724
 40
0.7614183595020926
 40
1.0
 40
1.0
 40
1.0
 40
1.0
 10
337.899269719502
 20
502.9141906087774
 30
0.0
 10
337.7520193371037
 20
504.4942136122936
 30
0.0
 10
337.4532482989006
 20
507.7000804185904
 30
0.0
 10
337.0457821113822
 20
512.0363225469508
 30
0.0
 10
336.6759783156067
 20
515.9479708894746
 30
0.0
 10
336.4705824094974
 20
518.0979977901867
 30
0.0
 10
336.3667150526285
 20
519.1852522326142
 30
0.0
  0
SPLINE
  5
C6
330
1F
100
AcDbEntity
  8
0
  6
Continuous
 62
     7
370
    25
100
AcDbSpline
210
0.0
220
0.0
230
1.0
 70
     8
 71
     3
 72
    12
 73
     8
 74
     0
 42
0.000000001
 43
0.00000001
 40
0.0
 40
0.0
 40
0.0
 40
0.0
 40
0.222900123619629
 40
0.4458326887125266
 40
0.6679313556061518
 40
0.8889145814683651
 40
1.0
 40
1.0
 40
1.0
 40
1.0
 10
337.899269719502
 20
502.9141906087774
 30
0.0
 10
337.914295238616
 20
502.8366519027564
 30
0.0
 10
337.9443484636978
 20
502.6815632055263
 30
0.0
 10
338.084813145046
 20
502.4840675562276
 30
0.0
 10
338.2774361828715
 20
502.3434368930443
 30
0.0
 10
338.4698617467474
 20
502.2832460070497
 30
0.0
 10
338.5878517989053
 20
502.2824922737785
 30
0.0
 10
338.6273224762722
 20
502.2822401308036
 30
0.0
  0
LINE
  5
C7
330
1F
100
AcDbEntity
  8
0
  6
Continuous
 62
     7
370
    25
100
AcDbLine
 10
339.1789406527
 20
502.3067060322
 30
0.0
 11
338.6273224763
 21
502.2822401308
 31
0.0
  0
SPLINE
  5
C8
330
1F
100
AcDbEntity
  8
0
  6
Continuous
 62
     7
370
    25
100
AcDbSpline
210
0.0
220
0.0
230
1.0
 70
     8
 71
     3
 72
    12
 73
     8
 74
     0
 42
0.000000001
 43
0.00000001
 40
0.0
 40
0.0
 40
0.0
 40
0.0
 40
0.2201335711100754
 40
0.4402545990408175
 40
0.6607438366208707
 40
0.8821596965544994
 40
1.0
 40
1.0
 40
1.0
 40
1.0
 10
339.1789406527138
 20
502.3067060321905
 30
0.0
 10
339.2569627688829
 20
502.3178313266515
 30
0.0
 10
339.4130025555323
 20
502.340081281656
 30
0.0
 10
339.6165970991096
 20
502.4686054134089
 30
0.0
 10
339.7670018476848
 20
502.6511945300231
 30
0.0
 10
339.8386731357261
 20
502.8401407255003
 30
0.0
 10
339.8455217100443
 20
502.9592467879832
 30
0.0
 10
339.8479005557749
 20
503.0006181647192
 30
0.0
  0
SPLINE
  5
C9
330
1F
100
AcDbEntity
  8
0
  6
Continuous
 62
     7
370
    25
100
AcDbSpline
210
0.0
220
0.0
230
1.0
 70
     8
 71
     3
 72
    11
 73
     7
 74
     0
 42
0.000000001
 43
0.00000001
 40
0.0
 40
0.0
 40
0.0
 40
0.0
 40
0.2832270505409888
 40
0.5762690817789545
 40
0.7861908663567705
 40
1.0
 40
1.0
 40
1.0
 40
1.0
 10
339.9084881031342
 20
519.3423403673464
 30
0.0
 10
339.9035758934976
 20
518.035285120523
 30
0.0
 10
339.8935812459829
 20
515.3758797936568
 30
0.0
 10
339.8775625736474
 20
511.0613736363923
 30
0.0
 10
339.8621657332797
 20
506.8902969615177
 30
0.0
 10
339.8526846085331
 20
504.3050834312731
 30
0.0
 10
339.8479005557749
 20
503.0006181647192
 30
0.0
  0
SPLINE
  5
CA
330
1F
100
AcDbEntity
  8
0
  6
Continuous
 62
     7
370
    25
100
AcDbSpline
210
0.0
220
0.0
230
1.0
 70
     8
 71
     3
 72
    13
 73
     9
 74
     0
 42
0.000000001
 43
0.00000001
 40
0.0
 40
0.0
 40
0.0
 40
0.0
 40
0.1923255843130301
 40
0.4540879704407315
 40
0.6566903155945284
 40
0.8131117782652141
 40
0.9441977497085113
 40
0.9999999999999999
 40
0.9999999999999999
 40
0.9999999999999999
 40
0.9999999999999999
 10
324.1383150323981
 20
515.8194403610348
 30
0.0
 10
324.1065153727334
 20
515.8722547969784
 30
0.0
 10
324.0314351749043
 20
515.9969516755204
 30
0.0
 10
323.8503919258318
 20
516.1299717331675
 30
0.0
 10
323.6284869148919
 20
516.1989539363343
 30
0.0
 10
323.4236863966569
 20
516.1983832853778
 30
0.0
 10
323.2732799419946
 20
516.1592843448578
 30
0.0
 10
323.1977145888663
 20
516.1218246967442
 30
0.0
 10
323.1751518146611
 20
516.11063976149
 30
0.0
  0
LINE
  5
CB
330
1F
100
AcDbEntity
  8
0
  6
Continuous
 62
     7
370
    25
100
AcDbLine
 10
321.2840884574
 20
515.0949239829
 30
0.0
 11
323.1751518147
 21
516.1106397615
 31
0.0
  0
SPLINE
  5
CC
330
1F
100
AcDbEntity
  8
0
  6
Continuous
 62
     7
370
    25
100
AcDbSpline
210
0.0
220
0.0
230
1.0
 70
     8
 71
     3
 72
    12
 73
     8
 74
     0
 42
0.000000001
 43
0.00000001
 40
0.0
 40
0.0
 40
0.0
 40
0.0
 40
0.1369201225726004
 40
0.2732892293761685
 40
0.4609277253892676
 40
0.7173042792487053
 40
1.0
 40
1.0
 40
1.0
 40
1.0
 10
321.2840884573623
 20
515.0949239829447
 30
0.0
 10
321.2317449367345
 20
515.0613481686393
 30
0.0
 10
321.1272685446131
 20
514.9943316611691
 30
0.0
 10
321.0034523265585
 20
514.8394547011846
 30
0.0
 10
320.9166162357212
 20
514.6342673447159
 30
0.0
 10
320.9025166039308
 20
514.3806322492422
 30
0.0
 10
320.9766243520535
 20
514.2241751445715
 30
0.0
 10
321.0154873102421
 20
514.1421272336426
 30
0.0
  0
SPLINE
  5
CD
330
1F
100
AcDbEntity
  8
0
  6
Continuous
 62
     7
370
    25
100
AcDbSpline
210
0.0
220
0.0
230
1.0
 70
     8
 71
     3
 72
    11
 73
     7
 74
     0
 42
0.000000001
 43
0.00000001
 40
0.0
 40
0.0
 40
0.0
 40
0.0
 40
0.2603296700613609
 40
0.5282089223299619
 40
0.7614183594635636
 40
1.0
 40
1.0
 40
1.0
 40
1.0
 10
329.5763203649773
 20
500.1734121095932
 30
0.0
 10
328.7537813925842
 20
501.5322218606057
 30
0.0
 10
327.0848497487968
 20
504.2892469590685
 30
0.0
 10
324.8087482287832
 20
508.0133553924787
 30
0.0
 10
322.7430284035445
 20
511.3694499964319
 30
0.0
 10
321.595689192396
 20
513.2109120180555
 30
0.0
 10
321.0154873102421
 20
514.1421272336426
 30
0.0
  0
SPLINE
  5
CE
330
1F
100
AcDbEntity
  8
0
  6
Continuous
 62
     7
370
    25
100
AcDbSpline
210
0.0
220
0.0
230
1.0
 70
     8
 71
     3
 72
    12
 73
     8
 74
     0
 42
0.000000001
 43
0.00000001
 40
0.0
 40
0.0
 40
0.0
 40
0.0
 40
0.2229001220213845
 40
0.4458326855483262
 40
0.6679313506030079
 40
0.8889145746355034
 40
1.0
 40
1.0
 40
1.0
 40
1.0
 10
329.5763203649773
 20
500.1734121095932
 30
0.0
 10
329.6236532229442
 20
500.1100976258423
 30
0.0
 10
329.718325827834
 20
499.9834594433741
 30
0.0
 10
329.9309407332337
 20
499.866502813613
 30
0.0
 10
330.1657656616641
 20
499.8233749274224
 30
0.0
 10
330.3653672119372
 20
499.8526071643743
 30
0.0
 10
330.4720105069579
 20
499.9030932958026
 30
0.0
 10
330.5076854067449
 20
499.9199821933089
 30
0.0
  0
LINE
  5
CF
330
1F
100
AcDbEntity
  8
0
  6
Continuous
 62
     7
370
    25
100
AcDbLine
 10
330.9940543921
 20
500.1812175717
 30
0.0
 11
330.5076854067
 21
499.9199821933
 31
0.0
  0
SPLINE
  5
D0
330
1F
100
AcDbEntity
  8
0
  6
Continuous
 62
     7
370
    25
100
AcDbSpline
210
0.0
220
0.0
230
1.0
 70
     8
 71
     3
 72
    12
 73
     8
 74
     0
 42
0.000000001
 43
0.00000001
 40
0.0
 40
0.0
 40
0.0
 40
0.0
 40
0.2201335757473904
 40
0.4402546082627183
 40
0.6607438504652156
 40
0.8821597150738458
 40
1.0
 40
1.0
 40
1.0
 40
1.0
 10
330.9940543921213
 20
500.1812175716775
 30
0.0
 10
331.0595076646629
 20
500.2250702408815
 30
0.0
 10
331.1904104802123
 20
500.3127730805602
 30
0.0
 10
331.31786923699
 20
500.5168119431733
 30
0.0
 10
331.3738397053281
 20
500.7464761651961
 30
0.0
 10
331.356083579348
 20
500.9477206412359
 30
0.0
 10
331.3103420047885
 20
501.0579550303129
 30
0.0
 10
331.2944537145204
 20
501.0962448353328
 30
0.0
  0
SPLINE
  5
D1
330
1F
100
AcDbEntity
  8
0
  6
Continuous
 62
     7
370
    25
100
AcDbSpline
210
0.0
220
0.0
230
1.0
 70
     8
 71
     3
 72
    11
 73
     7
 74
     0
 42
0.000000001
 43
0.00000001
 40
0.0
 40
0.0
 40
0.0
 40
0.0
 40
0.2832270505044777
 40
0.5762690817061524
 40
0.786190866333844
 40
1.0
 40
1.0
 40
1.0
 40
1.0
 10
324.1383150323981
 20
515.8194403610348
 30
0.0
 10
324.7185077324066
 20
514.643609145244
 30
0.0
 10
325.8989991927066
 20
512.2511993321339
 30
0.0
 10
327.7910025155462
 20
508.3646135923207
 30
0.0
 10
329.6095597574281
 20
504.6048458004292
 30
0.0
 10
330.7293978938268
 20
502.2729096274838
 30
0.0
 10
331.2944537145204
 20
501.0962448353328
 30
0.0
  0
SPLINE
  5
D2
330
1F
100
AcDbEntity
  8
0
  6
Continuous
 62
     7
370
    25
100
AcDbSpline
210
0.0
220
0.0
230
1.0
 70
     8
 71
     3
 72
    12
 73
     8
 74
     0
 42
0.000000001
 43
0.00000001
 40
0.0
 40
0.0
 40
0.0
 40
0.0
 40
0.3203291957399756
 40
0.5619245719159601
 40
0.7389290157735336
 40
0.8801315585623534
 40
1.0
 40
1.0
 40
1.0
 40
1.0
 10
311.4593407885619
 20
505.807163689389
 30
0.0
 10
311.3687085563762
 20
505.859344030809
 30
0.0
 10
311.2097206184987
 20
505.9508792901759
 30
0.0
 10
310.9410756333897
 20
505.9530460362446
 30
0.0
 10
310.7289183064877
 20
505.8861506305955
 30
0.0
 10
310.5658798793193
 20
505.7820741864436
 30
0.0
 10
310.4897608561391
 20
505.691232760809
 30
0.0
 10
310.454811477527
 20
505.6495237208669
 30
0.0
  0
LINE
  5
D3
330
1F
100
AcDbEntity
  8
0
  6
Continuous
 62
     7
370
    25
100
AcDbLine
 10
309.1919934528
 20
503.9143936131
 30
0.0
 11
310.4548114775
 21
505.6495237209
 31
0.0
  0
SPLINE
  5
D4
330
1F
100
AcDbEntity
  8
0
  6
Continuous
 62
     7
370
    25
100
AcDbSpline
210
0.0
220
0.0
230
1.0
 70
     8
 71
     3
 72
    12
 73
     8
 74
     0
 42
0.000000001
 43
0.00000001
 40
0.0
 40
0.0
 40
0.0
 40
0.0
 40
0.1369201157522568
 40
0.2732892159078145
 40
0.4609276959964018
 40
0.7173042284140659
 40
1.0
 40
1.0
 40
1.0
 40
1.0
 10
309.1919934528221
 20
503.9143936131005
 30
0.0
 10
309.1594560640376
 20
503.861456090139
 30
0.0
 10
309.0945122285773
 20
503.7557940837727
 30
0.0
 10
309.051303547938
 20
503.5628180122812
 30
0.0
 10
309.0641878810368
 20
503.3407619407346
 30
0.0
 10
309.1647904007098
 20
503.1068585178602
 30
0.0
 10
309.3020120818829
 20
502.9986065792472
 30
0.0
 10
309.3739727238033
 20
502.9418380064889
 30
0.0
  0
SPLINE
  5
D5
330
1F
100
AcDbEntity
  8
0
  6
Continuous
 62
     7
370
    25
100
AcDbSpline
210
0.0
220
0.0
230
1.0
 70
     8
 71
     3
 72
    11
 73
     7
 74
     0
 42
0.000000001
 43
0.00000001
 40
0.0
 40
0.0
 40
0.0
 40
0.0
 40
0.2603296700661884
 40
0.5282089223397628
 40
0.7614183594655022
 40
1.0
 40
1.0
 40
1.0
 40
1.0
 10
323.2675061869971
 20
494.0950634620228
 30
0.0
 10
321.9325925559119
 20
494.9617487066567
 30
0.0
 10
319.2240526867804
 20
496.7202531405136
 30
0.0
 10
315.5301256552446
 20
499.0825715864917
 30
0.0
 10
312.1776309466632
 20
501.2027474274616
 30
0.0
 10
310.3155930326572
 20
502.3577571813738
 30
0.0
 10
309.3739727238033
 20
502.9418380064889
 30
0.0
  0
SPLINE
  5
D6
330
1F
100
AcDbEntity
  8
0
  6
Continuous
 62
     7
370
    25
100
AcDbSpline
210
0.0
220
0.0
230
1.0
 70
     8
 71
     3
 72
    12
 73
     8
 74
     0
 42
0.000000001
 43
0.00000001
 40
0.0
 40
0.0
 40
0.0
 40
0.0
 40
0.2229001272209536
 40
0.4458326959109602
 40
0.6679313662889853
 40
0.8889145956180573
 40
1.0
 40
1.0
 40
1.0
 40
1.0
 10
323.2675061869971
 20
494.0950634620228
 30
0.0
 10
323.3377715307416
 20
494.0585736496507
 30
0.0
 10
323.4783124448331
 20
493.9855887140834
 30
0.0
 10
323.720966584182
 20
493.9724809722819
 30
0.0
 10
323.9514834461411
 20
494.0354996117504
 30
0.0
 10
324.1187274374386
 20
494.1484109407913
 30
0.0
 10
324.1929019575484
 20
494.2401424093199
 30
0.0
 10
324.2177152212076
 20
494.270828918799
 30
0.0
  0
LINE
  5
D7
330
1F
100
AcDbEntity
  8
0
  6
Continuous
 62
     7
370
    25
100
AcDbLine
 10
324.5425036626
 20
494.717092904
 30
0.0
 11
324.2177152212
 21
494.2708289188
 31
0.0
  0
SPLINE
  5
D8
330
1F
100
AcDbEntity
  8
0
  6
Continuous
 62
     7
370
    25
100
AcDbSpline
210
0.0
220
0.0
230
1.0
 70
     8
 71
     3
 72
    12
 73
     8
 74
     0
 42
0.000000001
 43
0.00000001
 40
0.0
 40
0.0
 40
0.0
 40
0.0
 40
0.2201364054726268
 40
0.4402602676309629
 40
0.6607523441707615
 40
0.8834152975165542
 40
1.0
 40
1.0
 40
1.0
 40
1.0
 10
324.5425036626095
 20
494.717092904013
 30
0.0
 10
324.582424422066
 20
494.7849818257951
 30
0.0
 10
324.6622636663047
 20
494.9207558010663
 30
0.0
 10
324.6883396140523
 20
495.1598170462447
 30
0.0
 10
324.6387057019778
 20
495.3913806210699
 30
0.0
 10
324.5348400178098
 20
495.5648614974627
 30
0.0
 10
324.445534947953
 20
495.6442430305397
 30
0.0
 10
324.414844669566
 20
495.6715230198261
 30
0.0
  0
SPLINE
  5
D9
330
1F
100
AcDbEntity
  8
0
  6
Continuous
 62
     7
370
    25
100
AcDbSpline
210
0.0
220
0.0
230
1.0
 70
     8
 71
     3
 72
    11
 73
     7
 74
     0
 42
0.000000001
 43
0.00000001
 40
0.0
 40
0.0
 40
0.0
 40
0.0
 40
0.2832270505599089
 40
0.5762690817539483
 40
0.7861908663431388
 40
1.0
 40
1.0
 40
1.0
 40
1.0
 10
311.4593407885619
 20
505.807163689389
 30
0.0
 10
312.5097241186025
 20
505.0032740965859
 30
0.0
 10
314.6468908754345
 20
503.3676368346771
 30
0.0
 10
318.0721817312422
 20
500.6939494774425
 30
0.0
 10
321.364505489672
 20
498.0999963068585
 30
0.0
 10
323.3918652105248
 20
496.4859499221978
 30
0.0
 10
324.414844669566
 20
495.6715230198261
 30
0.0
  0
SPLINE
  5
DA
330
1F
100
AcDbEntity
  8
0
  6
Continuous
 62
     7
370
    25
100
AcDbSpline
210
0.0
220
0.0
230
1.0
 70
     8
 71
     3
 72
    12
 73
     8
 74
     0
 42
0.000000001
 43
0.00000001
 40
0.0
 40
0.0
 40
0.0
 40
0.0
 40
0.3203291896136085
 40
0.5619245569549665
 40
0.7389289952628125
 40
0.8801315335581926
 40
1.0
 40
1.0
 40
1.0
 40
1.0
 10
304.382791717869
 20
491.2885645411959
 30
0.0
 10
304.2769756097881
 20
491.2959341453318
 30
0.0
 10
304.0913519714185
 20
491.308861976055
 30
0.0
 10
303.8451873961223
 20
491.1935983772561
 30
0.0
 10
303.6811755550833
 20
491.0408971160314
 30
0.0
 10
303.5784799119107
 20
490.8762055425912
 30
0.0
 10
303.5492680133144
 20
490.7613376519073
 30
0.0
 10
303.5358556257912
 20
490.7085970654391
 30
0.0
  0
LINE
  5
DB
330
1F
100
AcDbEntity
  8
0
  6
Continuous
 62
     7
370
    25
100
AcDbLine
 10
303.1513995392
 20
488.59771647
 30
0.0
 11
303.5358556258
 21
490.7085970654
 31
0.0
  0
SPLINE
  5
DC
330
1F
100
AcDbEntity
  8
0
  6
Continuous
 62
     7
370
    25
100
AcDbSpline
210
0.0
220
0.0
230
1.0
 70
     8
 71
     3
 72
    12
 73
     8
 74
     0
 42
0.000000001
 43
0.00000001
 40
0.0
 40
0.0
 40
0.0
 40
0.0
 40
0.136920114733511
 40
0.2732892139410112
 40
0.4609276917774272
 40
0.7173042211629499
 40
1.0
 40
1.0
 40
1.0
 40
1.0
 10
303.1513995391544
 20
488.5977164699689
 30
0.0
 10
303.145112711131
 20
488.5359229713389
 30
0.0
 10
303.1325643555293
 20
488.4125846532245
 30
0.0
 10
303.1785212261291
 20
488.220235456606
 30
0.0
 10
303.2885740913771
 20
488.0262219054984
 30
0.0
 10
303.4839532201978
 20
487.8598332055622
 30
0.0
 10
303.6571103966887
 20
487.8223800596464
 30
0.0
 10
303.7479160309657
 20
487.8027391949738
 30
0.0
  0
SPLINE
  5
DD
330
1F
100
AcDbEntity
  8
0
  6
Continuous
 62
     7
370
    25
100
AcDbSpline
210
0.0
220
0.0
230
1.0
 70
     8
 71
     3
 72
    11
 73
     7
 74
     0
 42
0.000000001
 43
0.00000001
 40
0.0
 40
0.0
 40
0.0
 40
0.0
 40
0.260329670065431
 40
0.5282089223382236
 40
0.7614183595481313
 40
1.0
 40
1.0
 40
1.0
 40
1.0
 10
320.2223652077828
 20
485.8830361616062
 30
0.0
 10
318.6394729343263
 20
486.0841569402223
 30
0.0
 10
315.4277843790809
 20
486.4922310168573
 30
0.0
 10
311.0476593869279
 20
487.0128223906179
 30
0.0
 10
307.0723924875876
 20
487.4615033129147
 30
0.0
 10
304.8644553158227
 20
487.6881337006371
 30
0.0
 10
303.7479160309657
 20
487.8027391949738
 30
0.0
  0
SPLINE
  5
DE
330
1F
100
AcDbEntity
  8
0
  6
Continuous
 62
     7
370
    25
100
AcDbSpline
210
0.0
220
0.0
230
1.0
 70
     8
 71
     3
 72
    12
 73
     8
 74
     0
 42
0.000000001
 43
0.00000001
 40
0.0
 40
0.0
 40
0.0
 40
0.0
 40
0.2229001214508352
 40
0.4458326844631188
 40
0.6679313492014185
 40
0.8889145729193821
 40
0.9999999999999999
 40
0.9999999999999999
 40
0.9999999999999999
 40
0.9999999999999999
 10
320.2223652077828
 20
485.8830361616062
 30
0.0
 10
320.3016461241949
 20
485.8806585141154
 30
0.0
 10
320.4602194958047
 20
485.8759028730836
 30
0.0
 10
320.6848522411023
 20
485.9693853420713
 30
0.0
 10
320.8654043447714
 20
486.1261706355405
 30
0.0
 10
320.9671660676341
 20
486.300443367628
 30
0.0
 10
320.9941806441196
 20
486.4152565279472
 30
0.0
 10
321.0032177084708
 20
486.4536644563015
 30
0.0
  0
LINE
  5
DF
330
1F
100
AcDbEntity
  8
0
  6
Continuous
 62
     7
370
    25
100
AcDbLine
 10
321.1020972697
 20
486.996568976
 30
0.0
 11
321.0032177085
 21
486.4536644563
 31
0.0
  0
SPLINE
  5
E0
330
1F
100
AcDbEntity
  8
0
  6
Continuous
 62
     7
370
    25
100
AcDbSpline
210
0.0
220
0.0
230
1.0
 70
     8
 71
     3
 72
    12
 73
     8
 74
     0
 42
0.000000001
 43
0.00000001
 40
0.0
 40
0.0
 40
0.0
 40
0.0
 40
0.2200858061118244
 40
0.4401590717532026
 40
0.5885344628988791
 40
0.8110242970584989
 40
1.0
 40
1.0
 40
1.0
 40
1.0
 10
321.1020972696509
 20
486.9965689759845
 30
0.0
 10
321.1086059870539
 20
487.0750220549377
 30
0.0
 10
321.1216230509937
 20
487.2319237425945
 30
0.0
 10
321.0495656901657
 20
487.434123768156
 30
0.0
 10
320.9304355049126
 20
487.6058850175257
 30
0.0
 10
320.7744725914541
 20
487.7364356219587
 30
0.0
 10
320.6354938037782
 20
487.780601248982
 30
0.0
 10
320.5716643655218
 20
487.8008854032063
 30
0.0
  0
SPLINE
  5
E1
330
1F
100
AcDbEntity
  8
0
  6
Continuous
 62
     7
370
    25
100
AcDbSpline
210
0.0
220
0.0
230
1.0
 70
     8
 71
     3
 72
    11
 73
     7
 74
     0
 42
0.000000001
 43
0.00000001
 40
0.0
 40
0.0
 40
0.0
 40
0.0
 40
0.2832270505644742
 40
0.5762690817601831
 40
0.7861908663719639
 40
0.9999999999999999
 40
0.9999999999999999
 40
0.9999999999999999
 40
0.9999999999999999
 10
304.382791717869
 20
491.2885645411959
 30
0.0
 10
305.6953243771542
 20
491.0236665642772
 30
0.0
 10
308.3658743434767
 20
490.4846908074955
 30
0.0
 10
312.6460318701834
 20
489.5686503972906
 30
0.0
 10
316.7600370474322
 20
488.6641137015235
 30
0.0
 10
319.2933748961684
 20
488.0903826576073
 30
0.0
 10
320.5716643655218
 20
487.8008854032063
 30
0.0
  0
SPLINE
  5
E2
330
1F
100
AcDbEntity
  8
0
  6
Continuous
 62
     7
370
    25
100
AcDbSpline
210
0.0
220
0.0
230
1.0
 70
     8
 71
     3
 72
    12
 73
     8
 74
     0
 42
0.000000001
 43
0.00000001
 40
0.0
 40
0.0
 40
0.0
 40
0.0
 40
0.3203292008043647
 40
0.5619245726364825
 40
0.7389290150957821
 40
0.8801315566607247
 40
0.9999999999999999
 40
0.9999999999999999
 40
0.9999999999999999
 40
0.9999999999999999
 10
304.3102651519029
 20
475.1392295362787
 30
0.0
 10
304.210223345899
 20
475.0996420370502
 30
0.0
 10
304.0347290452127
 20
475.0301972642045
 30
0.0
 10
303.8598007942207
 20
474.8188805230387
 30
0.0
 10
303.7764189953182
 20
474.609747675573
 30
0.0
 10
303.7544062808697
 20
474.4166095840012
 30
0.0
 10
303.7778872796596
 20
474.3004344625624
 30
0.0
 10
303.7886683734454
 20
474.2470936787647
 30
0.0
  0
LINE
  5
E3
330
1F
100
AcDbEntity
  8
0
  6
Continuous
 62
     7
370
    25
100
AcDbLine
 10
304.3587204592
 20
472.178548285
 30
0.0
 11
303.7886683734
 21
474.2470936788
 31
0.0
  0
SPLINE
  5
E4
330
1F
100
AcDbEntity
  8
0
  6
Continuous
 62
     7
370
    25
100
AcDbSpline
210
0.0
220
0.0
230
1.0
 70
     8
 71
     3
 72
    12
 73
     8
 74
     0
 42
0.000000001
 43
0.00000001
 40
0.0
 40
0.0
 40
0.0
 40
0.0
 40
0.1369201213241607
 40
0.2732892270164589
 40
0.460927720478118
 40
0.7173042709072079
 40
1.0
 40
1.0
 40
1.0
 40
1.0
 10
304.3587204591799
 20
472.1785482850466
 30
0.0
 10
304.3799293789643
 20
472.1201585808075
 30
0.0
 10
304.42226186624
 20
472.0036141534225
 30
0.0
 10
304.5482819791054
 20
471.8504936710349
 30
0.0
 10
304.7337060725397
 20
471.7238797295685
 30
0.0
 10
304.9851645697335
 20
471.6594166989727
 30
0.0
 10
305.1599613226686
 20
471.7013333909495
 30
0.0
 10
305.2516267586244
 20
471.7233149883154
 30
0.0
  0
SPLINE
  5
E5
330
1F
100
AcDbEntity
  8
0
  6
Continuous
 62
     7
370
    25
100
AcDbSpline
210
0.0
220
0.0
230
1.0
 70
     8
 71
     3
 72
    11
 73
     7
 74
     0
 42
0.000000001
 43
0.00000001
 40
0.0
 40
0.0
 40
0.0
 40
0.0
 40
0.2603296700663242
 40
0.5282089223400359
 40
0.7614183594802443
 40
1.0
 40
1.0
 40
1.0
 40
1.0
 10
321.044024943536
 20
477.1638229296001
 30
0.0
 10
319.5266652553123
 20
476.6577624870886
 30
0.0
 10
316.4479423209854
 20
475.6309658069029
 30
0.0
 10
312.2491568425146
 20
474.1946696584441
 30
0.0
 10
308.4384681152181
 20
472.8673395745505
 30
0.0
 10
306.3219407212447
 20
472.1075404175779
 30
0.0
 10
305.2516267586244
 20
471.7233149883154
 30
0.0
  0
SPLINE
  5
E6
330
1F
100
AcDbEntity
  8
0
  6
Continuous
 62
     7
370
    25
100
AcDbSpline
210
0.0
220
0.0
230
1.0
 70
     8
 71
     3
 72
    12
 73
     8
 74
     0
 42
0.000000001
 43
0.00000001
 40
0.0
 40
0.0
 40
0.0
 40
0.0
 40
0.2229001266620492
 40
0.4458326948083294
 40
0.667931364465195
 40
0.8889145930765607
 40
1.0
 40
1.0
 40
1.0
 40
1.0
 10
321.044024943536
 20
477.1638229296001
 30
0.0
 10
321.1166188749233
 20
477.196088608658
 30
0.0
 10
321.2618173032139
 20
477.2606246628076
 30
0.0
 10
321.4239373843853
 20
477.4423271665772
 30
0.0
 10
321.518764171492
 20
477.6619276064159
 30
0.0
 10
321.5348884594544
 20
477.8630906522721
 30
0.0
 10
321.509392525698
 20
477.9782502133639
 30
0.0
 10
321.5008634872008
 20
478.0167740163855
 30
0.0
  0
LINE
  5
E7
330
1F
100
AcDbEntity
  8
0
  6
Continuous
 62
     7
370
    25
100
AcDbLine
 10
321.3542498608
 20
478.5487902113
 30
0.0
 11
321.5008634872
 21
478.0167740164
 31
0.0
  0
SPLINE
  5
E8
330
1F
100
AcDbEntity
  8
0
  6
Continuous
 62
     7
370
    25
100
AcDbSpline
210
0.0
220
0.0
230
1.0
 70
     8
 71
     3
 72
    13
 73
     9
 74
     0
 42
0.000000001
 43
0.00000001
 40
0.0
 40
0.0
 40
0.0
 40
0.0
 40
0.2200615389988273
 40
0.2941794150061768
 40
0.515219500911672
 40
0.736229689360367
 40
0.958013028133436
 40
1.0
 40
1.0
 40
1.0
 40
1.0
 10
321.3542498607578
 20
478.5487902113265
 30
0.0
 10
321.3263922594917
 20
478.6225314030536
 30
0.0
 10
321.2891520725821
 20
478.7211090134023
 30
0.0
 10
321.1754234056011
 20
478.8646566561545
 30
0.0
 10
321.0314298491907
 20
478.9827002301007
 30
0.0
 10
320.8066734468294
 20
479.0628497585898
 30
0.0
 10
320.6317313905308
 20
479.0651111635419
 30
0.0
 10
320.5406069824145
 20
479.0462160201283
 30
0.0
 10
320.5261017943565
 20
479.0432082902098
 30
0.0
  0
SPLINE
  5
E9
330
1F
100
AcDbEntity
  8
0
  6
Continuous
 62
     7
370
    25
100
AcDbSpline
210
0.0
220
0.0
230
1.0
 70
     8
 71
     3
 72
    11
 73
     7
 74
     0
 42
0.000000001
 43
0.00000001
 40
0.0
 40
0.0
 40
0.0
 40
0.0
 40
0.2832270505631125
 40
0.5762690817613808
 40
0.7861908663724566
 40
1.0
 40
1.0
 40
1.0
 40
1.0
 10
304.3102651519029
 20
475.1392295362787
 30
0.0
 10
305.6249839500295
 20
475.4736192676822
 30
0.0
 10
308.2999819527434
 20
476.1539867081622
 30
0.0
 10
312.5872684592272
 20
477.1922182754608
 30
0.0
 10
316.7081258747989
 20
478.1660902559105
 30
0.0
 10
319.2456832211516
 20
478.7490528933
 30
0.0
 10
320.5261017943565
 20
479.0432082902098
 30
0.0
  0
ARC
  5
EA
330
1F
100
AcDbEntity
  8
0
  6
Continuous
 62
     7
370
    25
100
AcDbCircle
 10
339.7461374761
 20
483.3292479659
 30
0.0
 40
16.41694109627216
100
AcDbArc
 50
311.1269948755
 51
131.1326948815
  0
ARC
  5
EB
330
1F
100
AcDbEntity
  8
0
  6
Continuous
 62
     7
370
    25
100
AcDbCircle
 10
339.7449073
 20
483.328173686
 30
0.0
 40
16.41694109627222
100
AcDbArc
 50
131.1269948755
 51
311.1326948815
  0
SPLINE
  5
EC
330
1F
100
AcDbEntity
  8
0
  6
Continuous
 62
     7
370
    25
100
AcDbSpline
210
0.0
220
0.0
230
1.0
 70
     8
 71
     3
 72
    12
 73
     8
 74
     0
 42
0.000000001
 43
0.00000001
 40
0.0
 40
0.0
 40
0.0
 40
0.0
 40
0.3203291947014721
 40
0.5619245601170206
 40
0.7389289982560368
 40
0.8801315363483916
 40
1.0
 40
1.0
 40
1.0
 40
1.0
 10
339.5825566729822
 20
446.7678876314387
 30
0.0
 10
339.5955314145721
 20
446.6589087617948
 30
0.0
 10
339.618291831297
 20
446.4677369785181
 30
0.0
 10
339.7783584000346
 20
446.2445756604455
 30
0.0
 10
339.9595324585948
 20
446.1133820309067
 30
0.0
 10
340.1408253475562
 20
446.0471882501508
 30
0.0
 10
340.2592252268429
 20
446.044090422922
 30
0.0
 10
340.3135874943174
 20
446.0426680826847
 30
0.0
  0
LINE
  5
ED
330
1F
100
AcDbEntity
  8
0
  6
Continuous
 62
     7
370
    25
100
AcDbLine
 10
342.458347849
 20
446.1377945626
 30
0.0
 11
340.3135874943
 21
446.0426680827
 31
0.0
  0
SPLINE
  5
EE
330
1F
100
AcDbEntity
  8
0
  6
Continuous
 62
     7
370
    25
100
AcDbSpline
210
0.0
220
0.0
230
1.0
 70
     8
 71
     3
 72
    12
 73
     8
 74
     0
 42
0.000000001
 43
0.00000001
 40
0.0
 40
0.0
 40
0.0
 40
0.0
 40
0.1369201143734533
 40
0.2732892132302671
 40
0.4609276902131234
 40
0.717304218449978
 40
1.0
 40
1.0
 40
1.0
 40
1.0
 10
342.4583478490169
 20
446.1377945626448
 30
0.0
 10
342.5201302260721
 20
446.1455478894259
 30
0.0
 10
342.6434463457975
 20
446.1610233408275
 30
0.0
 10
342.8233467923285
 20
446.2517177334912
 30
0.0
 10
342.9927043743996
 20
446.4078603643641
 30
0.0
 10
343.1187135947342
 20
446.6442344041225
 30
0.0
 10
343.1223977235429
 20
446.8283981561162
 30
0.0
 10
343.124329723488
 20
446.9249757670561
 30
0.0
  0
SPLINE
  5
EF
330
1F
100
AcDbEntity
  8
0
  6
Continuous
 62
     7
370
    25
100
AcDbSpline
210
0.0
220
0.0
230
1.0
 70
     8
 71
     3
 72
    11
 73
     7
 74
     0
 42
0.000000001
 43
0.00000001
 40
0.0
 40
0.0
 40
0.0
 40
0.0
 40
0.2603296700636661
 40
0.5282089223346429
 40
0.7614183595006021
 40
1.0
 40
1.0
 40
1.0
 40
1.0
 10
341.5917750566052
 20
463.730402022381
 30
0.0
 10
341.7390254390037
 20
462.1323814667058
 30
0.0
 10
342.0377964772071
 20
458.8899976255732
 30
0.0
 10
342.4452626647272
 20
454.4320670536927
 30
0.0
 10
342.8150664605062
 20
450.3623943819421
 30
0.0
 10
343.0204623666179
 20
448.079447147012
 30
0.0
 10
343.124329723488
 20
446.9249757670561
 30
0.0
  0
SPLINE
  5
F0
330
1F
100
AcDbEntity
  8
0
  6
Continuous
 62
     7
370
    25
100
AcDbSpline
210
0.0
220
0.0
230
1.0
 70
     8
 71
     3
 72
    12
 73
     8
 74
     0
 42
0.000000001
 43
0.00000001
 40
0.0
 40
0.0
 40
0.0
 40
0.0
 40
0.2228401656766707
 40
0.4114692604660968
 40
0.6322887730400456
 40
0.8531344551548702
 40
1.0
 40
1.0
 40
1.0
 40
1.0
 10
341.5917750566052
 20
463.730402022381
 30
0.0
 10
341.5768054197266
 20
463.8085811413414
 30
0.0
 10
341.5491643281972
 20
463.9529370933522
 30
0.0
 10
341.4223827675432
 20
464.1434798568176
 30
0.0
 10
341.2475067870175
 20
464.2871386747512
 30
0.0
 10
341.0469106921443
 20
464.3631106291559
 30
0.0
 10
340.916006165997
 20
464.3660319630108
 30
0.0
 10
340.8637222998931
 20
464.3671987571058
 30
0.0
  0
LINE
  5
F1
330
1F
100
AcDbEntity
  8
0
  6
Continuous
 62
     7
370
    25
100
AcDbLine
 10
340.3121041302
 20
464.342732856
 30
0.0
 11
340.8637222999
 21
464.3671987571
 31
0.0
  0
SPLINE
  5
F2
330
1F
100
AcDbEntity
  8
0
  6
Continuous
 62
     7
370
    25
100
AcDbSpline
210
0.0
220
0.0
230
1.0
 70
     8
 71
     3
 72
    12
 73
     8
 74
     0
 42
0.000000001
 43
0.00000001
 40
0.0
 40
0.0
 40
0.0
 40
0.0
 40
0.220133570039295
 40
0.4402545968997301
 40
0.6607438333972158
 40
0.8821596922327292
 40
1.0
 40
1.0
 40
1.0
 40
1.0
 10
340.3121041301908
 20
464.3427328560188
 30
0.0
 10
340.2340820139169
 20
464.3315513735642
 30
0.0
 10
340.0780422270577
 20
464.3091890457744
 30
0.0
 10
339.874447682225
 20
464.179858458962
 30
0.0
 10
339.7240429318941
 20
463.9960311354399
 30
0.0
 10
339.6523716413137
 20
463.8057072219024
 30
0.0
 10
339.6455230663648
 20
463.6856694679481
 30
0.0
 10
339.6431442203505
 20
463.6439744679386
 30
0.0
  0
SPLINE
  5
F3
330
1F
100
AcDbEntity
  8
0
  6
Continuous
 62
     7
370
    25
100
AcDbSpline
210
0.0
220
0.0
230
1.0
 70
     8
 71
     3
 72
    11
 73
     7
 74
     0
 42
0.000000001
 43
0.00000001
 40
0.0
 40
0.0
 40
0.0
 40
0.0
 40
0.2832270505560769
 40
0.5762690817551349
 40
0.7861908663644727
 40
1.0
 40
1.0
 40
1.0
 40
1.0
 10
339.5825566729822
 20
446.7678876314387
 30
0.0
 10
339.5874688826202
 20
448.1540068987461
 30
0.0
 10
339.5974635301368
 20
450.97428015939
 30
0.0
 10
339.6134822024741
 20
455.442192548481
 30
0.0
 10
339.6288790428434
 20
459.7126078380379
 30
0.0
 10
339.6383601675919
 20
462.3255285276977
 30
0.0
 10
339.6431442203505
 20
463.6439744679386
 30
0.0
  0
SPLINE
  5
F4
330
1F
100
AcDbEntity
  8
0
  6
Continuous
 62
     7
370
    25
100
AcDbSpline
210
0.0
220
0.0
230
1.0
 70
     8
 71
     3
 72
    12
 73
     8
 74
     0
 42
0.000000001
 43
0.00000001
 40
0.0
 40
0.0
 40
0.0
 40
0.0
 40
0.3203291954783477
 40
0.561924570325027
 40
0.7389290134331165
 40
0.880131555571621
 40
1.0
 40
1.0
 40
1.0
 40
1.0
 10
323.8446609614843
 20
450.4321178393437
 30
0.0
 10
323.8105431044441
 20
450.3279618107011
 30
0.0
 10
323.7506932299139
 20
450.1452502987068
 30
0.0
 10
323.8012062534006
 20
449.8740548423529
 30
0.0
 10
323.9093881758623
 20
449.6768578282088
 30
0.0
 10
324.0449771969933
 20
449.5383818830024
 30
0.0
 10
324.1503765474876
 20
449.4842344575037
 30
0.0
 10
324.198769731095
 20
449.4593731439211
 30
0.0
  0
LINE
  5
F5
330
1F
100
AcDbEntity
  8
0
  6
Continuous
 62
     7
370
    25
100
AcDbLine
 10
326.1724310926
 20
448.6150693544
 30
0.0
 11
324.1987697311
 21
449.4593731439
 31
0.0
  0
SPLINE
  5
F6
330
1F
100
AcDbEntity
  8
0
  6
Continuous
 62
     7
370
    25
100
AcDbSpline
210
0.0
220
0.0
230
1.0
 70
     8
 71
     3
 72
    12
 73
     8
 74
     0
 42
0.000000001
 43
0.00000001
 40
0.0
 40
0.0
 40
0.0
 40
0.0
 40
0.1369201211910148
 40
0.2732892266307859
 40
0.4609277194040972
 40
0.7173042689016421
 40
1.0
 40
1.0
 40
1.0
 40
1.0
 10
326.172431092628
 20
448.6150693543774
 30
0.0
 10
326.2314155703031
 20
448.5952752293719
 30
0.0
 10
326.3491471509269
 20
448.5557666380302
 30
0.0
 10
326.5495003329049
 20
448.5597235043488
 30
0.0
 10
326.7678360498585
 20
448.6274315911273
 30
0.0
 10
326.9807971380956
 20
448.7864850011936
 30
0.0
 10
327.0615434505186
 20
448.9513897808583
 30
0.0
 10
327.1038877495034
 20
449.0378677522306
 30
0.0
  0
SPLINE
  5
F7
330
1F
100
AcDbEntity
  8
0
  6
Continuous
 62
     7
370
    25
100
AcDbSpline
210
0.0
220
0.0
230
1.0
 70
     8
 71
     3
 72
    11
 73
     7
 74
     0
 42
0.000000001
 43
0.00000001
 40
0.0
 40
0.0
 40
0.0
 40
0.0
 40
0.2603296700652886
 40
0.5282089223379376
 40
0.761418359533893
 40
1.0
 40
1.0
 40
1.0
 40
1.0
 10
332.9031527169547
 20
464.8700384666154
 30
0.0
 10
332.3459497653719
 20
463.3655299099448
 30
0.0
 10
331.2153849300027
 20
460.3128819226143
 30
0.0
 10
329.6735121092196
 20
456.1137145343168
 30
0.0
 10
328.2741556985919
 20
452.2788873797662
 30
0.0
 10
327.4969271215871
 20
450.1263777129704
 30
0.0
 10
327.1038877495034
 20
449.0378677522306
 30
0.0
  0
SPLINE
  5
F8
330
1F
100
AcDbEntity
  8
0
  6
Continuous
 62
     7
370
    25
100
AcDbSpline
210
0.0
220
0.0
230
1.0
 70
     8
 71
     3
 72
    13
 73
     9
 74
     0
 42
0.000000001
 43
0.00000001
 40
0.0
 40
0.0
 40
0.0
 40
0.0
 40
0.222877682987943
 40
0.4457878041258592
 40
0.6678641110419355
 40
0.7058050573007517
 40
0.9258788050832749
 40
1.0
 40
1.0
 40
1.0
 40
1.0
 10
332.9031527169547
 20
464.8700384666154
 30
0.0
 10
332.9234095182694
 20
464.9470155853263
 30
0.0
 10
332.9639260691222
 20
465.1009810261816
 30
0.0
 10
332.9234474471394
 20
465.3408658330993
 30
0.0
 10
332.8419910305691
 20
465.4949973292703
 30
0.0
 10
332.7338097990067
 20
465.626412412657
 30
0.0
 10
332.6409274986756
 20
465.7041959470527
 30
0.0
 10
332.5464222290298
 20
465.7485383895179
 30
0.0
 10
332.5226120185352
 20
465.7597102838778
 30
0.0
  0
LINE
  5
F9
330
1F
100
AcDbEntity
  8
0
  6
Continuous
 62
     7
370
    25
100
AcDbLine
 10
332.0149993693
 20
465.9768596347
 30
0.0
 11
332.5226120185
 21
465.7597102839
 31
0.0
  0
SPLINE
  5
FA
330
1F
100
AcDbEntity
  8
0
  6
Continuous
 62
     7
370
    25
100
AcDbSpline
210
0.0
220
0.0
230
1.0
 70
     8
 71
     3
 72
    12
 73
     8
 74
     0
 42
0.000000001
 43
0.00000001
 40
0.0
 40
0.0
 40
0.0
 40
0.0
 40
0.2201335749437522
 40
0.4402546067131931
 40
0.6607438481633221
 40
0.8821597120108771
 40
1.0
 40
1.0
 40
1.0
 40
1.0
 10
332.0149993692529
 20
465.9768596347371
 30
0.0
 10
331.9398616471902
 20
466.0006145878921
 30
0.0
 10
331.7895904843996
 20
466.0481231406487
 30
0.0
 10
331.5501845569275
 20
466.0198429181387
 30
0.0
 10
331.335135041888
 20
465.9193773266943
 30
0.0
 10
331.18823173186
 20
465.7789112516699
 30
0.0
 10
331.1301494530065
 20
465.673684521199
 30
0.0
 10
331.1099746310318
 20
465.6371341206958
 30
0.0
  0
SPLINE
  5
FB
330
1F
100
AcDbEntity
  8
0
  6
Continuous
 62
     7
370
    25
100
AcDbSpline
210
0.0
220
0.0
230
1.0
 70
     8
 71
     3
 72
    11
 73
     7
 74
     0
 42
0.000000001
 43
0.00000001
 40
0.0
 40
0.0
 40
0.0
 40
0.0
 40
0.2832270505599677
 40
0.5762690817591553
 40
0.78619086634593
 40
1.0
 40
1.0
 40
1.0
 40
1.0
 10
323.8446609614843
 20
450.4321178393437
 30
0.0
 10
324.4337051573767
 20
451.6827530166357
 30
0.0
 10
325.6322063500111
 20
454.2273630170182
 30
0.0
 10
327.5530743228361
 20
458.2534629728698
 30
0.0
 10
329.399375711472
 20
462.0992166405129
 30
0.0
 10
330.5362982448446
 20
464.4506375717665
 30
0.0
 10
331.1099746310318
 20
465.6371341206958
 30
0.0
  0
SPLINE
  5
FC
330
1F
100
AcDbEntity
  8
0
  6
Continuous
 62
     7
370
    25
100
AcDbSpline
210
0.0
220
0.0
230
1.0
 70
     8
 71
     3
 72
    12
 73
     8
 74
     0
 42
0.000000001
 43
0.00000001
 40
0.0
 40
0.0
 40
0.0
 40
0.0
 40
0.3203291874989143
 40
0.5619245577985104
 40
0.7389289972586612
 40
0.8801315365315932
 40
1.0
 40
1.0
 40
1.0
 40
1.0
 10
355.3527297435244
 20
450.2907876389654
 30
0.0
 10
355.4102272758678
 20
450.1978838103706
 30
0.0
 10
355.511090003017
 20
450.0349110160132
 30
0.0
 10
355.749006964313
 20
449.9025315053386
 30
0.0
 10
355.9672894154998
 20
449.8624556749819
 30
0.0
 10
356.158378884676
 20
449.881203960327
 30
0.0
 10
356.2663287339327
 20
449.9297375088647
 30
0.0
 10
356.3158929613887
 20
449.9520212624367
 30
0.0
  0
LINE
  5
FD
330
1F
100
AcDbEntity
  8
0
  6
Continuous
 62
     7
370
    25
100
AcDbLine
 10
358.2069563186
 20
450.9677370409
 30
0.0
 11
356.3158929614
 21
449.9520212624
 31
0.0
  0
SPLINE
  5
FE
330
1F
100
AcDbEntity
  8
0
  6
Continuous
 62
     7
370
    25
100
AcDbSpline
210
0.0
220
0.0
230
1.0
 70
     8
 71
     3
 72
    12
 73
     8
 74
     0
 42
0.000000001
 43
0.00000001
 40
0.0
 40
0.0
 40
0.0
 40
0.0
 40
0.1369201225457542
 40
0.273289229323355
 40
0.460927725267935
 40
0.7173042790351627
 40
1.0
 40
1.0
 40
1.0
 40
1.0
 10
358.2069563186118
 20
450.9677370408808
 30
0.0
 10
358.2592998392421
 20
451.0015229954961
 30
0.0
 10
358.3637762313691
 20
451.0689589379061
 30
0.0
 10
358.4875924494542
 20
451.2289324631863
 30
0.0
 10
358.5744285403429
 20
451.443514024514
 30
0.0
 10
358.5885281722322
 20
451.7118475021572
 30
0.0
 10
358.5144204241093
 20
451.8799472949772
 30
0.0
 10
358.4755574659001
 20
451.9681007659544
 30
0.0
  0
SPLINE
  5
FF
330
1F
100
AcDbEntity
  8
0
  6
Continuous
 62
     7
370
    25
100
AcDbSpline
210
0.0
220
0.0
230
1.0
 70
     8
 71
     3
 72
    11
 73
     7
 74
     0
 42
0.000000001
 43
0.00000001
 40
0.0
 40
0.0
 40
0.0
 40
0.0
 40
0.2603296700627188
 40
0.5282089223327152
 40
0.7614183594652442
 40
0.9999999999999999
 40
0.9999999999999999
 40
0.9999999999999999
 40
0.9999999999999999
 10
349.9147244112229
 20
466.4711805213008
 30
0.0
 10
350.7372633836152
 20
465.094373218132
 30
0.0
 10
352.4061950274012
 20
462.3008310848386
 30
0.0
 10
354.6822965474032
 20
458.4550342079532
 30
0.0
 10
356.7480163726214
 20
454.9409152748442
 30
0.0
 10
357.8953555837546
 20
452.9665329190523
 30
0.0
 10
358.4755574659001
 20
451.9681007659544
 30
0.0
  0
SPLINE
  5
100
330
1F
100
AcDbEntity
  8
0
  6
Continuous
 62
     7
370
    25
100
AcDbSpline
210
0.0
220
0.0
230
1.0
 70
     8
 71
     3
 72
    12
 73
     8
 74
     0
 42
0.000000001
 43
0.00000001
 40
0.0
 40
0.0
 40
0.0
 40
0.0
 40
0.1165847777147885
 40
0.3388935665353023
 40
0.5612376805370419
 40
0.7827183635946291
 40
1.0
 40
1.0
 40
1.0
 40
1.0
 10
349.9147244112229
 20
466.4711805213008
 30
0.0
 10
349.8916716153822
 20
466.5054425774519
 30
0.0
 10
349.8246607726788
 20
466.6050369724791
 30
0.0
 10
349.6656714592176
 20
466.7325085789035
 30
0.0
 10
349.4410888071039
 20
466.8138764970109
 30
0.0
 10
349.1999531056657
 20
466.8200304627491
 30
0.0
 10
349.0550951745663
 20
466.7594547097628
 30
0.0
 10
348.9833593692809
 20
466.7294566945469
 30
0.0
  0
LINE
  5
101
330
1F
100
AcDbEntity
  8
0
  6
Continuous
 62
     7
370
    25
100
AcDbLine
 10
348.4969903839
 20
466.4682213162
 30
0.0
 11
348.9833593693
 21
466.7294566945
 31
0.0
  0
SPLINE
  5
102
330
1F
100
AcDbEntity
  8
0
  6
Continuous
 62
     7
370
    25
100
AcDbSpline
210
0.0
220
0.0
230
1.0
 70
     8
 71
     3
 72
    12
 73
     8
 74
     0
 42
0.000000001
 43
0.00000001
 40
0.0
 40
0.0
 40
0.0
 40
0.0
 40
0.2201335757646822
 40
0.4402546082974874
 40
0.6607438505176735
 40
0.8821597151442074
 40
1.0
 40
1.0
 40
1.0
 40
1.0
 10
348.4969903838527
 20
466.4682213161507
 30
0.0
 10
348.4315371113214
 20
466.4243124581623
 30
0.0
 10
348.3006342957926
 20
466.3364972441163
 30
0.0
 10
348.1731755390632
 20
466.1316519243838
 30
0.0
 10
348.1172050707794
 20
465.9007494939259
 30
0.0
 10
348.1349611968056
 20
465.6981273008423
 30
0.0
 10
348.1807027713711
 20
465.5869612221
 30
0.0
 10
348.1965910616343
 20
465.5483477956219
 30
0.0
  0
SPLINE
  5
103
330
1F
100
AcDbEntity
  8
0
  6
Continuous
 62
     7
370
    25
100
AcDbSpline
210
0.0
220
0.0
230
1.0
 70
     8
 71
     3
 72
    11
 73
     7
 74
     0
 42
0.000000001
 43
0.00000001
 40
0.0
 40
0.0
 40
0.0
 40
0.0
 40
0.2832270505582955
 40
0.5762690817572607
 40
0.7861908663604433
 40
1.0
 40
1.0
 40
1.0
 40
1.0
 10
355.3527297435244
 20
450.2907876389654
 30
0.0
 10
354.7725370433256
 20
451.5456828752235
 30
0.0
 10
353.5920455827581
 20
454.098960622086
 30
0.0
 10
351.7000422600264
 20
458.1389525931056
 30
0.0
 10
349.8814850183869
 20
461.9980589987114
 30
0.0
 10
348.7616468822125
 20
464.3577023301386
 30
0.0
 10
348.1965910616343
 20
465.5483477956219
 30
0.0
  0
SPLINE
  5
104
330
1F
100
AcDbEntity
  8
0
  6
Continuous
 62
     7
370
    25
100
AcDbSpline
210
0.0
220
0.0
230
1.0
 70
     8
 71
     3
 72
    12
 73
     8
 74
     0
 42
0.000000001
 43
0.00000001
 40
0.0
 40
0.0
 40
0.0
 40
0.0
 40
0.3203291956777457
 40
0.5619245718616951
 40
0.7389290157161553
 40
0.8801315585013705
 40
1.0
 40
1.0
 40
1.0
 40
1.0
 10
368.0317039875404
 20
460.3030643102641
 30
0.0
 10
368.1223362197113
 20
460.243949537896
 30
0.0
 10
368.2813241575785
 20
460.1402498327118
 30
0.0
 10
368.5499691426782
 20
460.1234193486062
 30
0.0
 10
368.7621264695931
 20
460.1815287405053
 30
0.0
 10
368.9251648967965
 20
460.2810551661702
 30
0.0
 10
369.0012839199954
 20
460.3715756299404
 30
0.0
 10
369.0362332986261
 20
460.4131373030831
 30
0.0
  0
LINE
  5
105
330
1F
100
AcDbEntity
  8
0
  6
Continuous
 62
     7
370
    25
100
AcDbLine
 10
370.2990513234
 20
462.148267411
 30
0.0
 11
369.0362332986
 21
460.4131373031
 31
0.0
  0
SPLINE
  5
106
330
1F
100
AcDbEntity
  8
0
  6
Continuous
 62
     7
370
    25
100
AcDbSpline
210
0.0
220
0.0
230
1.0
 70
     8
 71
     3
 72
    13
 73
     9
 74
     0
 42
0.000000001
 43
0.00000001
 40
0.0
 40
0.0
 40
0.0
 40
0.0
 40
0.1368258648470577
 40
0.2731010933963769
 40
0.4606104098961651
 40
0.716810461918011
 40
0.8076499722265774
 40
1.0
 40
1.0
 40
1.0
 40
1.0
 10
370.2990513233653
 20
462.1482674109566
 30
0.0
 10
370.3315958901582
 20
462.2014234114709
 30
0.0
 10
370.396554052748
 20
462.3075214937105
 30
0.0
 10
370.4396422047853
 20
462.5054541329051
 30
0.0
 10
370.427471867835
 20
462.737733732185
 30
0.0
 10
370.3505003532226
 20
462.9173327954516
 30
0.0
 10
370.2416053420168
 20
463.0675695234356
 30
0.0
 10
370.1674442691307
 20
463.127609326709
 30
0.0
 10
370.1170720536669
 20
463.1683899922145
 30
0.0
  0
SPLINE
  5
107
330
1F
100
AcDbEntity
  8
0
  6
Continuous
 62
     7
370
    25
100
AcDbSpline
210
0.0
220
0.0
230
1.0
 70
     8
 71
     3
 72
    11
 73
     7
 74
     0
 42
0.000000001
 43
0.00000001
 40
0.0
 40
0.0
 40
0.0
 40
0.0
 40
0.2603296700330324
 40
0.5282089222724882
 40
0.76141835951654
 40
1.0
 40
1.0
 40
1.0
 40
1.0
 10
356.223538588986
 20
472.5495291690945
 30
0.0
 10
357.5584522200725
 20
471.664846372302
 30
0.0
 10
360.2669920892068
 20
469.86982490361
 30
0.0
 10
363.9609191214666
 20
467.3858180136517
 30
0.0
 10
367.3134138305738
 20
465.1076178431307
 30
0.0
 10
369.1754517449576
 20
463.8196877547581
 30
0.0
 10
370.1170720536669
 20
463.1683899922145
 30
0.0
  0
SPLINE
  5
108
330
1F
100
AcDbEntity
  8
0
  6
Continuous
 62
     7
370
    25
100
AcDbSpline
210
0.0
220
0.0
230
1.0
 70
     8
 71
     3
 72
    12
 73
     8
 74
     0
 42
0.000000001
 43
0.00000001
 40
0.0
 40
0.0
 40
0.0
 40
0.0
 40
0.2229001272671013
 40
0.4458326960033101
 40
0.6679313664265797
 40
0.888914595800843
 40
1.0
 40
1.0
 40
1.0
 40
1.0
 10
356.223538588986
 20
472.5495291690945
 30
0.0
 10
356.1532732452328
 20
472.5866272644957
 30
0.0
 10
356.012732331124
 20
472.6608288546523
 30
0.0
 10
355.7700781917722
 20
472.6754025355119
 30
0.0
 10
355.539561329827
 20
472.6134112744098
 30
0.0
 10
355.3723173386207
 20
472.500962181513
 30
0.0
 10
355.2981428185584
 20
472.4092799931322
 30
0.0
 10
355.2733295549456
 20
472.3786099691539
 30
0.0
  0
LINE
  5
109
330
1F
100
AcDbEntity
  8
0
  6
Continuous
 62
     7
370
    25
100
AcDbLine
 10
354.9485411136
 20
471.932345984
 30
0.0
 11
355.2733295549
 21
472.3786099692
 31
0.0
  0
SPLINE
  5
10A
330
1F
100
AcDbEntity
  8
0
  6
Continuous
 62
     7
370
    25
100
AcDbSpline
210
0.0
220
0.0
230
1.0
 70
     8
 71
     3
 72
    12
 73
     8
 74
     0
 42
0.000000001
 43
0.00000001
 40
0.0
 40
0.0
 40
0.0
 40
0.0
 40
0.2201335703050949
 40
0.4402545974574181
 40
0.6607438342490655
 40
0.8821596933820252
 40
1.0
 40
1.0
 40
1.0
 40
1.0
 10
354.9485411135774
 20
471.9323459839858
 30
0.0
 10
354.9086205050205
 20
471.8644008786679
 30
0.0
 10
354.8287815625724
 20
471.7285145395265
 30
0.0
 10
354.8027033500268
 20
471.4886467591825
 30
0.0
 10
354.8522527859381
 20
471.2562796630716
 30
0.0
 10
354.955919496284
 20
471.0813545460509
 30
0.0
 10
355.0451915451843
 20
471.0009856654991
 30
0.0
 10
355.0762001064923
 20
470.9730696112521
 30
0.0
  0
SPLINE
  5
10B
330
1F
100
AcDbEntity
  8
0
  6
Continuous
 62
     7
370
    25
100
AcDbSpline
210
0.0
220
0.0
230
1.0
 70
     8
 71
     3
 72
    11
 73
     7
 74
     0
 42
0.000000001
 43
0.00000001
 40
0.0
 40
0.0
 40
0.0
 40
0.0
 40
0.2832270505602046
 40
0.5762690817528346
 40
0.7861908663425542
 40
1.0
 40
1.0
 40
1.0
 40
1.0
 10
368.0317039875404
 20
460.3030643102641
 30
0.0
 10
366.9813206574947
 20
461.1860179231304
 30
0.0
 10
364.844153900659
 20
462.9825231182038
 30
0.0
 10
361.4188630448427
 20
465.80961670688
 30
0.0
 10
358.1265392864036
 20
468.5029084916825
 30
0.0
 10
356.0991795655394
 20
470.1446620353018
 30
0.0
 10
355.0762001064923
 20
470.9730696112521
 30
0.0
  0
SPLINE
  5
10C
330
1F
100
AcDbEntity
  8
0
  6
Continuous
 62
     7
370
    25
100
AcDbSpline
210
0.0
220
0.0
230
1.0
 70
     8
 71
     3
 72
    12
 73
     8
 74
     0
 42
0.000000001
 43
0.00000001
 40
0.0
 40
0.0
 40
0.0
 40
0.0
 40
0.3203291896669609
 40
0.5619245570102763
 40
0.7389289953257824
 40
0.8801315336280731
 40
1.0
 40
1.0
 40
1.0
 40
1.0
 10
375.1082530582653
 20
474.8216634584446
 30
0.0
 10
375.2140691663565
 20
474.807359423282
 30
0.0
 10
375.3996928047315
 20
474.7822671467071
 30
0.0
 10
375.6458573800273
 20
474.8828670074902
 30
0.0
 10
375.8098692210548
 20
475.0267822550453
 30
0.0
 10
375.9125648642003
 20
475.1869238096635
 30
0.0
 10
375.9417767627954
 20
475.3014707387308
 30
0.0
 10
375.9551891503134
 20
475.3540639584643
 30
0.0
  0
LINE
  5
10D
330
1F
100
AcDbEntity
  8
0
  6
Continuous
 62
     7
370
    25
100
AcDbLine
 10
376.3396452369
 20
477.4649445538
 30
0.0
 11
375.9551891503
 21
475.3540639585
 31
0.0
  0
SPLINE
  5
10E
330
1F
100
AcDbEntity
  8
0
  6
Continuous
 62
     7
370
    25
100
AcDbSpline
210
0.0
220
0.0
230
1.0
 70
     8
 71
     3
 72
    13
 73
     9
 74
     0
 42
0.000000001
 43
0.00000001
 40
0.0
 40
0.0
 40
0.0
 40
0.0
 40
0.1368520550563314
 40
0.2731533684839619
 40
0.4606985757378537
 40
0.5051868322060374
 40
0.7677990591363734
 40
1.0
 40
1.0
 40
1.0
 40
1.0
 10
376.3396452369338
 20
477.4649445538449
 30
0.0
 10
376.3459335754161
 20
477.5269639396572
 30
0.0
 10
376.3584849458569
 20
477.6507531230857
 30
0.0
 10
376.3125027129327
 20
477.847934468617
 30
0.0
 10
376.2427194619954
 20
477.9780838699041
 30
0.0
 10
376.1281400864304
 20
478.1228605759733
 30
0.0
 10
375.9771222489584
 20
478.245950804069
 30
0.0
 10
375.8178638996661
 20
478.2878341907283
 30
0.0
 10
375.7431287451614
 20
478.3074888046753
 30
0.0
  0
SPLINE
  5
10F
330
1F
100
AcDbEntity
  8
0
  6
Continuous
 62
     7
370
    25
100
AcDbSpline
210
0.0
220
0.0
230
1.0
 70
     8
 71
     3
 72
    11
 73
     7
 74
     0
 42
0.000000001
 43
0.00000001
 40
0.0
 40
0.0
 40
0.0
 40
0.0
 40
0.2603296700668717
 40
0.5282089223411527
 40
0.7614183595496757
 40
1.0
 40
1.0
 40
1.0
 40
1.0
 10
359.268679568449
 20
480.7615564694074
 30
0.0
 10
360.8515718419045
 20
480.5424381386342
 30
0.0
 10
364.0632603971479
 20
480.0978470271668
 30
0.0
 10
368.4433853892786
 20
479.4555672099032
 30
0.0
 10
372.4186522885815
 20
478.8488619584188
 30
0.0
 10
374.6265894603188
 20
478.4893112365103
 30
0.0
 10
375.7431287451614
 20
478.3074888046753
 30
0.0
  0
SPLINE
  5
110
330
1F
100
AcDbEntity
  8
0
  6
Continuous
 62
     7
370
    25
100
AcDbSpline
210
0.0
220
0.0
230
1.0
 70
     8
 71
     3
 72
    12
 73
     8
 74
     0
 42
0.000000001
 43
0.00000001
 40
0.0
 40
0.0
 40
0.0
 40
0.0
 40
0.2229001214099352
 40
0.4458326843810475
 40
0.6679313490790961
 40
0.888914572756741
 40
1.0
 40
1.0
 40
1.0
 40
1.0
 10
359.268679568449
 20
480.7615564694074
 30
0.0
 10
359.1893986520374
 20
480.7645423999566
 30
0.0
 10
359.0308252804286
 20
480.7705146956361
 30
0.0
 10
358.8061925351157
 20
480.6784981657997
 30
0.0
 10
358.6256404314219
 20
480.5227402507784
 30
0.0
 10
358.5238787084948
 20
480.3489297548181
 30
0.0
 10
358.4968641319986
 20
480.2341658745044
 30
0.0
 10
358.4878270676339
 20
480.195774431526
 30
0.0
  0
LINE
  5
111
330
1F
100
AcDbEntity
  8
0
  6
Continuous
 62
     7
370
    25
100
AcDbLine
 10
358.3889475064
 20
479.6528699118
 30
0.0
 11
358.4878270676
 21
480.1957744315
 31
0.0
  0
SPLINE
  5
112
330
1F
100
AcDbEntity
  8
0
  6
Continuous
 62
     7
370
    25
100
AcDbSpline
210
0.0
220
0.0
230
1.0
 70
     8
 71
     3
 72
    12
 73
     8
 74
     0
 42
0.000000001
 43
0.00000001
 40
0.0
 40
0.0
 40
0.0
 40
0.0
 40
0.2201335722438215
 40
0.4402546012954626
 40
0.6607438400039485
 40
0.8821597010770185
 40
1.0
 40
1.0
 40
1.0
 40
1.0
 10
358.3889475064389
 20
479.65286991176
 30
0.0
 10
358.3824663308672
 20
479.5743403533302
 30
0.0
 10
358.3695043490205
 20
479.4172857110783
 30
0.0
 10
358.4499718010432
 20
479.1898243578442
 30
0.0
 10
358.59522727876
 20
479.0018931277358
 30
0.0
 10
358.7642721161668
 20
478.8891747285758
 30
0.0
 10
358.8793932100781
 20
478.8554288322457
 30
0.0
 10
358.9193804106615
 20
478.8437072278066
 30
0.0
  0
SPLINE
  5
113
330
1F
100
AcDbEntity
  8
0
  6
Continuous
 62
     7
370
    25
100
AcDbSpline
210
0.0
220
0.0
230
1.0
 70
     8
 71
     3
 72
    11
 73
     7
 74
     0
 42
0.000000001
 43
0.00000001
 40
0.0
 40
0.0
 40
0.0
 40
0.0
 40
0.2832270505644304
 40
0.5762690817612975
 40
0.786190866372283
 40
1.0
 40
1.0
 40
1.0
 40
1.0
 10
375.1082530582653
 20
474.8216634584446
 30
0.0
 10
373.7957203989844
 20
475.165625455422
 30
0.0
 10
371.125170432665
 20
475.8654691453659
 30
0.0
 10
366.8450129059692
 20
476.9349157870034
 30
0.0
 10
362.7310077287319
 20
477.9387910969741
 30
0.0
 10
360.1976698800094
 20
478.5402292998355
 30
0.0
 10
358.9193804106615
 20
478.8437072278066
 30
0.0
  0
SPLINE
  5
114
330
1F
100
AcDbEntity
  8
0
  6
Continuous
 62
     7
370
    25
100
AcDbSpline
210
0.0
220
0.0
230
1.0
 70
     8
 71
     3
 72
    12
 73
     8
 74
     0
 42
0.000000001
 43
0.00000001
 40
0.0
 40
0.0
 40
0.0
 40
0.0
 40
0.320329200742082
 40
0.561924572582153
 40
0.7389290150383694
 40
0.8801315565995979
 40
1.0
 40
1.0
 40
1.0
 40
1.0
 10
375.1807796241951
 20
490.9709984633644
 30
0.0
 10
375.2808214301871
 20
491.003651531486
 30
0.0
 10
375.4563157308697
 20
491.0609318584285
 30
0.0
 10
375.6312439818723
 20
491.2575848615439
 30
0.0
 10
375.7146257807909
 20
491.4579316953833
 30
0.0
 10
375.736638495255
 20
491.646519768531
 30
0.0
 10
375.7131574964531
 20
491.7623739281658
 30
0.0
 10
375.7023764026586
 20
491.8155673451934
 30
0.0
  0
LINE
  5
115
330
1F
100
AcDbEntity
  8
0
  6
Continuous
 62
     7
370
    25
100
AcDbLine
 10
375.1323243169
 20
493.884112739
 30
0.0
 11
375.7023764027
 21
491.8155673452
 31
0.0
  0
SPLINE
  5
116
330
1F
100
AcDbEntity
  8
0
  6
Continuous
 62
     7
370
    25
100
AcDbSpline
210
0.0
220
0.0
230
1.0
 70
     8
 71
     3
 72
    12
 73
     8
 74
     0
 42
0.000000001
 43
0.00000001
 40
0.0
 40
0.0
 40
0.0
 40
0.0
 40
0.13354966596919
 40
0.2374496721154969
 40
0.4314228611592007
 40
0.6784626707083408
 40
1.0
 40
1.0
 40
1.0
 40
1.0
 10
375.1323243169076
 20
493.8841127389721
 30
0.0
 10
375.1118302019522
 20
493.9412936732277
 30
0.0
 10
375.0753919163065
 20
494.0429606747265
 30
0.0
 10
374.9634371914304
 20
494.1958803239632
 30
0.0
 10
374.7924741894685
 20
494.3357895739919
 30
0.0
 10
374.5296667346529
 20
494.4330324684307
 30
0.0
 10
374.3442649789096
 20
494.4035728091204
 30
0.0
 10
374.2394180174063
 20
494.3869130113032
 30
0.0
  0
SPLINE
  5
117
330
1F
100
AcDbEntity
  8
0
  6
Continuous
 62
     7
370
    25
100
AcDbSpline
210
0.0
220
0.0
230
1.0
 70
     8
 71
     3
 72
    11
 73
     7
 74
     0
 42
0.000000001
 43
0.00000001
 40
0.0
 40
0.0
 40
0.0
 40
0.0
 40
0.2603296700658185
 40
0.5282089223390102
 40
0.7614183594797679
 40
1.0
 40
1.0
 40
1.0
 40
1.0
 10
358.4470198324285
 20
489.4807697013773
 30
0.0
 10
359.9643795206536
 20
489.9688325917317
 30
0.0
 10
363.0431024549832
 20
490.9591122370851
 30
0.0
 10
367.2418879334689
 20
492.2737199420536
 30
0.0
 10
371.0525766607869
 20
493.4430256967672
 30
0.0
 10
373.1691040547775
 20
494.0699045195571
 30
0.0
 10
374.2394180174063
 20
494.3869130113032
 30
0.0
  0
SPLINE
  5
118
330
1F
100
AcDbEntity
  8
0
  6
Continuous
 62
     7
370
    25
100
AcDbSpline
210
0.0
220
0.0
230
1.0
 70
     8
 71
     3
 72
    12
 73
     8
 74
     0
 42
0.000000001
 43
0.00000001
 40
0.0
 40
0.0
 40
0.0
 40
0.0
 40
0.2229001267076709
 40
0.4458326948994392
 40
0.6679313646015113
 40
0.8889145932580297
 40
0.9999999999999999
 40
0.9999999999999999
 40
0.9999999999999999
 40
0.9999999999999999
 10
358.4470198324285
 20
489.4807697013773
 30
0.0
 10
358.3744259010487
 20
489.4491123053484
 30
0.0
 10
358.2292274727732
 20
489.3857929057881
 30
0.0
 10
358.0671073916444
 20
489.2055563410968
 30
0.0
 10
357.972280604588
 20
488.9869832796552
 30
0.0
 10
357.9561563166806
 20
488.7862824700171
 30
0.0
 10
357.9816522504217
 20
488.6711721890833
 30
0.0
 10
357.9901812889035
 20
488.6326648715755
 30
0.0
  0
LINE
  5
119
330
1F
100
AcDbEntity
  8
0
  6
Continuous
 62
     7
370
    25
100
AcDbLine
 10
358.1367949153
 20
488.1006486767
 30
0.0
 11
357.9901812889
 21
488.6326648716
 31
0.0
  0
SPLINE
  5
11A
330
1F
100
AcDbEntity
  8
0
  6
Continuous
 62
     7
370
    25
100
AcDbSpline
210
0.0
220
0.0
230
1.0
 70
     8
 71
     3
 72
    12
 73
     8
 74
     0
 42
0.000000001
 43
0.00000001
 40
0.0
 40
0.0
 40
0.0
 40
0.0
 40
0.2201335730272802
 40
0.4402546029152777
 40
0.6607438424671267
 40
0.8821597043936023
 40
1.0
 40
1.0
 40
1.0
 40
1.0
 10
358.136794915331
 20
488.1006486766905
 30
0.0
 10
358.1650368483554
 20
488.0270828435885
 30
0.0
 10
358.2215191051881
 20
487.8799553691418
 30
0.0
 10
358.3925946539517
 20
487.7098720907323
 30
0.0
 10
358.6047865421527
 20
487.6034761909399
 30
0.0
 10
358.8057281012912
 20
487.5751533315495
 30
0.0
 10
358.9238970964217
 20
487.5946219389863
 30
0.0
 10
358.9649429816872
 20
487.6013843408012
 30
0.0
  0
SPLINE
  5
11B
330
1F
100
AcDbEntity
  8
0
  6
Continuous
 62
     7
370
    25
100
AcDbSpline
210
0.0
220
0.0
230
1.0
 70
     8
 71
     3
 72
    11
 73
     7
 74
     0
 42
0.000000001
 43
0.00000001
 40
0.0
 40
0.0
 40
0.0
 40
0.0
 40
0.2832270505634243
 40
0.5762690817602956
 40
0.7861908663717212
 40
1.0
 40
1.0
 40
1.0
 40
1.0
 10
375.1807796241951
 20
490.9709984633644
 30
0.0
 10
373.8660608260622
 20
490.7156727520201
 30
0.0
 10
371.1910628233437
 20
490.1961732447044
 30
0.0
 10
366.9037763168498
 20
489.3113479088339
 30
0.0
 10
362.782918901267
 20
488.4368145425864
 30
0.0
 10
360.2453615549003
 20
487.8815590641417
 30
0.0
 10
358.9649429816872
 20
487.6013843408012
 30
0.0
  0
SPLINE
  5
11C
330
1F
100
AcDbEntity
  8
0
  6
Continuous
 62
     7
370
    25
100
AcDbSpline
210
0.0
220
0.0
230
1.0
 70
     8
 71
     3
 72
    12
 73
     8
 74
     0
 42
0.000000001
 43
0.00000001
 40
0.0
 40
0.0
 40
0.0
 40
0.0
 40
0.1369201190906964
 40
0.2732892225298162
 40
0.4609277105320688
 40
0.7173042536063947
 40
1.0
 40
1.0
 40
1.0
 40
1.0
 10
312.5748314904995
 20
457.9089067627579
 30
0.0
 10
312.6193354674865
 20
457.8655064614381
 30
0.0
 10
312.7081643215003
 20
457.7788805171721
 30
0.0
 10
312.8892878326452
 20
457.6958208550588
 30
0.0
 10
313.1133576197449
 20
457.6626142797195
 30
0.0
 10
313.3710910513241
 20
457.714300178942
 30
0.0
 10
313.5129067582161
 20
457.8284375778761
 30
0.0
 10
313.58727655591
 20
457.8882925506013
 30
0.0
  0
SPLINE
  5
11D
330
1F
100
AcDbEntity
  8
0
  6
Continuous
 62
     7
370
    25
100
AcDbSpline
210
0.0
220
0.0
230
1.0
 70
     8
 71
     3
 72
    11
 73
     7
 74
     0
 42
0.000000001
 43
0.00000001
 40
0.0
 40
0.0
 40
0.0
 40
0.0
 40
0.2603296700655776
 40
0.5282089223385165
 40
0.7614183595482884
 40
1.0
 40
1.0
 40
1.0
 40
1.0
 10
325.5697456074403
 20
469.6643708799661
 30
0.0
 10
324.4184501998632
 20
468.5495783756678
 30
0.0
 10
322.0824717215883
 20
466.2876642911991
 30
0.0
 10
318.8966467149805
 20
463.1669057425673
 30
0.0
 10
316.00528979739
 20
460.3108093257342
 30
0.0
 10
314.3993763889646
 20
458.7019049142181
 30
0.0
 10
313.58727655591
 20
457.8882925506013
 30
0.0
  0
SPLINE
  5
11E
330
1F
100
AcDbEntity
  8
0
  6
Continuous
 62
     7
370
    25
100
AcDbSpline
210
0.0
220
0.0
230
1.0
 70
     8
 71
     3
 72
    12
 73
     8
 74
     0
 42
0.000000001
 43
0.00000001
 40
0.0
 40
0.0
 40
0.0
 40
0.0
 40
0.2229001252313285
 40
0.4458326920057774
 40
0.6679313602957553
 40
0.8889145875472403
 40
1.0
 40
1.0
 40
1.0
 40
1.0
 10
325.5697456074403
 20
469.6643708799661
 30
0.0
 10
325.6212744353848
 20
469.7249495107542
 30
0.0
 10
325.7243395909317
 20
469.8461155891233
 30
0.0
 10
325.7918371373112
 20
470.0801948921289
 30
0.0
 10
325.7821569995602
 20
470.3192176602627
 30
0.0
 10
325.709450243271
 20
470.5074739964774
 30
0.0
 10
325.636493578818
 20
470.6001760850714
 30
0.0
 10
325.6120877175202
 20
470.6311872933442
 30
0.0
  0
SPLINE
  5
11F
330
1F
100
AcDbEntity
  8
0
  6
Continuous
 62
     7
370
    25
100
AcDbSpline
210
0.0
220
0.0
230
1.0
 70
     8
 71
     3
 72
     9
 73
     5
 74
     0
 42
0.000000001
 43
0.00000001
 40
0.0
 40
0.0
 40
0.0
 40
0.0
 40
0.4999998288440363
 40
1.0
 40
1.0
 40
1.0
 40
1.0
 10
325.2490195277879
 20
471.0469428026993
 30
0.0
 10
325.3095308720296
 20
470.9776533500659
 30
0.0
 10
325.4305536019403
 20
470.839074397362
 30
0.0
 10
325.551576331851
 20
470.7004830104973
 30
0.0
 10
325.6120877175202
 20
470.6311872933442
 30
0.0
  0
SPLINE
  5
120
330
1F
100
AcDbEntity
  8
0
  6
Continuous
 62
     7
370
    25
100
AcDbSpline
210
0.0
220
0.0
230
1.0
 70
     8
 71
     3
 72
    12
 73
     8
 74
     0
 42
0.000000001
 43
0.00000001
 40
0.0
 40
0.0
 40
0.0
 40
0.0
 40
0.2201335735716208
 40
0.4402546039526852
 40
0.6607438440022851
 40
0.882159706432323
 40
1.0
 40
1.0
 40
1.0
 40
1.0
 10
325.2490195277879
 20
471.0469428026993
 30
0.0
 10
325.1916481474375
 20
471.1009236703934
 30
0.0
 10
325.0769086557525
 20
471.208882329957
 30
0.0
 10
324.8491086220475
 20
471.2871738615663
 30
0.0
 10
324.6120075302837
 20
471.2898458309279
 30
0.0
 10
324.4189681899621
 20
471.2269221827865
 30
0.0
 10
324.3211561121045
 20
471.1572556446291
 30
0.0
 10
324.2871811826436
 20
471.1330570408213
 30
0.0
  0
SPLINE
  5
121
330
1F
100
AcDbEntity
  8
0
  6
Continuous
 62
     7
370
    25
100
AcDbSpline
210
0.0
220
0.0
230
1.0
 70
     8
 71
     3
 72
    11
 73
     7
 74
     0
 42
0.000000001
 43
0.00000001
 40
0.0
 40
0.0
 40
0.0
 40
0.0
 40
0.2832270505181714
 40
0.5762690817323786
 40
0.7861908663323469
 40
1.0
 40
1.0
 40
1.0
 40
1.0
 10
311.2561258670769
 20
460.5577325328892
 30
0.0
 10
312.312634621757
 20
461.4330097844046
 30
0.0
 10
314.4622644992276
 20
463.2138962395268
 30
0.0
 10
317.9075303127884
 20
466.0159572816036
 30
0.0
 10
321.2190536168738
 20
468.6851882635944
 30
0.0
 10
323.2582361072278
 20
470.312125554239
 30
0.0
 10
324.2871811826436
 20
471.1330570408213
 30
0.0
  0
SPLINE
  5
122
330
1F
100
AcDbEntity
  8
0
  6
Continuous
 62
     7
370
    25
100
AcDbSpline
210
0.0
220
0.0
230
1.0
 70
     8
 71
     3
 72
    12
 73
     8
 74
     0
 42
0.000000001
 43
0.00000001
 40
0.0
 40
0.0
 40
0.0
 40
0.0
 40
0.3203292003654442
 40
0.5619245694925866
 40
0.7389290103575574
 40
0.8801315506287961
 40
1.0
 40
1.0
 40
1.0
 40
1.0
 10
311.2561258670769
 20
460.5577325328892
 30
0.0
 10
311.1816728702115
 20
460.4783419946742
 30
0.0
 10
311.0510667057928
 20
460.3390743476493
 30
0.0
 10
310.9820214650533
 20
460.0721061703896
 30
0.0
 10
310.995784495828
 20
459.8470929734488
 30
0.0
 10
311.0588145920679
 20
459.6633111253223
 30
0.0
 10
311.1303377928497
 20
459.56880688069
 30
0.0
 10
311.1631770416055
 20
459.525416087716
 30
0.0
  0
LINE
  5
123
330
1F
100
AcDbEntity
  8
0
  6
Continuous
 62
     7
370
    25
100
AcDbLine
 10
311.1631770416
 20
459.5254160877
 30
0.0
 11
311.8690042653
 21
458.7177035311
 31
0.0
  0
LINE
  5
124
330
1F
100
AcDbEntity
  8
0
  6
Continuous
 62
     7
370
    25
100
AcDbLine
 10
312.5748314905
 20
457.9089067628
 30
0.0
 11
311.8690042653
 21
458.7177035311
 31
0.0
  0
ARC
  5
125
330
1F
100
AcDbEntity
  8
0
  6
Continuous
 62
     7
370
    25
100
AcDbCircle
 10
339.7438527925
 20
482.9855448256
 30
0.0
 40
38.28891263668747
100
AcDbArc
 50
221.0990530799
 51
41.0914512386
  0
SPLINE
  5
126
330
1F
100
AcDbEntity
  8
0
  6
Continuous
 62
     7
370
    25
100
AcDbSpline
210
0.0
220
0.0
230
1.0
 70
     8
 71
     3
 72
    12
 73
     8
 74
     0
 42
0.000000001
 43
0.00000001
 40
0.0
 40
0.0
 40
0.0
 40
0.0
 40
0.2201335735842157
 40
0.4402546039776705
 40
0.6607438440396575
 40
0.8821597064822646
 40
1.0
 40
1.0
 40
1.0
 40
1.0
 10
354.2420252484071
 20
495.6024960851202
 30
0.0
 10
354.2993966287667
 20
495.5484590286745
 30
0.0
 10
354.4141361204697
 20
495.4403879948096
 30
0.0
 10
354.6419361541881
 20
495.3612900061693
 30
0.0
 10
354.8790372459528
 20
495.3573798284446
 30
0.0
 10
355.0720765862443
 20
495.418925759524
 30
0.0
 10
355.1698886640782
 20
495.4876606079554
 30
0.0
 10
355.2038635935202
 20
495.5115355902417
 30
0.0
  0
SPLINE
  5
127
330
1F
100
AcDbEntity
  8
0
  6
Continuous
 62
     7
370
    25
100
AcDbSpline
210
0.0
220
0.0
230
1.0
 70
     8
 71
     3
 72
    11
 73
     7
 74
     0
 42
0.000000001
 43
0.00000001
 40
0.0
 40
0.0
 40
0.0
 40
0.0
 40
0.2832270505185699
 40
0.5762690817332508
 40
0.7861908663327897
 40
1.0
 40
1.0
 40
1.0
 40
1.0
 10
368.2349189090907
 20
505.5524954667869
 30
0.0
 10
367.17841015441
 20
504.7562822353352
 30
0.0
 10
365.0287802769379
 20
503.1362637134021
 30
0.0
 10
361.5835144633735
 20
500.4876089027225
 30
0.0
 10
358.2719911592872
 20
497.917716534944
 30
0.0
 10
356.232808668935
 20
496.3184864032498
 30
0.0
 10
355.2038635935202
 20
495.5115355902417
 30
0.0
  0
SPLINE
  5
128
330
1F
100
AcDbEntity
  8
0
  6
Continuous
 62
     7
370
    25
100
AcDbSpline
210
0.0
220
0.0
230
1.0
 70
     8
 71
     3
 72
    12
 73
     8
 74
     0
 42
0.000000001
 43
0.00000001
 40
0.0
 40
0.0
 40
0.0
 40
0.0
 40
0.3203292003935723
 40
0.5619245695284181
 40
0.7389290104028158
 40
0.880131550683615
 40
1.0
 40
1.0
 40
1.0
 40
1.0
 10
368.2349189090907
 20
505.5524954667869
 30
0.0
 10
368.3093719059474
 20
505.6249515738805
 30
0.0
 10
368.4399780703476
 20
505.7520547750195
 30
0.0
 10
368.5090233110799
 20
506.0043592142241
 30
0.0
 10
368.4952602802594
 20
506.2205863975406
 30
0.0
 10
368.4322301841088
 20
506.3998182271542
 30
0.0
 10
368.3607069831672
 20
506.4940015099142
 30
0.0
 10
368.3278677343475
 20
506.5372449360542
 30
0.0
  0
LINE
  5
129
330
1F
100
AcDbEntity
  8
0
  6
Continuous
 62
     7
370
    25
100
AcDbLine
 10
367.6220405108
 20
507.3460417058
 30
0.0
 11
368.3278677343
 21
506.5372449361
 31
0.0
  0
LINE
  5
12A
330
1F
100
AcDbEntity
  8
0
  6
Continuous
 62
     7
370
    25
100
AcDbLine
 10
367.6220405108
 20
507.3460417058
 30
0.0
 11
366.9162132858
 21
508.1537542613
 31
0.0
  0
SPLINE
  5
12B
330
1F
100
AcDbEntity
  8
0
  6
Continuous
 62
     7
370
    25
100
AcDbSpline
210
0.0
220
0.0
230
1.0
 70
     8
 71
     3
 72
    12
 73
     8
 74
     0
 42
0.000000001
 43
0.00000001
 40
0.0
 40
0.0
 40
0.0
 40
0.0
 40
0.1369201190564311
 40
0.273289222479856
 40
0.4609277104376489
 40
0.7173042534523156
 40
1.0
 40
1.0
 40
1.0
 40
1.0
 10
366.9162132858428
 20
508.1537542613136
 30
0.0
 10
366.8717093088026
 20
508.1973647027532
 30
0.0
 10
366.7828804546767
 20
508.2844100815856
 30
0.0
 10
366.6017569436283
 20
508.3725663087382
 30
0.0
 10
366.3776871565358
 20
508.4151670884899
 30
0.0
 10
366.1199537249119
 20
508.3781795715775
 30
0.0
 10
365.9781380179759
 20
508.2756848612062
 30
0.0
 10
365.9037682202315
 20
508.2219354490649
 30
0.0
  0
SPLINE
  5
12C
330
1F
100
AcDbEntity
  8
0
  6
Continuous
 62
     7
370
    25
100
AcDbSpline
210
0.0
220
0.0
230
1.0
 70
     8
 71
     3
 72
    11
 73
     7
 74
     0
 42
0.000000001
 43
0.00000001
 40
0.0
 40
0.0
 40
0.0
 40
0.0
 40
0.2603296700665848
 40
0.5282089223405607
 40
0.761418359549368
 40
1.0
 40
1.0
 40
1.0
 40
1.0
 10
353.9212991687609
 20
496.9802217511402
 30
0.0
 10
355.0725945763373
 20
498.0770167032799
 30
0.0
 10
357.4085730546107
 20
500.3024137529137
 30
0.0
 10
360.5943980612058
 20
503.3014838580264
 30
0.0
 10
363.4857549787752
 20
505.9995559456456
 30
0.0
 10
365.0916683871849
 20
507.4755400229565
 30
0.0
 10
365.9037682202315
 20
508.2219354490649
 30
0.0
  0
SPLINE
  5
12D
330
1F
100
AcDbEntity
  8
0
  6
Continuous
 62
     7
370
    25
100
AcDbSpline
210
0.0
220
0.0
230
1.0
 70
     8
 71
     3
 72
    12
 73
     8
 74
     0
 42
0.000000001
 43
0.00000001
 40
0.0
 40
0.0
 40
0.0
 40
0.0
 40
0.2229001251907609
 40
0.4458326919246693
 40
0.6679313601744498
 40
0.8889145873856098
 40
1.0
 40
1.0
 40
1.0
 40
1.0
 10
353.9212991687609
 20
496.9802217511402
 30
0.0
 10
353.8697703408066
 20
496.9202514034062
 30
0.0
 10
353.7667051852399
 20
496.8003019796768
 30
0.0
 10
353.6992076388224
 20
496.5676886157966
 30
0.0
 10
353.7088877765359
 20
496.3296932260801
 30
0.0
 10
353.781594532817
 20
496.1418991259416
 30
0.0
 10
353.8545511973143
 20
496.0492463173808
 30
0.0
 10
353.8789570586535
 20
496.0182515944998
 30
0.0
  0
SPLINE
  5
12E
330
1F
100
AcDbEntity
  8
0
  6
Continuous
 62
     7
370
    25
100
AcDbSpline
210
0.0
220
0.0
230
1.0
 70
     8
 71
     3
 72
     9
 73
     5
 74
     0
 42
0.000000001
 43
0.00000001
 40
0.0
 40
0.0
 40
0.0
 40
0.0
 40
0.4999999145896032
 40
1.0
 40
1.0
 40
1.0
 40
1.0
 10
354.2420252484071
 20
495.6024960851202
 30
0.0
 10
354.1815138937848
 20
495.67179176672
 30
0.0
 10
354.0604911638669
 20
495.8103831535938
 30
0.0
 10
353.939468433949
 20
495.9489621063071
 30
0.0
 10
353.8789570586535
 20
496.0182515944998
 30
0.0
  0
LINE
  5
12F
330
1F
100
AcDbEntity
  8
0
  6
Continuous
 62
     7
370
    25
100
AcDbLine
 10
339.8479005558
 20
503.0006181647
 30
0.0
 11
339.8479005553
 21
503.0216880548
 31
0.0
  0
LINE
  5
130
330
1F
100
AcDbEntity
  8
0
  6
Continuous
 62
     7
370
    25
100
AcDbLine
 10
339.9084881033
 20
519.3707379159
 30
0.0
 11
339.9084881031
 21
519.3423403673
 31
0.0
  0
SPLINE
  5
131
330
1F
100
AcDbEntity
  8
0
  6
Continuous
 62
     7
370
    25
100
AcDbSpline
210
0.0
220
0.0
230
1.0
 70
     8
 71
     3
 72
    11
 73
     7
 74
     0
 42
0.000000001
 43
0.00000001
 40
0.0
 40
0.0
 40
0.0
 40
0.0
 40
0.2671764453427711
 40
0.5421010300143619
 40
0.7687203837012366
 40
0.9999999999999999
 40
0.9999999999999999
 40
0.9999999999999999
 40
0.9999999999999999
 10
339.847900555294
 20
503.0216880547889
 30
0.0
 10
339.8538437976528
 20
504.641859149014
 30
0.0
 10
339.8659026368974
 20
507.9291864351152
 30
0.0
 10
339.8820915178189
 20
512.3063115158526
 30
0.0
 10
339.8965329111589
 20
516.1881280476563
 30
0.0
 10
339.9044760920362
 20
518.3026943001752
 30
0.0
 10
339.9084881033006
 20
519.370737915858
 30
0.0
  0
LINE
  5
132
330
1F
100
AcDbEntity
  8
0
  6
Continuous
 62
     7
370
    25
100
AcDbLine
 10
348.3810701451
 20
501.0074585103
 30
0.0
 11
348.3810701468
 21
501.0285284015
 31
0.0
  0
LINE
  5
133
330
1F
100
AcDbEntity
  8
0
  6
Continuous
 62
     7
370
    25
100
AcDbLine
 10
355.6463838152
 20
515.7065077077
 30
0.0
 11
355.6463838137
 21
515.6781101583
 31
0.0
  0
SPLINE
  5
134
330
1F
100
AcDbEntity
  8
0
  6
Continuous
 62
     7
370
    25
100
AcDbSpline
210
0.0
220
0.0
230
1.0
 70
     8
 71
     3
 72
    11
 73
     7
 74
     0
 42
0.000000001
 43
0.00000001
 40
0.0
 40
0.0
 40
0.0
 40
0.0
 40
0.2671764453454526
 40
0.5421010300196696
 40
0.7687203836147497
 40
1.0
 40
1.0
 40
1.0
 40
1.0
 10
348.3810701468053
 20
501.0285284015325
 30
0.0
 10
349.0937499235333
 20
502.4847783982876
 30
0.0
 10
350.5397772503018
 20
505.4395097638704
 30
0.0
 10
352.4810556492211
 20
509.370127876958
 30
0.0
 10
354.2127853067649
 20
512.8536350483798
 30
0.0
 10
355.1652862889163
 20
514.7491197283092
 30
0.0
 10
355.6463838152286
 20
515.7065077077076
 30
0.0
  0
LINE
  5
135
330
1F
100
AcDbEntity
  8
0
  6
Continuous
 62
     7
370
    25
100
AcDbLine
 10
336.3667150526
 20
519.1852522326
 30
0.0
 11
336.3667150524
 21
519.2136497815
 31
0.0
  0
LINE
  5
136
330
1F
100
AcDbEntity
  8
0
  6
Continuous
 62
     7
370
    25
100
AcDbLine
 10
337.8992697192
 20
502.9352605004
 30
0.0
 11
337.8992697195
 21
502.9141906088
 31
0.0
  0
SPLINE
  5
137
330
1F
100
AcDbEntity
  8
0
  6
Continuous
 62
     7
370
    25
100
AcDbSpline
210
0.0
220
0.0
230
1.0
 70
     8
 71
     3
 72
    11
 73
     7
 74
     0
 42
0.000000001
 43
0.00000001
 40
0.0
 40
0.0
 40
0.0
 40
0.0
 40
0.2826844473541115
 40
0.5746028240760956
 40
0.7854345155086344
 40
1.0
 40
1.0
 40
1.0
 40
1.0
 10
336.3667150523651
 20
519.2136497814615
 30
0.0
 10
336.4917908869011
 20
517.9023416930544
 30
0.0
 10
336.7460281766452
 20
515.2368914431906
 30
0.0
 10
337.1504932676922
 20
510.9467400122827
 30
0.0
 10
337.5389311126165
 20
506.8034035102689
 30
0.0
 10
337.7784560647637
 20
504.2321642579935
 30
0.0
 10
337.8992697191882
 20
502.9352605004417
 30
0.0
  0
LINE
  5
138
330
1F
100
AcDbEntity
  8
0
  6
Continuous
 62
     7
370
    25
100
AcDbLine
 10
355.2038635935
 20
495.5115355902
 30
0.0
 11
355.2038635962
 21
495.5326054807
 31
0.0
  0
LINE
  5
139
330
1F
100
AcDbEntity
  8
0
  6
Continuous
 62
     7
370
    25
100
AcDbLine
 10
368.2349189107
 20
505.5808930148
 30
0.0
 11
368.2349189091
 21
505.5524954668
 31
0.0
  0
SPLINE
  5
13A
330
1F
100
AcDbEntity
  8
0
  6
Continuous
 62
     7
370
    25
100
AcDbSpline
210
0.0
220
0.0
230
1.0
 70
     8
 71
     3
 72
    11
 73
     7
 74
     0
 42
0.000000001
 43
0.00000001
 40
0.0
 40
0.0
 40
0.0
 40
0.0
 40
0.2671764453453462
 40
0.542101030019596
 40
0.7687203836558751
 40
1.0
 40
1.0
 40
1.0
 40
1.0
 10
355.2038635962455
 20
495.5326054806532
 30
0.0
 10
356.4821249372343
 20
496.5347129793114
 30
0.0
 10
359.0757173053363
 20
498.5679891781575
 30
0.0
 10
362.5575912276024
 20
501.261562197187
 30
0.0
 10
365.6636188527617
 20
503.6415554784741
 30
0.0
 10
367.3720231349275
 20
504.9300758677233
 30
0.0
 10
368.234918910729
 20
505.5808930147675
 30
0.0
  0
LINE
  5
13B
330
1F
100
AcDbEntity
  8
0
  6
Continuous
 62
     7
370
    25
100
AcDbLine
 10
321.0154873102
 20
514.1421272336
 30
0.0
 11
321.0154873089
 21
514.1705247822
 31
0.0
  0
LINE
  5
13C
330
1F
100
AcDbEntity
  8
0
  6
Continuous
 62
     7
370
    25
100
AcDbLine
 10
329.576320363
 20
500.1944820007
 30
0.0
 11
329.576320365
 21
500.1734121096
 31
0.0
  0
SPLINE
  5
13D
330
1F
100
AcDbEntity
  8
0
  6
Continuous
 62
     7
370
    25
100
AcDbSpline
210
0.0
220
0.0
230
1.0
 70
     8
 71
     3
 72
    11
 73
     7
 74
     0
 42
0.000000001
 43
0.00000001
 40
0.0
 40
0.0
 40
0.0
 40
0.0
 40
0.2826844473523314
 40
0.5746028240702842
 40
0.7854345154777722
 40
1.0
 40
1.0
 40
1.0
 40
1.0
 10
321.0154873088512
 20
514.1705247821753
 30
0.0
 10
321.7141595075072
 20
513.0471172731566
 30
0.0
 10
323.1343261357295
 20
510.7636059823519
 30
0.0
 10
325.3936635646537
 20
507.0810797194105
 30
0.0
 10
327.5634729780901
 20
503.5212907619343
 30
0.0
 10
328.9014566544034
 20
501.3098882234104
 30
0.0
 10
329.5763203630389
 20
500.1944820007079
 30
0.0
  0
LINE
  5
13E
330
1F
100
AcDbEntity
  8
0
  6
Continuous
 62
     7
370
    25
100
AcDbLine
 10
358.9649429817
 20
487.6013843408
 30
0.0
 11
358.9649429855
 21
487.6224542292
 31
0.0
  0
LINE
  5
13F
330
1F
100
AcDbEntity
  8
0
  6
Continuous
 62
     7
370
    25
100
AcDbLine
 10
375.1807796253
 20
490.9993960099
 30
0.0
 11
375.1807796242
 21
490.9709984634
 31
0.0
  0
SPLINE
  5
140
330
1F
100
AcDbEntity
  8
0
  6
Continuous
 62
     7
370
    25
100
AcDbSpline
210
0.0
220
0.0
230
1.0
 70
     8
 71
     3
 72
    11
 73
     7
 74
     0
 42
0.000000001
 43
0.00000001
 40
0.0
 40
0.0
 40
0.0
 40
0.0
 40
0.2671764453276954
 40
0.5421010299869427
 40
0.7687203835792232
 40
1.0
 40
1.0
 40
1.0
 40
1.0
 10
358.964942985549
 20
487.62245422919
 30
0.0
 10
360.5556105552551
 20
487.970146320787
 30
0.0
 10
363.7830751876513
 20
488.6756136038099
 30
0.0
 10
368.115916800004
 20
489.5866153541364
 30
0.0
 10
371.9810555288177
 20
490.3764546762475
 30
0.0
 10
374.1069926907361
 20
490.7903447777198
 30
0.0
 10
375.1807796252845
 20
490.9993960099297
 30
0.0
  0
LINE
  5
141
330
1F
100
AcDbEntity
  8
0
  6
Continuous
 62
     7
370
    25
100
AcDbLine
 10
309.3739727238
 20
502.9418380065
 30
0.0
 11
309.3739727218
 21
502.970235554
 31
0.0
  0
LINE
  5
142
330
1F
100
AcDbEntity
  8
0
  6
Continuous
 62
     7
370
    25
100
AcDbLine
 10
323.2675061839
 20
494.1161333521
 30
0.0
 11
323.267506187
 21
494.095063462
 31
0.0
  0
SPLINE
  5
143
330
1F
100
AcDbEntity
  8
0
  6
Continuous
 62
     7
370
    25
100
AcDbSpline
210
0.0
220
0.0
230
1.0
 70
     8
 71
     3
 72
    11
 73
     7
 74
     0
 42
0.000000001
 43
0.00000001
 40
0.0
 40
0.0
 40
0.0
 40
0.0
 40
0.2826844473512997
 40
0.5746028240770954
 40
0.7854345155014519
 40
0.9999999999999999
 40
0.9999999999999999
 40
0.9999999999999999
 40
0.9999999999999999
 10
309.3739727218137
 20
502.9702355539861
 30
0.0
 10
310.5078606868244
 20
502.2648431450748
 30
0.0
 10
312.8126752352969
 20
500.8310165796561
 30
0.0
 10
316.4793955151432
 20
498.500250359891
 30
0.0
 10
320.0008191313105
 20
496.2386568949398
 30
0.0
 10
322.1722574553565
 20
494.8277690779191
 30
0.0
 10
323.267506183905
 20
494.1161333521403
 30
0.0
  0
LINE
  5
144
330
1F
100
AcDbEntity
  8
0
  6
Continuous
 62
     7
370
    25
100
AcDbLine
 10
303.747916031
 20
487.802739195
 30
0.0
 11
303.7479160288
 21
487.8311367417
 31
0.0
  0
LINE
  5
145
330
1F
100
AcDbEntity
  8
0
  6
Continuous
 62
     7
370
    25
100
AcDbLine
 10
320.2223652041
 20
485.9041060496
 30
0.0
 11
320.2223652078
 21
485.8830361616
 31
0.0
  0
SPLINE
  5
146
330
1F
100
AcDbEntity
  8
0
  6
Continuous
 62
     7
370
    25
100
AcDbSpline
210
0.0
220
0.0
230
1.0
 70
     8
 71
     3
 72
    11
 73
     7
 74
     0
 42
0.000000001
 43
0.00000001
 40
0.0
 40
0.0
 40
0.0
 40
0.0
 40
0.2826844473444611
 40
0.5746028240664607
 40
0.7854345154954367
 40
1.0
 40
1.0
 40
1.0
 40
1.0
 10
303.7479160287862
 20
487.831136741745
 30
0.0
 10
305.0924393425018
 20
487.6910809364151
 30
0.0
 10
307.8254050232874
 20
487.4063943821123
 30
0.0
 10
312.1732692333324
 20
486.9037904261825
 30
0.0
 10
316.3488459180173
 20
486.3979168637183
 30
0.0
 10
318.9236588986666
 20
486.0696700162449
 30
0.0
 10
320.2223652041075
 20
485.9041060495575
 30
0.0
  0
LINE
  5
147
330
1F
100
AcDbEntity
  8
0
  6
Continuous
 62
     7
370
    25
100
AcDbLine
 10
336.3734197312
 20
519.2751501984
 30
0.0
 11
336.3667150524
 21
519.2136497815
 31
0.0
  0
LINE
  5
148
330
1F
100
AcDbEntity
  8
0
  6
Continuous
 62
     7
370
    25
100
AcDbLine
 10
358.9193804107
 20
478.8437072278
 30
0.0
 11
358.9193804143
 21
478.8647771148
 31
0.0
  0
LINE
  5
149
330
1F
100
AcDbEntity
  8
0
  6
Continuous
 62
     7
370
    25
100
AcDbLine
 10
375.1082530593
 20
474.8500610045
 30
0.0
 11
375.1082530583
 21
474.8216634584
 31
0.0
  0
SPLINE
  5
14A
330
1F
100
AcDbEntity
  8
0
  6
Continuous
 62
     7
370
    25
100
AcDbSpline
210
0.0
220
0.0
230
1.0
 70
     8
 71
     3
 72
    11
 73
     7
 74
     0
 42
0.000000001
 43
0.00000001
 40
0.0
 40
0.0
 40
0.0
 40
0.0
 40
0.2671764453254347
 40
0.5421010299813077
 40
0.7687203835742359
 40
1.0
 40
1.0
 40
1.0
 40
1.0
 10
358.9193804142934
 20
478.8647771148474
 30
0.0
 10
360.5074029923674
 20
478.487395887381
 30
0.0
 10
363.7295009365143
 20
477.7216893451895
 30
0.0
 10
368.0551378192295
 20
476.6576537535444
 30
0.0
 10
371.9138495234718
 20
475.6856485393272
 30
0.0
 10
374.0362516376064
 20
475.1304736121419
 30
0.0
 10
375.1082530593136
 20
474.8500610045238
 30
0.0
  0
SPLINE
  5
14B
330
1F
100
AcDbEntity
  8
0
  6
Continuous
 62
     7
370
    25
100
AcDbSpline
210
0.0
220
0.0
230
1.0
 70
     8
 71
     3
 72
     9
 73
     5
 74
     0
 42
0.000000001
 43
0.00000001
 40
0.0
 40
0.0
 40
0.0
 40
0.0
 40
0.8454216344962063
 40
0.9999999999999999
 40
0.9999999999999999
 40
0.9999999999999999
 40
0.9999999999999999
 10
355.6463838152286
 20
515.7065077077076
 30
0.0
 10
355.6835632123831
 20
515.7854149860195
 30
0.0
 10
355.7275405553296
 20
515.8787498086596
 30
0.0
 10
355.7113559175201
 20
515.9852995767552
 30
0.0
 10
355.7088541226613
 20
516.0017698657522
 30
0.0
  0
SPLINE
  5
14C
330
1F
100
AcDbEntity
  8
0
  6
Continuous
 62
     7
370
    25
100
AcDbSpline
210
0.0
220
0.0
230
1.0
 70
     8
 71
     3
 72
     9
 73
     5
 74
     0
 42
0.000000001
 43
0.00000001
 40
0.0
 40
0.0
 40
0.0
 40
0.0
 40
0.2586239937170426
 40
1.0
 40
1.0
 40
1.0
 40
1.0
 10
320.9277178514326
 20
514.5190059501322
 30
0.0
 10
320.9245251965075
 20
514.4856633337074
 30
0.0
 10
320.9121804218435
 20
514.3567401972825
 30
0.0
 10
320.9715052813999
 20
514.2498044094714
 30
0.0
 10
321.0154873088512
 20
514.1705247821753
 30
0.0
  0
LINE
  5
14D
330
1F
100
AcDbEntity
  8
0
  6
Continuous
 62
     7
370
    25
100
AcDbLine
 10
305.2516267586
 20
471.7233149883
 30
0.0
 11
305.2516267564
 21
471.751712534
 31
0.0
  0
LINE
  5
14E
330
1F
100
AcDbEntity
  8
0
  6
Continuous
 62
     7
370
    25
100
AcDbLine
 10
321.04402494
 20
477.1848928165
 30
0.0
 11
321.0440249435
 21
477.1638229296
 31
0.0
  0
SPLINE
  5
14F
330
1F
100
AcDbEntity
  8
0
  6
Continuous
 62
     7
370
    25
100
AcDbSpline
210
0.0
220
0.0
230
1.0
 70
     8
 71
     3
 72
    11
 73
     7
 74
     0
 42
0.000000001
 43
0.00000001
 40
0.0
 40
0.0
 40
0.0
 40
0.0
 40
0.2826844473499072
 40
0.5746028240744664
 40
0.7854345154817364
 40
1.0
 40
1.0
 40
1.0
 40
1.0
 10
305.2516267563776
 20
471.7517125339952
 30
0.0
 10
306.5404860870891
 20
472.2123429878793
 30
0.0
 10
309.160305529596
 20
473.148650457702
 30
0.0
 10
313.3281658398704
 20
474.5885210289237
 30
0.0
 10
317.330871420351
 20
475.9481499182017
 30
0.0
 10
319.7990857688674
 20
476.7702399693886
 30
0.0
 10
321.0440249399658
 20
477.1848928164998
 30
0.0
  0
LINE
  5
150
330
1F
100
AcDbEntity
  8
0
  6
Continuous
 62
     7
370
    25
100
AcDbLine
 10
355.0762001065
 20
470.9730696113
 30
0.0
 11
355.0762001093
 21
470.9941394969
 31
0.0
  0
LINE
  5
151
330
1F
100
AcDbEntity
  8
0
  6
Continuous
 62
     7
370
    25
100
AcDbLine
 10
368.0317039884
 20
460.3314618559
 30
0.0
 11
368.0317039875
 21
460.3030643103
 31
0.0
  0
SPLINE
  5
152
330
1F
100
AcDbEntity
  8
0
  6
Continuous
 62
     7
370
    25
100
AcDbSpline
210
0.0
220
0.0
230
1.0
 70
     8
 71
     3
 72
    11
 73
     7
 74
     0
 42
0.000000001
 43
0.00000001
 40
0.0
 40
0.0
 40
0.0
 40
0.0
 40
0.2671764453278384
 40
0.5421010299772658
 40
0.768720383571022
 40
1.0
 40
1.0
 40
1.0
 40
1.0
 10
355.076200109349
 20
470.9941394969138
 30
0.0
 10
356.3470503483645
 20
469.9646367017201
 30
0.0
 10
358.9256055899084
 20
467.8757754439314
 30
0.0
 10
362.387292307796
 20
465.0354168048289
 30
0.0
 10
365.4753118103169
 20
462.478831395926
 30
0.0
 10
367.173811108337
 20
461.052091912211
 30
0.0
 10
368.0317039883569
 20
460.3314618559318
 30
0.0
  0
SPLINE
  5
153
330
1F
100
AcDbEntity
  8
0
  6
Continuous
 62
     7
370
    25
100
AcDbSpline
210
0.0
220
0.0
230
1.0
 70
     8
 71
     3
 72
    10
 73
     6
 74
     0
 42
0.000000001
 43
0.00000001
 40
0.0
 40
0.0
 40
0.0
 40
0.0
 40
0.4394619852016068
 40
0.8638368046400983
 40
1.0
 40
1.0
 40
1.0
 40
1.0
 10
368.234918910729
 20
505.5808930147675
 30
0.0
 10
368.2966087563493
 20
505.6401954844897
 30
0.0
 10
368.4178705740125
 20
505.7567645113385
 30
0.0
 10
368.5006487766362
 20
505.9514117248262
 30
0.0
 10
368.4938251119394
 20
506.0804441237368
 30
0.0
 10
368.4921675401698
 20
506.111788052742
 30
0.0
  0
SPLINE
  5
154
330
1F
100
AcDbEntity
  8
0
  6
Continuous
 62
     7
370
    25
100
AcDbSpline
210
0.0
220
0.0
230
1.0
 70
     8
 71
     3
 72
    10
 73
     6
 74
     0
 42
0.000000001
 43
0.00000001
 40
0.0
 40
0.0
 40
0.0
 40
0.0
 40
0.1905721662260454
 40
0.579425057526874
 40
1.0
 40
1.0
 40
1.0
 40
1.0
 10
309.0659693993837
 20
503.5367707798277
 30
0.0
 10
309.0662782602406
 20
503.4883923338168
 30
0.0
 10
309.0672173360948
 20
503.3413001092912
 30
0.0
 10
309.1697591168309
 20
503.1339993151138
 30
0.0
 10
309.3041459483897
 20
503.0262313092361
 30
0.0
 10
309.3739727218137
 20
502.9702355539861
 30
0.0
  0
LINE
  5
155
330
1F
100
AcDbEntity
  8
0
  6
Continuous
 62
     7
370
    25
100
AcDbLine
 10
348.1965910616
 20
465.5483477956
 30
0.0
 11
348.1965910631
 21
465.5694176802
 31
0.0
  0
LINE
  5
156
330
1F
100
AcDbEntity
  8
0
  6
Continuous
 62
     7
370
    25
100
AcDbLine
 10
355.352729744
 20
450.3191851843
 30
0.0
 11
355.3527297435
 21
450.290787639
 31
0.0
  0
SPLINE
  5
157
330
1F
100
AcDbEntity
  8
0
  6
Continuous
 62
     7
370
    25
100
AcDbSpline
210
0.0
220
0.0
230
1.0
 70
     8
 71
     3
 72
    11
 73
     7
 74
     0
 42
0.000000001
 43
0.00000001
 40
0.0
 40
0.0
 40
0.0
 40
0.0
 40
0.2671764453302246
 40
0.5421010299878506
 40
0.7687203835807664
 40
1.0
 40
1.0
 40
1.0
 40
1.0
 10
348.1965910631051
 20
465.5694176801972
 30
0.0
 10
348.8985614872554
 20
464.0899057430547
 30
0.0
 10
350.3228595367431
 20
461.0879758984795
 30
0.0
 10
352.2349665805507
 20
457.0218310716829
 30
0.0
 10
353.9406737468124
 20
453.3717753513411
 30
0.0
 10
354.8788616119478
 20
451.3435958332041
 30
0.0
 10
355.3527297439769
 20
450.3191851843405
 30
0.0
  0
LINE
  5
158
330
1F
100
AcDbEntity
  8
0
  6
Continuous
 62
     7
370
    25
100
AcDbLine
 10
313.5872765559
 20
457.8882925506
 30
0.0
 11
313.5872765542
 21
457.916690095
 31
0.0
  0
LINE
  5
159
330
1F
100
AcDbEntity
  8
0
  6
Continuous
 62
     7
370
    25
100
AcDbLine
 10
325.569745605
 20
469.6854407652
 30
0.0
 11
325.5697456074
 21
469.66437088
 31
0.0
  0
SPLINE
  5
15A
330
1F
100
AcDbEntity
  8
0
  6
Continuous
 62
     7
370
    25
100
AcDbSpline
210
0.0
220
0.0
230
1.0
 70
     8
 71
     3
 72
    11
 73
     7
 74
     0
 42
0.000000001
 43
0.00000001
 40
0.0
 40
0.0
 40
0.0
 40
0.0
 40
0.2826844473518386
 40
0.5746028240725782
 40
0.7854345154789447
 40
1.0
 40
1.0
 40
1.0
 40
1.0
 10
313.5872765542194
 20
457.9166900949792
 30
0.0
 10
314.5651975046173
 20
458.8943831834142
 30
0.0
 10
316.5529833381939
 20
460.88170584992
 30
0.0
 10
319.7153438988602
 20
463.9936323087567
 30
0.0
 10
322.752393444816
 20
466.9590605615476
 30
0.0
 10
324.6251490391531
 20
468.7713451068913
 30
0.0
 10
325.5697456049681
 20
469.6854407651757
 30
0.0
  0
SPLINE
  5
15B
330
1F
100
AcDbEntity
  8
0
  6
Continuous
 62
     7
370
    25
100
AcDbSpline
210
0.0
220
0.0
230
1.0
 70
     8
 71
     3
 72
    12
 73
     8
 74
     0
 42
0.000000001
 43
0.00000001
 40
0.0
 40
0.0
 40
0.0
 40
0.0
 40
0.3080951835653106
 40
0.6056131551796127
 40
0.8237535476240399
 40
0.9971118326400638
 40
1.0
 40
1.0
 40
1.0
 40
1.0
 10
375.1807796252845
 20
490.9993960099297
 30
0.0
 10
375.2640105058906
 20
491.0249986386772
 30
0.0
 10
375.4276148687661
 20
491.0753249326402
 30
0.0
 10
375.6083638406907
 20
491.2490333536266
 30
0.0
 10
375.7007646109277
 20
491.4521266378463
 30
0.0
 10
375.7361717606257
 20
491.5923970404306
 30
0.0
 10
375.7272089790678
 20
491.6586263745835
 30
0.0
 10
375.7270621051148
 20
491.6597116809747
 30
0.0
  0
LINE
  5
15C
330
1F
100
AcDbEntity
  8
0
  6
Continuous
 62
     7
370
    25
100
AcDbLine
 10
327.1038877495
 20
449.0378677522
 30
0.0
 11
327.1038877486
 21
449.0662652963
 31
0.0
  0
LINE
  5
15D
330
1F
100
AcDbEntity
  8
0
  6
Continuous
 62
     7
370
    25
100
AcDbLine
 10
332.9031527153
 20
464.8911083512
 30
0.0
 11
332.903152717
 21
464.8700384666
 31
0.0
  0
SPLINE
  5
15E
330
1F
100
AcDbEntity
  8
0
  6
Continuous
 62
     7
370
    25
100
AcDbSpline
210
0.0
220
0.0
230
1.0
 70
     8
 71
     3
 72
    11
 73
     7
 74
     0
 42
0.000000001
 43
0.00000001
 40
0.0
 40
0.0
 40
0.0
 40
0.0
 40
0.2826844473503043
 40
0.5746028240727094
 40
0.7854345155045048
 40
1.0
 40
1.0
 40
1.0
 40
1.0
 10
327.1038877486099
 20
449.0662652963235
 30
0.0
 10
327.5771810811202
 20
450.3749867981999
 30
0.0
 10
328.5392279429987
 20
453.0351793837896
 30
0.0
 10
330.0697444614252
 20
457.2175719155646
 30
0.0
 10
331.5396130641356
 20
461.2110481841344
 30
0.0
 10
332.4459876899478
 20
463.6572646576047
 30
0.0
 10
332.9031527153101
 20
464.8911083512467
 30
0.0
  0
SPLINE
  5
15F
330
1F
100
AcDbEntity
  8
0
  6
Continuous
 62
     7
370
    25
100
AcDbSpline
210
0.0
220
0.0
230
1.0
 70
     8
 71
     3
 72
    12
 73
     8
 74
     0
 42
0.000000001
 43
0.00000001
 40
0.0
 40
0.0
 40
0.0
 40
0.0
 40
0.0503303338503848
 40
0.2045292470131998
 40
0.4141151962280979
 40
0.6955769695214489
 40
1.0
 40
1.0
 40
1.0
 40
1.0
 10
303.1455472268811
 20
488.501912329127
 30
0.0
 10
303.1440440905499
 20
488.4816932917847
 30
0.0
 10
303.1379357396118
 20
488.399528438771
 30
0.0
 10
303.1820619391868
 20
488.2458257670437
 30
0.0
 10
303.2909858639545
 20
488.0512208758122
 30
0.0
 10
303.487536398576
 20
487.8873885352033
 30
0.0
 10
303.6588844005627
 20
487.8503709220764
 30
0.0
 10
303.7479160287862
 20
487.831136741745
 30
0.0
  0
LINE
  5
160
330
1F
100
AcDbEntity
  8
0
  6
Continuous
 62
     7
370
    25
100
AcDbLine
 10
376.3396452379
 20
477.4942443312
 30
0.0
 11
376.3396452369
 21
477.4649445538
 31
0.0
  0
LINE
  5
161
330
1F
100
AcDbEntity
  8
0
  6
Continuous
 62
     7
370
    25
100
AcDbLine
 10
376.3396452379
 20
477.4942443312
 30
0.0
 11
376.3454975492
 21
477.6202048119
 31
0.0
  0
LINE
  5
162
330
1F
100
AcDbEntity
  8
0
  6
Continuous
 62
     7
370
    25
100
AcDbLine
 10
375.9551891503
 20
475.3540639585
 30
0.0
 11
375.9551891493
 21
475.3833637246
 31
0.0
  0
LINE
  5
163
330
1F
100
AcDbEntity
  8
0
  6
Continuous
 62
     7
370
    25
100
AcDbLine
 10
375.9551891493
 20
475.3833637246
 30
0.0
 11
376.3396452379
 21
477.4942443312
 31
0.0
  0
SPLINE
  5
164
330
1F
100
AcDbEntity
  8
0
  6
Continuous
 62
     7
370
    25
100
AcDbSpline
210
0.0
220
0.0
230
1.0
 70
     8
 71
     3
 72
    12
 73
     8
 74
     0
 42
0.000000001
 43
0.00000001
 40
0.0
 40
0.0
 40
0.0
 40
0.0
 40
0.2646205602373553
 40
0.5201564353431702
 40
0.7075155241932918
 40
0.856411608776782
 40
1.0
 40
1.0
 40
1.0
 40
1.0
 10
375.1082530593136
 20
474.8500610045238
 30
0.0
 10
375.1957019966511
 20
474.8366672338624
 30
0.0
 10
375.3675976629561
 20
474.8103395139122
 30
0.0
 10
375.6070057013707
 20
474.8890406665254
 30
0.0
 10
375.7854681144798
 20
475.02813875686
 30
0.0
 10
375.904363952368
 20
475.1943474968852
 30
0.0
 10
375.9384536245225
 20
475.3211251903787
 30
0.0
 10
375.9551891492661
 20
475.383363724583
 30
0.0
  0
LINE
  5
165
330
1F
100
AcDbEntity
  8
0
  6
Continuous
 62
     7
370
    25
100
AcDbLine
 10
303.7886683734
 20
474.2470936788
 30
0.0
 11
303.7886683738
 21
474.2763934481
 31
0.0
  0
LINE
  5
166
330
1F
100
AcDbEntity
  8
0
  6
Continuous
 62
     7
370
    25
100
AcDbLine
 10
303.763982671
 20
474.4628664302
 30
0.0
 11
303.7886683738
 21
474.2763934481
 31
0.0
  0
LINE
  5
167
330
1F
100
AcDbEntity
  8
0
  6
Continuous
 62
     7
370
    25
100
AcDbLine
 10
304.3587204581
 20
472.2078480599
 30
0.0
 11
304.3587204592
 21
472.178548285
 31
0.0
  0
LINE
  5
168
330
1F
100
AcDbEntity
  8
0
  6
Continuous
 62
     7
370
    25
100
AcDbLine
 10
303.7886683738
 20
474.2763934481
 30
0.0
 11
304.3587204581
 21
472.2078480599
 31
0.0
  0
SPLINE
  5
169
330
1F
100
AcDbEntity
  8
0
  6
Continuous
 62
     7
370
    25
100
AcDbSpline
210
0.0
220
0.0
230
1.0
 70
     8
 71
     3
 72
    12
 73
     8
 74
     0
 42
0.000000001
 43
0.00000001
 40
0.0
 40
0.0
 40
0.0
 40
0.0
 40
0.1401480250266474
 40
0.2797631517916528
 40
0.4695269427721075
 40
0.7243687066002951
 40
1.0
 40
1.0
 40
1.0
 40
1.0
 10
304.3587204580576
 20
472.2078480598523
 30
0.0
 10
304.3802420023162
 20
472.1487581633524
 30
0.0
 10
304.4232032574038
 20
472.0308030535267
 30
0.0
 10
304.5513552826301
 20
471.8766320037324
 30
0.0
 10
304.7383808704442
 20
471.7508934366134
 30
0.0
 10
304.9887324284321
 20
471.6884812353053
 30
0.0
 10
305.1617352881295
 20
471.7300918534622
 30
0.0
 10
305.2516267563776
 20
471.7517125339951
 30
0.0
  0
LINE
  5
16A
330
1F
100
AcDbEntity
  8
0
  6
Continuous
 62
     7
370
    25
100
AcDbLine
 10
370.2990513257
 20
462.1775671865
 30
0.0
 11
370.2990513234
 21
462.148267411
 31
0.0
  0
SPLINE
  5
16B
330
1F
100
AcDbEntity
  8
0
  6
Continuous
 62
     7
370
    25
100
AcDbSpline
210
0.0
220
0.0
230
1.0
 70
     8
 71
     3
 72
    10
 73
     6
 74
     0
 42
0.000000001
 43
0.00000001
 40
0.0
 40
0.0
 40
0.0
 40
0.0
 40
0.4066598674847888
 40
0.8117735001635424
 40
1.0
 40
1.0
 40
1.0
 40
1.0
 10
370.2990513256511
 20
462.1775671864759
 30
0.0
 10
370.331340186397
 20
462.2311924478358
 30
0.0
 10
370.3957951365894
 20
462.3382390722805
 30
0.0
 10
370.4344805758083
 20
462.4877491099273
 30
0.0
 10
370.4273404525846
 20
462.5675415734154
 30
0.0
 10
370.4250753767383
 20
462.5928542992748
 30
0.0
  0
LINE
  5
16C
330
1F
100
AcDbEntity
  8
0
  6
Continuous
 62
     7
370
    25
100
AcDbLine
 10
369.0362332986
 20
460.4131373031
 30
0.0
 11
369.0362333014
 21
460.4424370784
 31
0.0
  0
LINE
  5
16D
330
1F
100
AcDbEntity
  8
0
  6
Continuous
 62
     7
370
    25
100
AcDbLine
 10
369.0362333014
 20
460.4424370784
 30
0.0
 11
370.2990513257
 21
462.1775671865
 31
0.0
  0
SPLINE
  5
16E
330
1F
100
AcDbEntity
  8
0
  6
Continuous
 62
     7
370
    25
100
AcDbSpline
210
0.0
220
0.0
230
1.0
 70
     8
 71
     3
 72
    12
 73
     8
 74
     0
 42
0.000000001
 43
0.00000001
 40
0.0
 40
0.0
 40
0.0
 40
0.0
 40
0.2646205661817601
 40
0.5201564469616314
 40
0.707515539983719
 40
0.8564116278959321
 40
0.9999999999999999
 40
0.9999999999999999
 40
0.9999999999999999
 40
0.9999999999999999
 10
368.0317039883569
 20
460.3314618559318
 30
0.0
 10
368.1058793305103
 20
460.2812008704313
 30
0.0
 10
368.2516835020584
 20
460.1824044087052
 30
0.0
 10
368.5045759885137
 20
460.1488096285333
 30
0.0
 10
368.7277978505226
 20
460.1962817543951
 30
0.0
 10
368.9082334271523
 20
460.2942116650502
 30
0.0
 10
368.9940859988906
 20
460.3936299887665
 30
0.0
 10
369.0362333014043
 20
460.4424370784113
 30
0.0
  0
LINE
  5
16F
330
1F
100
AcDbEntity
  8
0
  6
Continuous
 62
     7
370
    25
100
AcDbLine
 10
311.1631770416
 20
459.5254160877
 30
0.0
 11
311.163177043
 21
459.5547158609
 31
0.0
  0
SPLINE
  5
170
330
1F
100
AcDbEntity
  8
0
  6
Continuous
 62
     7
370
    25
100
AcDbSpline
210
0.0
220
0.0
230
1.0
 70
     8
 71
     3
 72
    10
 73
     6
 74
     0
 42
0.000000001
 43
0.00000001
 40
0.0
 40
0.0
 40
0.0
 40
0.0
 40
0.2648435162665031
 40
0.6390921886771972
 40
1.0
 40
1.0
 40
1.0
 40
1.0
 10
310.9988772359502
 20
460.020275571673
 30
0.0
 10
310.9975061314361
 20
459.979359040349
 30
0.0
 10
310.9941975279364
 20
459.8806236213153
 30
0.0
 10
311.0479511556235
 20
459.7124816039135
 30
0.0
 10
311.1252359084912
 20
459.6066643544777
 30
0.0
 10
311.1631770429616
 20
459.5547158608724
 30
0.0
  0
LINE
  5
171
330
1F
100
AcDbEntity
  8
0
  6
Continuous
 62
     7
370
    25
100
AcDbLine
 10
312.5748314904
 20
457.9382065345
 30
0.0
 11
312.5748314905
 21
457.9089067628
 31
0.0
  0
SPLINE
  5
172
330
1F
100
AcDbEntity
  8
0
  6
Continuous
 62
     7
370
    25
100
AcDbSpline
210
0.0
220
0.0
230
1.0
 70
     8
 71
     3
 72
    12
 73
     8
 74
     0
 42
0.000000001
 43
0.00000001
 40
0.0
 40
0.0
 40
0.0
 40
0.0
 40
0.140148015703518
 40
0.2797631400002098
 40
0.4695269242595654
 40
0.7243686793045057
 40
0.9999999999999999
 40
0.9999999999999999
 40
0.9999999999999999
 40
0.9999999999999999
 10
312.5748314903531
 20
457.938206534504
 30
0.0
 10
312.6199206619477
 20
457.8943108403248
 30
0.0
 10
312.7099275604543
 20
457.8066863586335
 30
0.0
 10
312.8934095240872
 20
457.7236004017262
 30
0.0
 10
313.1184887193396
 20
457.6918647570351
 30
0.0
 10
313.3742066639109
 20
457.7448892429645
 30
0.0
 10
313.5144215548846
 20
457.8579462201824
 30
0.0
 10
313.5872765542194
 20
457.9166900949792
 30
0.0
  0
LINE
  5
173
330
1F
100
AcDbEntity
  8
0
  6
Continuous
 62
     7
370
    25
100
AcDbLine
 10
311.8690042635
 20
458.746982111
 30
0.0
 11
312.5748314904
 21
457.9382065345
 31
0.0
  0
LINE
  5
174
330
1F
100
AcDbEntity
  8
0
  6
Continuous
 62
     7
370
    25
100
AcDbLine
 10
311.163177043
 20
459.5547158609
 30
0.0
 11
311.8690042635
 21
458.746982111
 31
0.0
  0
LINE
  5
175
330
1F
100
AcDbEntity
  8
0
  6
Continuous
 62
     7
370
    25
100
AcDbLine
 10
358.2069563146
 20
450.997036811
 30
0.0
 11
358.2069563186
 21
450.9677370409
 31
0.0
  0
SPLINE
  5
176
330
1F
100
AcDbEntity
  8
0
  6
Continuous
 62
     7
370
    25
100
AcDbSpline
210
0.0
220
0.0
230
1.0
 70
     8
 71
     3
 72
    11
 73
     7
 74
     0
 42
0.000000001
 43
0.00000001
 40
0.0
 40
0.0
 40
0.0
 40
0.0
 40
0.2230887016629566
 40
0.4453291273854252
 40
0.7473965822328434
 40
0.9999999999999999
 40
0.9999999999999999
 40
0.9999999999999999
 40
0.9999999999999999
 10
358.2069563146432
 20
450.9970368110048
 30
0.0
 10
358.2600139994661
 20
451.0313029303957
 30
0.0
 10
358.3659276217483
 20
451.0997048751535
 30
0.0
 10
358.4885532140254
 20
451.2615858674965
 30
0.0
 10
358.5682268980819
 20
451.4435710281185
 30
0.0
 10
358.5648601706306
 20
451.5685093455593
 30
0.0
 10
358.5633269246952
 20
451.6254076749178
 30
0.0
  0
LINE
  5
177
330
1F
100
AcDbEntity
  8
0
  6
Continuous
 62
     7
370
    25
100
AcDbLine
 10
356.3158929614
 20
449.9520212624
 30
0.0
 11
356.3158929578
 21
449.9813210322
 31
0.0
  0
LINE
  5
178
330
1F
100
AcDbEntity
  8
0
  6
Continuous
 62
     7
370
    25
100
AcDbLine
 10
356.3158929578
 20
449.9813210322
 30
0.0
 11
358.2069563146
 21
450.997036811
 31
0.0
  0
SPLINE
  5
179
330
1F
100
AcDbEntity
  8
0
  6
Continuous
 62
     7
370
    25
100
AcDbSpline
210
0.0
220
0.0
230
1.0
 70
     8
 71
     3
 72
    12
 73
     8
 74
     0
 42
0.000000001
 43
0.00000001
 40
0.0
 40
0.0
 40
0.0
 40
0.0
 40
0.2646205612677796
 40
0.5201564372687804
 40
0.7075155267779144
 40
0.8564116118874594
 40
1.0
 40
1.0
 40
1.0
 40
1.0
 10
355.3527297439769
 20
450.3191851843405
 30
0.0
 10
355.3989401547697
 20
450.2414636746404
 30
0.0
 10
355.489774527305
 20
450.0886889114433
 30
0.0
 10
355.7060630034703
 20
449.9480718729464
 30
0.0
 10
355.9298324868104
 20
449.8935832906786
 30
0.0
 10
356.13607033774
 20
449.9033112797615
 30
0.0
 10
356.2566816597545
 20
449.9556342820806
 30
0.0
 10
356.315892957795
 20
449.9813210321547
 30
0.0
  0
LINE
  5
17A
330
1F
100
AcDbEntity
  8
0
  6
Continuous
 62
     7
370
    25
100
AcDbLine
 10
324.1987697311
 20
449.4593731439
 30
0.0
 11
324.198769734
 21
449.488672915
 31
0.0
  0
SPLINE
  5
17B
330
1F
100
AcDbEntity
  8
0
  6
Continuous
 62
     7
370
    25
100
AcDbSpline
210
0.0
220
0.0
230
1.0
 70
     8
 71
     3
 72
    11
 73
     7
 74
     0
 42
0.000000001
 43
0.00000001
 40
0.0
 40
0.0
 40
0.0
 40
0.0
 40
0.3015334447785203
 40
0.5742557909119432
 40
0.7909908837234396
 40
1.0
 40
1.0
 40
1.0
 40
1.0
 10
323.7821906534214
 20
450.1460304788444
 30
0.0
 10
323.7847136084448
 20
450.0720163724195
 30
0.0
 10
323.78951845367
 20
449.9310601038541
 30
0.0
 10
323.8881110770143
 20
449.7365629398346
 30
0.0
 10
324.0251370891898
 20
449.58070753602
 30
0.0
 10
324.141596649287
 20
449.5189777185028
 30
0.0
 10
324.1987697340132
 20
449.4886729149805
 30
0.0
  0
LINE
  5
17C
330
1F
100
AcDbEntity
  8
0
  6
Continuous
 62
     7
370
    25
100
AcDbLine
 10
326.1724310903
 20
448.6443691277
 30
0.0
 11
326.1724310926
 21
448.6150693544
 31
0.0
  0
LINE
  5
17D
330
1F
100
AcDbEntity
  8
0
  6
Continuous
 62
     7
370
    25
100
AcDbLine
 10
324.198769734
 20
449.488672915
 30
0.0
 11
326.1724310903
 21
448.6443691277
 31
0.0
  0
SPLINE
  5
17E
330
1F
100
AcDbEntity
  8
0
  6
Continuous
 62
     7
370
    25
100
AcDbSpline
210
0.0
220
0.0
230
1.0
 70
     8
 71
     3
 72
    12
 73
     8
 74
     0
 42
0.000000001
 43
0.00000001
 40
0.0
 40
0.0
 40
0.0
 40
0.0
 40
0.140148023699374
 40
0.2797631501734136
 40
0.4695269402404206
 40
0.7243687028733845
 40
1.0
 40
1.0
 40
1.0
 40
1.0
 10
326.1724310902562
 20
448.6443691277443
 30
0.0
 10
326.2321574315132
 20
448.6243823159742
 30
0.0
 10
326.3513830112774
 20
448.5844846900561
 30
0.0
 10
326.5538540724291
 20
448.5894363341228
 30
0.0
 10
326.7724071878916
 20
448.6588951937479
 30
0.0
 10
326.9828434281428
 20
448.8182515215317
 30
0.0
 10
327.0624990589506
 20
448.9814619357323
 30
0.0
 10
327.1038877486099
 20
449.0662652963235
 30
0.0
  0
LINE
  5
17F
330
1F
100
AcDbEntity
  8
0
  6
Continuous
 62
     7
370
    25
100
AcDbLine
 10
340.3135874943
 20
446.0426680827
 30
0.0
 11
340.313587489
 21
446.0719678544
 31
0.0
  0
SPLINE
  5
180
330
1F
100
AcDbEntity
  8
0
  6
Continuous
 62
     7
370
    25
100
AcDbSpline
210
0.0
220
0.0
230
1.0
 70
     8
 71
     3
 72
    12
 73
     8
 74
     0
 42
0.000000001
 43
0.00000001
 40
0.0
 40
0.0
 40
0.0
 40
0.0
 40
0.2646205601502699
 40
0.5201564338633229
 40
0.7075155236604571
 40
0.8564116084707477
 40
1.0
 40
1.0
 40
1.0
 40
1.0
 10
339.5825566729783
 20
446.7962851767023
 30
0.0
 10
339.5916496135898
 20
446.7059487273226
 30
0.0
 10
339.6095233251381
 20
446.5283771685196
 30
0.0
 10
339.746369205055
 20
446.3072086174545
 30
0.0
 10
339.9263660185479
 20
446.1606191519729
 30
0.0
 10
340.1175582023525
 20
446.07969158663
 30
0.0
 10
340.2490397217661
 20
446.0745110951321
 30
0.0
 10
340.3135874889663
 20
446.0719678543733
 30
0.0
  0
LINE
  5
181
330
1F
100
AcDbEntity
  8
0
  6
Continuous
 62
     7
370
    25
100
AcDbLine
 10
342.4583478548
 20
446.1670943349
 30
0.0
 11
342.458347849
 21
446.1377945626
 31
0.0
  0
LINE
  5
182
330
1F
100
AcDbEntity
  8
0
  6
Continuous
 62
     7
370
    25
100
AcDbLine
 10
340.313587489
 20
446.0719678544
 30
0.0
 11
342.4583478548
 21
446.1670943349
 31
0.0
  0
SPLINE
  5
183
330
1F
100
AcDbEntity
  8
0
  6
Continuous
 62
     7
370
    25
100
AcDbSpline
210
0.0
220
0.0
230
1.0
 70
     8
 71
     3
 72
    12
 73
     8
 74
     0
 42
0.000000001
 43
0.00000001
 40
0.0
 40
0.0
 40
0.0
 40
0.0
 40
0.1497465166618233
 40
0.2989236592382238
 40
0.5016840567786036
 40
0.7739795101177555
 40
1.0
 40
1.0
 40
1.0
 40
1.0
 10
342.458347854841
 20
446.1670943348702
 30
0.0
 10
342.5208747052617
 20
446.1749963421856
 30
0.0
 10
342.6456906632225
 20
446.1907703113885
 30
0.0
 10
342.8271678099672
 20
446.283263346138
 30
0.0
 10
342.9952178177287
 20
446.4411336925979
 30
0.0
 10
343.1111052970205
 20
446.6553595064333
 30
0.0
 10
343.1155906358586
 20
446.8153338079396
 30
0.0
 10
343.1176250449424
 20
446.8878931359861
 30
0.0
  0
LINE
  5
184
330
1F
100
AcDbEntity
  8
0
  6
Continuous
 62
     7
370
    25
100
AcDbLine
 10
338.6273224763
 20
502.2822401308
 30
0.0
 11
338.6273224756
 21
502.3032606506
 31
0.0
  0
SPLINE
  5
185
330
1F
100
AcDbEntity
  8
0
  6
Continuous
 62
     7
370
    25
100
AcDbSpline
210
0.0
220
0.0
230
1.0
 70
     8
 71
     3
 72
    12
 73
     8
 74
     0
 42
0.000000001
 43
0.00000001
 40
0.0
 40
0.0
 40
0.0
 40
0.0
 40
0.2228418266031305
 40
0.4457147791473592
 40
0.6677879107800727
 40
0.8887904687712123
 40
1.0
 40
1.0
 40
1.0
 40
1.0
 10
337.8992697191882
 20
502.9352605004417
 30
0.0
 10
337.9142926912126
 20
502.8577252668174
 30
0.0
 10
337.9443407336291
 20
502.7026439696578
 30
0.0
 10
338.0847668266259
 20
502.5051588698745
 30
0.0
 10
338.277343865379
 20
502.3645114472017
 30
0.0
 10
338.4697827893053
 20
502.3042753347986
 30
0.0
 10
338.5878117394449
 20
502.3035151320165
 30
0.0
 10
338.6273224756353
 20
502.3032606506239
 30
0.0
  0
LINE
  5
186
330
1F
100
AcDbEntity
  8
0
  6
Continuous
 62
     7
370
    25
100
AcDbLine
 10
339.1789406495
 20
502.3277265518
 30
0.0
 11
339.1789406527
 21
502.3067060322
 31
0.0
  0
SPLINE
  5
187
330
1F
100
AcDbEntity
  8
0
  6
Continuous
 62
     7
370
    25
100
AcDbSpline
210
0.0
220
0.0
230
1.0
 70
     8
 71
     3
 72
    12
 73
     8
 74
     0
 42
0.000000001
 43
0.00000001
 40
0.0
 40
0.0
 40
0.0
 40
0.0
 40
0.2201864975573242
 40
0.4403609588976151
 40
0.6608890621337254
 40
0.8823069488078943
 40
1.0
 40
1.0
 40
1.0
 40
1.0
 10
339.1789406495075
 20
502.3277265518429
 30
0.0
 10
339.2569730155062
 20
502.3388547933305
 30
0.0
 10
339.4130334819628
 20
502.3611106679944
 30
0.0
 10
339.6166515036632
 20
502.4896771637009
 30
0.0
 10
339.7670564710657
 20
502.672325072644
 30
0.0
 10
339.8386866547169
 20
502.8612785275424
 30
0.0
 10
339.8455266441675
 20
502.9803594167863
 30
0.0
 10
339.847900555294
 20
503.0216880547889
 30
0.0
  0
LINE
  5
188
330
1F
100
AcDbEntity
  8
0
  6
Continuous
 62
     7
370
    25
100
AcDbLine
 10
346.9684327575
 20
500.8897286041
 30
0.0
 11
346.9684327579
 21
500.9107491241
 31
0.0
  0
SPLINE
  5
189
330
1F
100
AcDbEntity
  8
0
  6
Continuous
 62
     7
370
    25
100
AcDbSpline
210
0.0
220
0.0
230
1.0
 70
     8
 71
     3
 72
    11
 73
     7
 74
     0
 42
0.000000001
 43
0.00000001
 40
0.0
 40
0.0
 40
0.0
 40
0.0
 40
0.275872025922438
 40
0.5659922776927089
 40
0.8547139131956758
 40
1.0
 40
1.0
 40
1.0
 40
1.0
 10
346.5458778861783
 20
501.5527125343361
 30
0.0
 10
346.5520405766272
 20
501.4779164884573
 30
0.0
 10
346.564684247881
 20
501.324461333924
 30
0.0
 10
346.6811690030598
 20
501.1175786906471
 30
0.0
 10
346.8267979357074
 20
500.9799821575181
 30
0.0
 10
346.9329109402418
 20
500.928112673202
 30
0.0
 10
346.9684327579317
 20
500.9107491240911
 30
0.0
  0
LINE
  5
18A
330
1F
100
AcDbEntity
  8
0
  6
Continuous
 62
     7
370
    25
100
AcDbLine
 10
347.4760454043
 20
500.693599774
 30
0.0
 11
347.4760454067
 21
500.6725792532
 31
0.0
  0
SPLINE
  5
18B
330
1F
100
AcDbEntity
  8
0
  6
Continuous
 62
     7
370
    25
100
AcDbSpline
210
0.0
220
0.0
230
1.0
 70
     8
 71
     3
 72
    12
 73
     8
 74
     0
 42
0.000000001
 43
0.00000001
 40
0.0
 40
0.0
 40
0.0
 40
0.0
 40
0.2201865176619642
 40
0.4403609826652944
 40
0.6608890896197525
 40
0.8823069800819427
 40
1.0
 40
1.0
 40
1.0
 40
1.0
 10
347.4760454042899
 20
500.6935997740176
 30
0.0
 10
347.5511934013974
 20
500.6697868974351
 30
0.0
 10
347.7014852821311
 20
500.622162447749
 30
0.0
 10
347.9409272483149
 20
500.6496650093435
 30
0.0
 10
348.1559970847507
 20
500.7489465042934
 30
0.0
 10
348.3028604104422
 20
500.8880606166967
 30
0.0
 10
348.3609198384365
 20
500.9923376494351
 30
0.0
 10
348.3810701468053
 20
501.0285284015325
 30
0.0
  0
LINE
  5
18C
330
1F
100
AcDbEntity
  8
0
  6
Continuous
 62
     7
370
    25
100
AcDbLine
 10
330.994054389
 20
500.2022380901
 30
0.0
 11
330.9940543921
 21
500.1812175717
 31
0.0
  0
SPLINE
  5
18D
330
1F
100
AcDbEntity
  8
0
  6
Continuous
 62
     7
370
    25
100
AcDbSpline
210
0.0
220
0.0
230
1.0
 70
     8
 71
     3
 72
    11
 73
     7
 74
     0
 42
0.000000001
 43
0.00000001
 40
0.0
 40
0.0
 40
0.0
 40
0.0
 40
0.3116786325218565
 40
0.6233402007090524
 40
0.9355023564984829
 40
1.0
 40
1.0
 40
1.0
 40
1.0
 10
330.9940543889753
 20
500.2022380901391
 30
0.0
 10
331.0598799677061
 20
500.2461264521121
 30
0.0
 10
331.1915275212322
 20
500.3339007731803
 30
0.0
 10
331.3135284991957
 20
500.5375606028692
 30
0.0
 10
331.3699119002852
 20
500.7074663621881
 30
0.0
 10
331.3582230621215
 20
500.8005918917753
 30
0.0
 10
331.3562215145227
 20
500.816538316691
 30
0.0
  0
LINE
  5
18E
330
1F
100
AcDbEntity
  8
0
  6
Continuous
 62
     7
370
    25
100
AcDbLine
 10
330.5076854067
 20
499.9199821933
 30
0.0
 11
330.5076854039
 21
499.9410027119
 31
0.0
  0
SPLINE
  5
18F
330
1F
100
AcDbEntity
  8
0
  6
Continuous
 62
     7
370
    25
100
AcDbSpline
210
0.0
220
0.0
230
1.0
 70
     8
 71
     3
 72
    12
 73
     8
 74
     0
 42
0.000000001
 43
0.00000001
 40
0.0
 40
0.0
 40
0.0
 40
0.0
 40
0.2228418254649077
 40
0.4457147769688887
 40
0.6677879072905493
 40
0.8887904639768911
 40
1.0
 40
1.0
 40
1.0
 40
1.0
 10
329.5763203630389
 20
500.1944820007079
 30
0.0
 10
329.6236467076669
 20
500.1311689226673
 30
0.0
 10
329.7183060073589
 20
500.0045339231592
 30
0.0
 10
329.9308750478561
 20
499.8875685787261
 30
0.0
 10
330.1656612817062
 20
499.8444046140782
 30
0.0
 10
330.3652925217139
 20
499.8736014443556
 30
0.0
 10
330.471973464409
 20
499.9240985664752
 30
0.0
 10
330.5076854038599
 20
499.941002711883
 30
0.0
  0
LINE
  5
190
330
1F
100
AcDbEntity
  8
0
  6
Continuous
 62
     7
370
    25
100
AcDbLine
 10
338.6273224756
 20
502.3032606506
 30
0.0
 11
339.1789406495
 21
502.3277265518
 31
0.0
  0
LINE
  5
191
330
1F
100
AcDbEntity
  8
0
  6
Continuous
 62
     7
370
    25
100
AcDbLine
 10
346.9684327579
 20
500.9107491241
 30
0.0
 11
347.4760454043
 21
500.693599774
 31
0.0
  0
LINE
  5
192
330
1F
100
AcDbEntity
  8
0
  6
Continuous
 62
     7
370
    25
100
AcDbLine
 10
330.5076854039
 20
499.9410027119
 30
0.0
 11
330.994054389
 21
500.2022380901
 31
0.0
  0
LINE
  5
193
330
1F
100
AcDbEntity
  8
0
  6
Continuous
 62
     7
370
    25
100
AcDbLine
 10
353.8789570587
 20
496.0182515945
 30
0.0
 11
353.8789570592
 21
496.0392721138
 31
0.0
  0
SPLINE
  5
194
330
1F
100
AcDbEntity
  8
0
  6
Continuous
 62
     7
370
    25
100
AcDbSpline
210
0.0
220
0.0
230
1.0
 70
     8
 71
     3
 72
    10
 73
     6
 74
     0
 42
0.000000001
 43
0.00000001
 40
0.0
 40
0.0
 40
0.0
 40
0.0
 40
0.294219479138858
 40
0.7637367183411957
 40
1.0
 40
1.0
 40
1.0
 40
1.0
 10
353.7157403553309
 20
496.4990525329079
 30
0.0
 10
353.7150923411897
 20
496.4499091712192
 30
0.0
 10
353.7134102221298
 20
496.3223425332309
 30
0.0
 10
353.7824130588371
 20
496.163007796276
 30
0.0
 10
353.8547439575283
 20
496.0703048516622
 30
0.0
 10
353.8789570591725
 20
496.0392721137692
 30
0.0
  0
LINE
  5
195
330
1F
100
AcDbEntity
  8
0
  6
Continuous
 62
     7
370
    25
100
AcDbLine
 10
354.2420252479
 20
495.6235166056
 30
0.0
 11
354.2420252484
 21
495.6024960851
 31
0.0
  0
SPLINE
  5
196
330
1F
100
AcDbEntity
  8
0
  6
Continuous
 62
     7
370
    25
100
AcDbSpline
210
0.0
220
0.0
230
1.0
 70
     8
 71
     3
 72
    12
 73
     8
 74
     0
 42
0.000000001
 43
0.00000001
 40
0.0
 40
0.0
 40
0.0
 40
0.0
 40
0.220186511891674
 40
0.4403609759233552
 40
0.6608890818905886
 40
0.8823069713462273
 40
1.0
 40
1.0
 40
1.0
 40
1.0
 10
354.2420252478879
 20
495.623516605576
 30
0.0
 10
354.2994048862674
 20
495.5694735879218
 30
0.0
 10
354.4141610234071
 20
495.4613905096643
 30
0.0
 10
354.6420025147715
 20
495.3823036389817
 30
0.0
 10
354.8791400101057
 20
495.3784346329384
 30
0.0
 10
355.0721484145906
 20
495.4400224952021
 30
0.0
 10
355.1699279029169
 20
495.5087519828085
 30
0.0
 10
355.2038635962455
 20
495.5326054806532
 30
0.0
  0
LINE
  5
197
330
1F
100
AcDbEntity
  8
0
  6
Continuous
 62
     7
370
    25
100
AcDbLine
 10
324.5425036646
 20
494.7381134262
 30
0.0
 11
324.5425036626
 21
494.717092904
 31
0.0
  0
SPLINE
  5
198
330
1F
100
AcDbEntity
  8
0
  6
Continuous
 62
     7
370
    25
100
AcDbSpline
210
0.0
220
0.0
230
1.0
 70
     8
 71
     3
 72
     9
 73
     5
 74
     0
 42
0.000000001
 43
0.00000001
 40
0.0
 40
0.0
 40
0.0
 40
0.0
 40
0.5342511329223877
 40
1.0
 40
1.0
 40
1.0
 40
1.0
 10
324.5425036646237
 20
494.738113426248
 30
0.0
 10
324.5839052007454
 20
494.8060021739365
 30
0.0
 10
324.6613997226478
 20
494.9330748996732
 30
0.0
 10
324.668647852222
 20
495.0808641748768
 30
0.0
 10
324.6720236603596
 20
495.149696862369
 30
0.0
  0
LINE
  5
199
330
1F
100
AcDbEntity
  8
0
  6
Continuous
 62
     7
370
    25
100
AcDbLine
 10
324.2177152212
 20
494.2708289188
 30
0.0
 11
324.2177152234
 21
494.2918494413
 31
0.0
  0
SPLINE
  5
19A
330
1F
100
AcDbEntity
  8
0
  6
Continuous
 62
     7
370
    25
100
AcDbSpline
210
0.0
220
0.0
230
1.0
 70
     8
 71
     3
 72
    12
 73
     8
 74
     0
 42
0.000000001
 43
0.00000001
 40
0.0
 40
0.0
 40
0.0
 40
0.0
 40
0.2228418294031437
 40
0.445714784684985
 40
0.6677879189482837
 40
0.8887904795572293
 40
1.0
 40
1.0
 40
1.0
 40
1.0
 10
323.267506183905
 20
494.1161333521403
 30
0.0
 10
323.3377623381064
 20
494.0796413634977
 30
0.0
 10
323.4782844596783
 20
494.0066522891211
 30
0.0
 10
323.7208945417896
 20
493.9935153210928
 30
0.0
 10
323.9513876776578
 20
494.056483643616
 30
0.0
 10
324.1186718103878
 20
494.1693754958801
 30
0.0
 10
324.192875273295
 20
494.2611331462404
 30
0.0
 10
324.2177152234225
 20
494.2918494412687
 30
0.0
  0
SPLINE
  5
19B
330
1F
100
AcDbEntity
  8
0
  6
Continuous
 62
     7
370
    25
100
AcDbSpline
210
0.0
220
0.0
230
1.0
 70
     8
 71
     3
 72
     9
 73
     5
 74
     0
 42
0.000000001
 43
0.00000001
 40
0.0
 40
0.0
 40
0.0
 40
0.0
 40
0.4999998251605148
 40
1.0
 40
1.0
 40
1.0
 40
1.0
 10
353.8789570591725
 20
496.0392721137692
 30
0.0
 10
353.9394684027989
 20
495.9699825986535
 30
0.0
 10
354.0604911323707
 20
495.8314035199642
 30
0.0
 10
354.1815138619424
 20
495.6928122598595
 30
0.0
 10
354.2420252478879
 20
495.623516605576
 30
0.0
  0
LINE
  5
19C
330
1F
100
AcDbEntity
  8
0
  6
Continuous
 62
     7
370
    25
100
AcDbLine
 10
324.2177152234
 20
494.2918494413
 30
0.0
 11
324.5425036646
 21
494.7381134262
 31
0.0
  0
LINE
  5
19D
330
1F
100
AcDbEntity
  8
0
  6
Continuous
 62
     7
370
    25
100
AcDbLine
 10
357.9901812889
 20
488.6326648716
 30
0.0
 11
357.9901812896
 21
488.6536853893
 31
0.0
  0
SPLINE
  5
19E
330
1F
100
AcDbEntity
  8
0
  6
Continuous
 62
     7
370
    25
100
AcDbSpline
210
0.0
220
0.0
230
1.0
 70
     8
 71
     3
 72
     9
 73
     5
 74
     0
 42
0.000000001
 43
0.00000001
 40
0.0
 40
0.0
 40
0.0
 40
0.0
 40
0.36890868644072
 40
1.0
 40
1.0
 40
1.0
 40
1.0
 10
357.9732952050245
 20
488.8387571102654
 30
0.0
 10
357.970629894856
 20
488.8157497901336
 30
0.0
 10
357.9634050441911
 20
488.7533838958693
 30
0.0
 10
357.9798211977182
 20
488.6922600913497
 30
0.0
 10
357.9901812896112
 20
488.6536853892657
 30
0.0
  0
LINE
  5
19F
330
1F
100
AcDbEntity
  8
0
  6
Continuous
 62
     7
370
    25
100
AcDbLine
 10
358.1367949149
 20
488.1216691968
 30
0.0
 11
358.1367949153
 21
488.1006486767
 31
0.0
  0
SPLINE
  5
1A0
330
1F
100
AcDbEntity
  8
0
  6
Continuous
 62
     7
370
    25
100
AcDbSpline
210
0.0
220
0.0
230
1.0
 70
     8
 71
     3
 72
    12
 73
     8
 74
     0
 42
0.000000001
 43
0.00000001
 40
0.0
 40
0.0
 40
0.0
 40
0.0
 40
0.2201865101061002
 40
0.4403609736566444
 40
0.6608890791375035
 40
0.8823069680994082
 40
1.0
 40
1.0
 40
1.0
 40
1.0
 10
358.136794914927
 20
488.1216691968048
 30
0.0
 10
358.1650414549789
 20
488.0480944683953
 30
0.0
 10
358.2215329896952
 20
487.9009490369003
 30
0.0
 10
358.3926472047855
 20
487.730858599737
 30
0.0
 10
358.6048843680795
 20
487.6244852399159
 30
0.0
 10
358.8058101657672
 20
487.5962149637415
 30
0.0
 10
358.9239432877098
 20
487.6156938264247
 30
0.0
 10
358.964942985549
 20
487.62245422919
 30
0.0
  0
LINE
  5
1A1
330
1F
100
AcDbEntity
  8
0
  6
Continuous
 62
     7
370
    25
100
AcDbLine
 10
321.1020972698
 20
487.0175894966
 30
0.0
 11
321.1020972697
 21
486.996568976
 31
0.0
  0
LINE
  5
1A2
330
1F
100
AcDbEntity
  8
0
  6
Continuous
 62
     7
370
    25
100
AcDbLine
 10
321.1020972698
 20
487.0175894966
 30
0.0
 11
321.1035933354
 21
487.1429121825
 31
0.0
  0
LINE
  5
1A3
330
1F
100
AcDbEntity
  8
0
  6
Continuous
 62
     7
370
    25
100
AcDbLine
 10
321.0032177085
 20
486.4536644563
 30
0.0
 11
321.0032177079
 21
486.4746849733
 31
0.0
  0
SPLINE
  5
1A4
330
1F
100
AcDbEntity
  8
0
  6
Continuous
 62
     7
370
    25
100
AcDbSpline
210
0.0
220
0.0
230
1.0
 70
     8
 71
     3
 72
    12
 73
     8
 74
     0
 42
0.000000001
 43
0.00000001
 40
0.0
 40
0.0
 40
0.0
 40
0.0
 40
0.2228418248433411
 40
0.4457147757908794
 40
0.6677879057525646
 40
0.8887904620806861
 40
1.0
 40
1.0
 40
1.0
 40
1.0
 10
320.2223652041075
 20
485.9041060495575
 30
0.0
 10
320.3016360748329
 20
485.9017218384257
 30
0.0
 10
320.4601888886814
 20
485.8969530831403
 30
0.0
 10
320.684788110388
 20
485.9903886291029
 30
0.0
 10
320.8653361556432
 20
486.1471172679068
 30
0.0
 10
320.9671405181505
 20
486.3213894042156
 30
0.0
 10
320.9941695981121
 20
486.4362386545351
 30
0.0
 10
321.0032177078738
 20
486.4746849732562
 30
0.0
  0
LINE
  5
1A5
330
1F
100
AcDbEntity
  8
0
  6
Continuous
 62
     7
370
    25
100
AcDbLine
 10
357.9901812896
 20
488.6536853893
 30
0.0
 11
358.1367949149
 21
488.1216691968
 31
0.0
  0
LINE
  5
1A6
330
1F
100
AcDbEntity
  8
0
  6
Continuous
 62
     7
370
    25
100
AcDbLine
 10
321.0032177079
 20
486.4746849733
 30
0.0
 11
321.1020972698
 21
487.0175894966
 31
0.0
  0
SPLINE
  5
1A7
330
1F
100
AcDbEntity
  8
0
  6
Continuous
 62
     7
370
    25
100
AcDbSpline
210
0.0
220
0.0
230
1.0
 70
     8
 71
     3
 72
    12
 73
     8
 74
     0
 42
0.000000001
 43
0.00000001
 40
0.0
 40
0.0
 40
0.0
 40
0.0
 40
0.1159203793738895
 40
0.3655335975669509
 40
0.6155477419016943
 40
0.8665706395324526
 40
1.0
 40
1.0
 40
1.0
 40
1.0
 10
358.3874514406659
 20
479.5484235015238
 30
0.0
 10
358.38534036198
 20
479.5120259391195
 30
0.0
 10
358.3786834635904
 20
479.3972529199131
 30
0.0
 10
358.4518012703663
 20
479.2109411304605
 30
0.0
 10
358.594807973009
 20
479.0228224053997
 30
0.0
 10
358.7644070780864
 20
478.9102051595716
 30
0.0
 10
358.8794523836425
 20
478.8764814015753
 30
0.0
 10
358.9193804142934
 20
478.8647771148474
 30
0.0
  0
SPLINE
  5
1A8
330
1F
100
AcDbEntity
  8
0
  6
Continuous
 62
     7
370
    25
100
AcDbSpline
210
0.0
220
0.0
230
1.0
 70
     8
 71
     3
 72
    11
 73
     7
 74
     0
 42
0.000000001
 43
0.00000001
 40
0.0
 40
0.0
 40
0.0
 40
0.0
 40
0.2705106138766173
 40
0.5410590119860371
 40
0.8106364966754016
 40
1.0
 40
1.0
 40
1.0
 40
1.0
 10
321.0440249399658
 20
477.1848928164998
 30
0.0
 10
321.116773863004
 20
477.2171491990251
 30
0.0
 10
321.2622818704643
 20
477.2816664695652
 30
0.0
 10
321.4219295521089
 20
477.4632868228809
 30
0.0
 10
321.5158939352933
 20
477.6614831999281
 30
0.0
 10
321.5172075577379
 20
477.796703280907
 30
0.0
 10
321.5177495711005
 20
477.8524963979368
 30
0.0
  0
SPLINE
  5
1A9
330
1F
100
AcDbEntity
  8
0
  6
Continuous
 62
     7
370
    25
100
AcDbSpline
210
0.0
220
0.0
230
1.0
 70
     8
 71
     3
 72
    11
 73
     7
 74
     0
 42
0.000000001
 43
0.00000001
 40
0.0
 40
0.0
 40
0.0
 40
0.0
 40
0.0480055428686479
 40
0.4231429388827859
 40
0.7997939335628209
 40
1.0
 40
1.0
 40
1.0
 40
1.0
 10
354.8190211157527
 20
471.5408548640679
 30
0.0
 10
354.8176057373359
 20
471.5309261094675
 30
0.0
 10
354.8051299408526
 20
471.4434094988842
 30
0.0
 10
354.8574698535082
 20
471.2767171506713
 30
0.0
 10
354.9553549048894
 20
471.1024109392348
 30
0.0
 10
355.0450650031077
 20
471.0220350420837
 30
0.0
 10
355.076200109349
 20
470.9941394969138
 30
0.0
  0
SPLINE
  5
1AA
330
1F
100
AcDbEntity
  8
0
  6
Continuous
 62
     7
370
    25
100
AcDbSpline
210
0.0
220
0.0
230
1.0
 70
     8
 71
     3
 72
    10
 73
     6
 74
     0
 42
0.000000001
 43
0.00000001
 40
0.0
 40
0.0
 40
0.0
 40
0.0
 40
0.4210136791076651
 40
0.8420861644508802
 40
1.0
 40
1.0
 40
1.0
 40
1.0
 10
325.5697456049681
 20
469.6854407651757
 30
0.0
 10
325.6202998520494
 20
469.7459726930953
 30
0.0
 10
325.7214154075147
 20
469.8670450038967
 30
0.0
 10
325.7864219189119
 20
470.0529161348145
 30
0.0
 10
325.7776868422827
 20
470.1615745250383
 30
0.0
 10
325.7753044207909
 20
470.1912102220241
 30
0.0
  0
SPLINE
  5
1AB
330
1F
100
AcDbEntity
  8
0
  6
Continuous
 62
     7
370
    25
100
AcDbSpline
210
0.0
220
0.0
230
1.0
 70
     8
 71
     3
 72
     9
 73
     5
 74
     0
 42
0.000000001
 43
0.00000001
 40
0.0
 40
0.0
 40
0.0
 40
0.0
 40
0.5990649115028263
 40
1.0
 40
1.0
 40
1.0
 40
1.0
 10
348.1348232615886
 20
465.8723859822334
 30
0.0
 10
348.1363007320836
 20
465.8093413598443
 30
0.0
 10
348.1387670265813
 20
465.7041029771942
 30
0.0
 10
348.1800423411898
 20
465.6079634072006
 30
0.0
 10
348.1965910631051
 20
465.5694176801972
 30
0.0
  0
SPLINE
  5
1AC
330
1F
100
AcDbEntity
  8
0
  6
Continuous
 62
     7
370
    25
100
AcDbSpline
210
0.0
220
0.0
230
1.0
 70
     8
 71
     3
 72
     9
 73
     5
 74
     0
 42
0.000000001
 43
0.00000001
 40
0.0
 40
0.0
 40
0.0
 40
0.0
 40
0.9500905779034097
 40
1.0
 40
1.0
 40
1.0
 40
1.0
 10
332.9031527153101
 20
464.8911083512467
 30
0.0
 10
332.9303815648304
 20
464.9683159525786
 30
0.0
 10
332.9590407791766
 20
465.0495793638024
 30
0.0
 10
332.9458264113883
 20
465.1317239864258
 30
0.0
 10
332.9451668899286
 20
465.1358237770693
 30
0.0
  0
ARC
  5
1AD
330
1F
100
AcDbEntity
  8
0
  6
Continuous
 62
     7
370
    25
100
AcDbCircle
 10
339.7550859287
 20
482.9506305327
 30
0.0
 40
8.901700546664296
100
AcDbArc
 50
341.3299690021
 51
37.3974797056
  0
SPLINE
  5
1AE
330
1F
100
AcDbEntity
  8
0
  6
Continuous
 62
     7
370
    25
100
AcDbSpline
210
0.0
220
0.0
230
1.0
 70
     8
 71
     3
 72
     9
 73
     5
 74
     0
 42
0.000000001
 43
0.00000001
 40
0.0
 40
0.0
 40
0.0
 40
0.0
 40
0.7838603439235496
 40
1.0
 40
1.0
 40
1.0
 40
1.0
 10
348.1484793262061
 20
479.7701503005212
 30
0.0
 10
348.164456612483
 20
479.7668112595844
 30
0.0
 10
348.1848394350111
 20
479.7625515199985
 30
0.0
 10
348.1573453868979
 20
479.7761422444714
 30
0.0
 10
348.1514028327945
 20
479.7790797389848
 30
0.0
  0
SPLINE
  5
1AF
330
1F
100
AcDbEntity
  8
0
  6
Continuous
 62
     7
370
    25
100
AcDbSpline
210
0.0
220
0.0
230
1.0
 70
     8
 71
     3
 72
    19
 73
    15
 74
     0
 42
0.000000001
 43
0.00000001
 40
0.0
 40
0.0
 40
0.0
 40
0.0
 40
0.0903184215816006
 40
0.2045631923303851
 40
0.2714198874793264
 40
0.3439361549146855
 40
0.4207855040565426
 40
0.5000000000000002
 40
0.579214495943458
 40
0.6560638450853151
 40
0.7285801125206741
 40
0.7954368076696157
 40
0.9096815784183995
 40
1.0
 40
1.0
 40
1.0
 40
1.0
 10
332.0713255602535
 20
485.7972220226119
 30
0.0
 10
332.4047779590331
 20
486.4995919352213
 30
0.0
 10
333.1600179863727
 20
488.0903973213671
 30
0.0
 10
334.9485627806909
 20
489.6897167619836
 30
0.0
 10
336.8970106171074
 20
490.6651688148904
 30
0.0
 10
338.7107928414538
 20
491.1153580420648
 30
0.0
 10
340.6858075932851
 20
491.1337900942405
 30
0.0
 10
342.6645397580531
 20
490.6589484777757
 30
0.0
 10
344.4653529841233
 20
489.7117904999658
 30
0.0
 10
345.9378759857706
 20
488.3962719519971
 30
0.0
 10
347.0042920883199
 20
486.8624495285646
 30
0.0
 10
347.8253365560637
 20
484.8450158282327
 30
0.0
 10
348.1145060806135
 20
482.4639862577126
 30
0.0
 10
347.6325234396598
 20
480.770371710043
 30
0.0
 10
347.4197192158659
 20
480.0226096568085
 30
0.0
  0
LINE
  5
1B0
330
1F
100
AcDbEntity
  8
0
  6
Continuous
 62
     7
370
    25
100
AcDbLine
 10
331.3240509137
 20
486.1080162061
 30
0.0
 11
331.3417423157
 21
486.0937953457
 31
0.0
  0
SPLINE
  5
1B1
330
1F
100
AcDbEntity
  8
0
  6
Continuous
 62
     7
370
    25
100
AcDbSpline
210
0.0
220
0.0
230
1.0
 70
     8
 71
     3
 72
    19
 73
    15
 74
     0
 42
0.000000001
 43
0.00000001
 40
0.0
 40
0.0
 40
0.0
 40
0.0
 40
0.0903184215815974
 40
0.2045631923303823
 40
0.2714198874793243
 40
0.3439361549146839
 40
0.4207855040565414
 40
0.4999999999999997
 40
0.5792144959434581
 40
0.6560638450853156
 40
0.728580112520675
 40
0.7954368076696171
 40
0.909681578418402
 40
1.0
 40
1.0
 40
1.0
 40
1.0
 10
347.4197192158659
 20
480.0226096568085
 30
0.0
 10
347.0862668170864
 20
479.3202397441991
 30
0.0
 10
346.3310267897468
 20
477.7294343580534
 30
0.0
 10
344.5424819954286
 20
476.130114917437
 30
0.0
 10
342.5940341590122
 20
475.1546628645301
 30
0.0
 10
340.7802519346657
 20
474.7044736373556
 30
0.0
 10
338.8052371828344
 20
474.68604158518
 30
0.0
 10
336.8265050180664
 20
475.1608832016448
 30
0.0
 10
335.0256917919962
 20
476.1080411794548
 30
0.0
 10
333.5531687903489
 20
477.4235597274235
 30
0.0
 10
332.4867526877997
 20
478.957382150856
 30
0.0
 10
331.6657082200558
 20
480.9748158511878
 30
0.0
 10
331.376538695506
 20
483.3558454217078
 30
0.0
 10
331.8585213364597
 20
485.0494599693775
 30
0.0
 10
332.0713255602535
 20
485.7972220226119
 30
0.0
  0
ARC
  5
1B2
330
1F
100
AcDbEntity
  8
0
  6
Continuous
 62
     7
370
    25
100
AcDbCircle
 10
339.736872919
 20
482.9506410172
 30
0.0
 40
8.90255262278128
100
AcDbArc
 50
161.4374023459
 51
228.2950033055
  0
CIRCLE
  5
1B3
330
1F
100
AcDbEntity
  8
0
  6
Continuous
 62
     7
370
    25
100
AcDbCircle
 10
339.7686446025
 20
482.6916190702
 30
0.0
 40
56.97697941190894
  0
SPLINE
  5
1B4
330
1F
100
AcDbEntity
  8
0
  6
Continuous
 62
     7
370
    25
100
AcDbSpline
210
0.0
220
0.0
230
1.0
 70
     8
 71
     3
 72
    35
 73
    31
 74
     0
 42
0.000000001
 43
0.00000001
 40
0.0
 40
0.0
 40
0.0
 40
0.0
 40
0.0282546077220518
 40
0.0583834426637931
 40
0.0903495399278264
 40
0.1258616479012815
 40
0.1640104750491873
 40
0.2048405213069449
 40
0.2374624815847434
 40
0.2716127104071182
 40
0.3071914351681349
 40
0.3440550017625766
 40
0.3820151215667328
 40
0.4208413631481724
 40
0.4602672732901844
 40
0.5000000044809542
 40
0.539732735671724
 40
0.5791586458137359
 40
0.6179848873951757
 40
0.6559450071993317
 40
0.6928085737937735
 40
0.72838729855479
 40
0.762537527377165
 40
0.7951594876549634
 40
0.8359928376182012
 40
0.8741415922595379
 40
0.9096504660940501
 40
0.9416198397637142
 40
0.9717470283705453
 40
1.0
 40
1.0
 40
1.0
 40
1.0
 10
383.9662206837976
 20
481.0146969520757
 30
0.0
 10
383.9820859759443
 20
482.3232919240064
 30
0.0
 10
384.0148689607055
 20
485.0272855616252
 30
0.0
 10
383.5824432604566
 20
489.1962848925982
 30
0.0
 10
382.7078952384196
 20
493.6351076577471
 30
0.0
 10
381.2491761336063
 20
498.3133526909818
 30
0.0
 10
379.0949363979112
 20
503.1692725439602
 30
0.0
 10
376.4228002775722
 20
507.6086552493463
 30
0.0
 10
373.3744060070354
 20
511.5592911404904
 30
0.0
 10
370.0961761079062
 20
514.9941992341048
 30
0.0
 10
366.3107725410463
 20
518.177444768323
 30
0.0
 10
362.0401458479534
 20
521.0087079029624
 30
0.0
 10
357.3316125154545
 20
523.3882345893113
 30
0.0
 10
352.258379314384
 20
525.2249258176963
 30
0.0
 10
346.9174275008228
 20
526.4444672281859
 30
0.0
 10
341.4242593880238
 20
526.9967589059651
 30
0.0
 10
335.9050300598461
 20
526.8611890584627
 30
0.0
 10
330.4870929918
 20
526.0487764230626
 30
0.0
 10
325.2894106568953
 20
524.60074848995
 30
0.0
 10
320.4143096665121
 20
522.5838776032082
 30
0.0
 10
315.9416804235697
 20
520.0834693128934
 30
0.0
 10
311.926251451998
 20
517.1954164716409
 30
0.0
 10
308.3975029579886
 20
514.0180916469748
 30
0.0
 10
305.0588013948665
 20
510.3090355740438
 30
0.0
 10
302.0583573054262
 20
506.0841567717801
 30
0.0
 10
299.5428742556763
 20
501.4049351968533
 30
0.0
 10
297.734399830239
 20
496.8503108210499
 30
0.0
 10
296.5264886617049
 20
492.49036415936
 30
0.0
 10
295.7799483153342
 20
488.3659660426273
 30
0.0
 10
295.6080257182992
 20
485.6673916297386
 30
0.0
 10
295.5248240923218
 20
484.3614214847659
 30
0.0
  0
SPLINE
  5
1B5
330
1F
100
AcDbEntity
  8
0
  6
Continuous
 62
     7
370
    25
100
AcDbSpline
210
0.0
220
0.0
230
1.0
 70
     8
 71
     3
 72
    35
 73
    31
 74
     0
 42
0.000000001
 43
0.00000001
 40
0.0
 40
0.0
 40
0.0
 40
0.0
 40
0.0282546077224735
 40
0.0583834426636164
 40
0.0903495399278295
 40
0.1258616479030818
 40
0.1640104750499181
 40
0.2048405213069402
 40
0.2374624815847386
 40
0.2716127104071136
 40
0.3071914351681302
 40
0.3440550017625721
 40
0.3820151215667283
 40
0.4208413631481679
 40
0.46026727329018
 40
0.5000000044809498
 40
0.5397327356717198
 40
0.5791586458137318
 40
0.6179848873951714
 40
0.6559450071993276
 40
0.6928085737937696
 40
0.7283872985547861
 40
0.7625375273771611
 40
0.7951594876549596
 40
0.8359928376182576
 40
0.8741415922594711
 40
0.9096504660940459
 40
0.9416198397647845
 40
0.9717470283710179
 40
1.0
 40
1.0
 40
1.0
 40
1.0
 10
295.5248240923218
 20
484.3614214847659
 30
0.0
 10
295.5089588001715
 20
483.0528265128154
 30
0.0
 10
295.4761758154033
 20
480.3488328752042
 30
0.0
 10
295.9086015156842
 20
476.1798335442346
 30
0.0
 10
296.7831495377104
 20
471.7410107790198
 30
0.0
 10
298.2418686425434
 20
467.0627657457434
 30
0.0
 10
300.3961083782891
 20
462.2068458927902
 30
0.0
 10
303.0682444985637
 20
457.7674631874647
 30
0.0
 10
306.1166387690854
 20
453.8168272963509
 30
0.0
 10
309.3948686682131
 20
450.3819192027356
 30
0.0
 10
313.1802722350735
 20
447.1986736685178
 30
0.0
 10
317.4508989281662
 20
444.3674105338781
 30
0.0
 10
322.1594322606651
 20
441.9878838475294
 30
0.0
 10
327.2326654617357
 20
440.1511926191442
 30
0.0
 10
332.5736172752968
 20
438.9316512086546
 30
0.0
 10
338.0667853880959
 20
438.3793595308755
 30
0.0
 10
343.5860147162736
 20
438.5149293783779
 30
0.0
 10
349.0039517843197
 20
439.3273420137781
 30
0.0
 10
354.2016341192244
 20
440.7753699468906
 30
0.0
 10
359.0767351096075
 20
442.7922408336326
 30
0.0
 10
363.5493643525499
 20
445.2926491239471
 30
0.0
 10
367.5647933241215
 20
448.1807019651998
 30
0.0
 10
371.0935418181313
 20
451.3580267898657
 30
0.0
 10
374.432243381254
 20
455.0670828627995
 30
0.0
 10
377.4326874706978
 20
459.2919616650576
 30
0.0
 10
379.948170520438
 20
463.9711832399898
 30
0.0
 10
381.7566449458974
 20
468.525807615834
 30
0.0
 10
382.9645561144382
 20
472.8857542775496
 30
0.0
 10
383.7110964607816
 20
477.0101523942866
 30
0.0
 10
383.8830190578188
 20
479.7087268071251
 30
0.0
 10
383.9662206837976
 20
481.0146969520757
 30
0.0
  0
ARC
  5
1B6
330
1F
100
AcDbEntity
  8
0
  6
Continuous
 62
     7
370
    25
100
AcDbCircle
 10
339.7455223881
 20
482.6817113511
 30
0.0
 40
57.00000653167702
100
AcDbArc
 50
0.0274291616
 51
179.9725708384
  0
SPLINE
  5
1B7
330
1F
100
AcDbEntity
  8
0
  6
Continuous
 62
     7
370
    25
100
AcDbSpline
210
0.0
220
0.0
230
1.0
 70
     8
 71
     3
 72
    11
 73
     7
 74
     0
 42
0.000000001
 43
0.00000001
 40
0.0
 40
0.0
 40
0.0
 40
0.0
 40
0.2706996604071849
 40
0.5623161110113845
 40
0.7892984430189769
 40
1.0
 40
1.0
 40
1.0
 40
1.0
 10
295.5248240923218
 20
484.3614214847541
 30
0.0
 10
296.065681679005
 20
484.3432541909139
 30
0.0
 10
297.1891885733144
 20
484.3055158280192
 30
0.0
 10
298.4790183503709
 20
484.2919661618463
 30
0.0
 10
299.2523555667557
 20
484.306772177332
 30
0.0
 10
299.3652903586262
 20
484.3328436139847
 30
0.0
 10
299.4196573049157
 20
484.3453944353278
 30
0.0
  0
SPLINE
  5
1B8
330
1F
100
AcDbEntity
  8
0
  6
Continuous
 62
     7
370
    25
100
AcDbSpline
210
0.0
220
0.0
230
1.0
 70
     8
 71
     3
 72
    11
 73
     7
 74
     0
 42
0.000000001
 43
0.00000001
 40
0.0
 40
0.0
 40
0.0
 40
0.0
 40
0.2706996603325227
 40
0.5623161109123229
 40
0.7892984429590888
 40
0.9999999999999999
 40
0.9999999999999999
 40
0.9999999999999999
 40
0.9999999999999999
 10
380.0713874712038
 20
481.293439871582
 30
0.0
 10
380.1560616499472
 20
481.2714382732398
 30
0.0
 10
380.3319527272659
 20
481.2257350270722
 30
0.0
 10
381.3859292444526
 20
481.1420626339498
 30
0.0
 10
382.6740139819443
 20
481.0678660740764
 30
0.0
 10
383.5463007646741
 20
481.0319749722006
 30
0.0
 10
383.9662206837976
 20
481.014696952064
 30
0.0
  0
ARC
  5
1B9
330
1F
100
AcDbEntity
  8
0
  6
Continuous
 62
     7
370
    25
100
AcDbCircle
 10
339.744788222
 20
482.8000158926
 30
0.0
 40
40.35473179587058
100
AcDbArc
 50
357.8604612602
 51
177.8053298811
  0
ARC
  5
1BA
330
1F
100
AcDbEntity
  8
0
  6
Continuous
 62
     7
370
    25
100
AcDbCircle
 10
339.7462565542
 20
482.8388184143
 30
0.0
 40
40.35473179587062
100
AcDbArc
 50
177.8604612602
 51
357.8053298811
  0
ARC
  5
1BB
330
1F
100
AcDbEntity
  8
0
  6
Continuous
 62
     7
370
    25
100
AcDbCircle
 10
339.7454730392
 20
483.210448649
 30
0.0
 40
39.94254135242635
100
AcDbArc
 50
12.5965153481
 51
167.0162012623
  0
LINE
  5
1BC
330
1F
100
AcDbEntity
  8
0
  6
Continuous
 62
     7
370
    25
100
AcDbLine
 10
323.9910112698
 20
469.963123443
 30
0.0
 11
323.9910112698
 21
469.9421837449
 31
0.0
  0
CIRCLE
  5
1BD
330
1F
100
AcDbEntity
  8
0
  6
Continuous
 62
     7
370
    25
100
AcDbCircle
 10
339.7455223881
 20
392.8508955224
 30
0.0
 40
220.0
  0
CIRCLE
  5
1BE
330
1F
100
AcDbEntity
  8
0
  6
Continuous
 62
     7
370
    25
100
AcDbCircle
 10
339.7455223881
 20
392.8508955224
 30
0.0
 40
201.8654700538378
  0
CIRCLE
  5
1BF
330
1F
100
AcDbEntity
  8
0
  6
Continuous
 62
     7
370
    25
100
AcDbCircle
 10
339.7455223881
 20
392.8508955224
 30
0.0
 40
200.9994446500534
  0
CIRCLE
  5
1C0
330
1F
100
AcDbEntity
  8
0
  6
Continuous
 62
     7
370
    25
100
AcDbCircle
 10
339.7455223881
 20
392.8508955224
 30
0.0
 40
199.5560689770793
  0
CIRCLE
  5
1C1
330
1F
100
AcDbEntity
  8
0
  6
Continuous
 62
     7
370
    25
100
AcDbCircle
 10
339.7455223881
 20
392.8508955224
 30
0.0
 40
198.690043573295
  0
CIRCLE
  5
1C2
330
1F
100
AcDbEntity
  8
0
  6
Continuous
 62
     7
370
    25
100
AcDbCircle
 10
339.7455223881
 20
392.8508955224
 30
0.0
 40
197.2856511802025
  0
CIRCLE
  5
1C3
330
1F
100
AcDbEntity
  8
0
  6
Continuous
 62
     7
370
    25
100
AcDbCircle
 10
339.7455223881
 20
392.8508955224
 30
0.0
 40
192.2925035064296
  0
SPLINE
  5
1C4
330
1F
100
AcDbEntity
  8
0
  6
Continuous
 62
     7
370
    25
100
AcDbSpline
210
0.0
220
0.0
230
1.0
 70
     8
 71
     3
 72
    20
 73
    16
 74
     0
 42
0.000000001
 43
0.00000001
 40
0.0
 40
0.0
 40
0.0
 40
0.0
 40
0.125
 40
0.125
 40
0.25
 40
0.25
 40
0.375
 40
0.375
 40
0.5
 40
0.5
 40
0.625
 40
0.625
 40
0.75
 40
0.75
 40
1.0
 40
1.0
 40
1.0
 40
1.0
 10
350.0455223880597
 20
582.8366537364134
 30
0.0
 10
349.9297512365766
 20
582.8342250906749
 30
0.0
 10
349.796494598033
 20
582.8335446161387
 30
0.0
 10
349.4962092047389
 20
582.8353371458078
 30
0.0
 10
349.3278306864304
 20
582.8378751539358
 30
0.0
 10
348.9741155469653
 20
582.8457124564829
 30
0.0
 10
348.7846206583812
 20
582.8510865699935
 30
0.0
 10
348.3946030035855
 20
582.8642344802131
 30
0.0
 10
348.1967635900094
 20
582.8718908787409
 30
0.0
 10
347.7954293367691
 20
582.8893108884456
 30
0.0
 10
347.5945008854055
 20
582.8989877066571
 30
0.0
 10
347.2075205063437
 20
582.9195444792832
 30
0.0
 10
347.0168258755486
 20
582.9306847121233
 30
0.0
 10
346.4857837512851
 20
582.9650226758764
 30
0.0
 10
346.1766301975989
 20
582.9897138031952
 30
0.0
 10
345.9455223880597
 20
583.0146100532052
 30
0.0
  0
LINE
  5
1C5
330
1F
100
AcDbEntity
  8
0
  6
Continuous
 62
     7
370
    25
100
AcDbLine
 10
350.0455223881
 20
583.8789923748
 30
0.0
 11
350.0455223881
 21
582.8366537364
 31
0.0
  0
SPLINE
  5
1C6
330
1F
100
AcDbEntity
  8
0
  6
Continuous
 62
     7
370
    25
100
AcDbSpline
210
0.0
220
0.0
230
1.0
 70
     8
 71
     3
 72
    20
 73
    16
 74
     0
 42
0.000000001
 43
0.00000001
 40
0.0
 40
0.0
 40
0.0
 40
0.0
 40
0.1249999999999999
 40
0.1249999999999999
 40
0.2499999999999998
 40
0.2499999999999998
 40
0.3749999999999997
 40
0.3749999999999997
 40
0.4999999999999996
 40
0.4999999999999996
 40
0.6249999999999994
 40
0.6249999999999994
 40
0.7499999999999993
 40
0.7499999999999993
 40
1.0
 40
1.0
 40
1.0
 40
1.0
 10
345.9455223880597
 20
584.0559785799943
 30
0.0
 10
346.0612950597721
 20
584.0609215940304
 30
0.0
 10
346.1945663307048
 20
584.0642926679243
 30
0.0
 10
346.4949312588844
 20
584.0677753403796
 30
0.0
 10
346.6633712598158
 20
584.0678284398346
 30
0.0
 10
347.0172402139146
 20
584.064368411505
 30
0.0
 10
347.2068481317181
 20
584.0608338296769
 30
0.0
 10
347.5970423406367
 20
584.0502114563028
 30
0.0
 10
347.7949633668997
 20
584.0432366151432
 30
0.0
 10
348.196442891039
 20
584.0259099805237
 30
0.0
 10
348.3973505574585
 20
584.0156323779768
 30
0.0
 10
348.784300174912
 20
583.9927496884457
 30
0.0
 10
348.974938372956
 20
583.9798533705957
 30
0.0
 10
349.5056419907325
 20
583.9392060714986
 30
0.0
 10
349.8145512939142
 20
583.9088130870015
 30
0.0
 10
350.0455223880597
 20
583.8789923748304
 30
0.0
  0
LINE
  5
1C7
330
1F
100
AcDbEntity
  8
0
  6
Continuous
 62
     7
370
    25
100
AcDbLine
 10
345.9455223881
 20
583.0146100532
 30
0.0
 11
345.9455223881
 21
584.05597858
 31
0.0
  0
SPLINE
  5
1C8
330
1F
100
AcDbEntity
  8
0
  6
Continuous
 62
     7
370
    25
100
AcDbSpline
210
0.0
220
0.0
230
1.0
 70
     8
 71
     3
 72
    20
 73
    16
 74
     0
 42
0.000000001
 43
0.00000001
 40
0.0
 40
0.0
 40
0.0
 40
0.0
 40
0.1250000000000001
 40
0.1250000000000001
 40
0.2500000000000002
 40
0.2500000000000002
 40
0.3750000000000003
 40
0.3750000000000003
 40
0.5000000000000004
 40
0.5000000000000004
 40
0.6250000000000006
 40
0.6250000000000006
 40
0.7500000000000007
 40
0.7500000000000007
 40
1.0
 40
1.0
 40
1.0
 40
1.0
 10
357.1455223880598
 20
582.3183553252737
 30
0.0
 10
357.0295434818421
 20
582.3202617957678
 30
0.0
 10
356.8960517263129
 20
582.3245843871304
 30
0.0
 10
356.5952939611169
 20
582.3376632472753
 30
0.0
 10
356.426712588606
 20
582.3465338055269
 30
0.0
 10
356.0726968033801
 20
582.3676724888774
 30
0.0
 10
355.8830489950664
 20
582.3801755832959
 30
0.0
 10
355.4930944785197
 20
582.4079712360726
 30
0.0
 10
355.2953085833852
 20
582.423056596959
 30
0.0
 10
354.8941240969197
 20
582.4555435410765
 30
0.0
 10
354.6934508467806
 20
582.4727482226689
 30
0.0
 10
354.3068048464596
 20
582.5078144700201
 30
0.0
 10
354.1162798852077
 20
582.5261033848999
 30
0.0
 10
353.5857204331484
 20
582.5803454188705
 30
0.0
 10
353.2766663257054
 20
582.6166379572978
 30
0.0
 10
353.0455223880597
 20
582.6502325184854
 30
0.0
  0
LINE
  5
1C9
330
1F
100
AcDbEntity
  8
0
  6
Continuous
 62
     7
370
    25
100
AcDbLine
 10
357.1455223881
 20
583.3635297152
 30
0.0
 11
357.1455223881
 21
582.3183553253
 31
0.0
  0
SPLINE
  5
1CA
330
1F
100
AcDbEntity
  8
0
  6
Continuous
 62
     7
370
    25
100
AcDbSpline
210
0.0
220
0.0
230
1.0
 70
     8
 71
     3
 72
    20
 73
    16
 74
     0
 42
0.000000001
 43
0.00000001
 40
0.0
 40
0.0
 40
0.0
 40
0.0
 40
0.1249999999999999
 40
0.1249999999999999
 40
0.2499999999999998
 40
0.2499999999999998
 40
0.3749999999999997
 40
0.3749999999999997
 40
0.4999999999999996
 40
0.4999999999999996
 40
0.6249999999999994
 40
0.6249999999999994
 40
0.7499999999999993
 40
0.7499999999999993
 40
1.0
 40
1.0
 40
1.0
 40
1.0
 10
353.0455223880597
 20
583.6935893491786
 30
0.0
 10
353.1615311607161
 20
583.6942359265781
 30
0.0
 10
353.2950838315812
 20
583.6926476541053
 30
0.0
 10
353.5960536258518
 20
583.6849333238679
 30
0.0
 10
353.7647737367212
 20
583.6786994823931
 30
0.0
 10
354.119096010485
 20
583.6620238233212
 30
0.0
 10
354.3089528973324
 20
583.6513997918281
 30
0.0
 10
354.69917197977
 20
583.6262086130429
 30
0.0
 10
354.8970735801506
 20
583.6118421173327
 30
0.0
 10
355.2984466237309
 20
583.5795184164314
 30
0.0
 10
355.4990293013105
 20
583.5617555212992
 30
0.0
 10
355.8855553138338
 20
583.5244351804647
 30
0.0
 10
356.0759559637409
 20
583.5044258599693
 30
0.0
 10
356.6059079602972
 20
583.44398141624
 30
0.0
 10
356.914581495456
 20
583.4020338772553
 30
0.0
 10
357.1455223880598
 20
583.3635297151525
 30
0.0
  0
LINE
  5
1CB
330
1F
100
AcDbEntity
  8
0
  6
Continuous
 62
     7
370
    25
100
AcDbLine
 10
353.0455223881
 20
582.6502325185
 30
0.0
 11
353.0455223881
 21
583.6935893492
 31
0.0
  0
SPLINE
  5
1CC
330
1F
100
AcDbEntity
  8
0
  6
Continuous
 62
     7
370
    25
100
AcDbSpline
210
0.0
220
0.0
230
1.0
 70
     8
 71
     3
 72
    20
 73
    16
 74
     0
 42
0.000000001
 43
0.00000001
 40
0.0
 40
0.0
 40
0.0
 40
0.0
 40
0.1250000000000005
 40
0.1250000000000005
 40
0.250000000000001
 40
0.250000000000001
 40
0.3750000000000015
 40
0.3750000000000015
 40
0.500000000000002
 40
0.500000000000002
 40
0.6250000000000024
 40
0.6250000000000024
 40
0.750000000000003
 40
0.750000000000003
 40
1.0
 40
1.0
 40
1.0
 40
1.0
 10
364.2455223880597
 20
581.5316532168548
 30
0.0
 10
364.129264194148
 20
581.5379470072193
 30
0.0
 10
363.9954663868494
 20
581.5473372337874
 30
0.0
 10
363.6941317968605
 20
581.5718439295085
 30
0.0
 10
363.5253167619509
 20
581.5871216384913
 30
0.0
 10
363.1709921114335
 20
581.6217048315569
 30
0.0
 10
362.9812221814541
 20
581.641410165501
 30
0.0
 10
362.5914324346815
 20
581.6839712446603
 30
0.0
 10
362.3937642909224
 20
581.706542196833
 30
0.0
 10
361.99288659518
 20
581.7542039935465
 30
0.0
 10
361.7925284651231
 20
581.7789788458183
 30
0.0
 10
361.4063278144748
 20
581.8286484292612
 30
0.0
 10
361.216012677807
 20
581.8541335176241
 30
0.0
 10
360.6859069203293
 20
581.9284325208132
 30
0.0
 10
360.3768396076501
 20
581.9764448475837
 30
0.0
 10
360.1455223880598
 20
582.0188587829732
 30
0.0
  0
LINE
  5
1CD
330
1F
100
AcDbEntity
  8
0
  6
Continuous
 62
     7
370
    25
100
AcDbLine
 10
364.2455223881
 20
582.5811613923
 30
0.0
 11
364.2455223881
 21
581.5316532169
 31
0.0
  0
SPLINE
  5
1CE
330
1F
100
AcDbEntity
  8
0
  6
Continuous
 62
     7
370
    25
100
AcDbSpline
210
0.0
220
0.0
230
1.0
 70
     8
 71
     3
 72
    20
 73
    16
 74
     0
 42
0.000000001
 43
0.00000001
 40
0.0
 40
0.0
 40
0.0
 40
0.0
 40
0.1249999999999996
 40
0.1249999999999996
 40
0.2499999999999993
 40
0.2499999999999993
 40
0.3749999999999989
 40
0.3749999999999989
 40
0.4999999999999986
 40
0.4999999999999986
 40
0.6249999999999982
 40
0.6249999999999982
 40
0.7499999999999978
 40
0.7499999999999978
 40
1.0
 40
1.0
 40
1.0
 40
1.0
 10
360.1455223880598
 20
583.0656788255427
 30
0.0
 10
360.2618387141367
 20
583.061987607667
 30
0.0
 10
360.3957442510828
 20
583.055385517557
 30
0.0
 10
360.6974258734576
 20
583.0363481480509
 30
0.0
 10
360.8664582935693
 20
583.0237588144767
 30
0.0
 10
361.2212455304264
 20
582.9937322367258
 30
0.0
 10
361.4113210231091
 20
582.9759460810917
 30
0.0
 10
361.8014665623315
 20
582.9360724255314
 30
0.0
 10
361.9992858736646
 20
582.9142581181773
 30
0.0
 10
362.4003975765955
 20
582.8668278028181
 30
0.0
 10
362.6005937593667
 20
582.8415413670826
 30
0.0
 10
362.9865858085662
 20
582.7896890803652
 30
0.0
 10
363.1767080876636
 20
582.7625186841179
 30
0.0
 10
363.705932225555
 20
582.6821214386598
 30
0.0
 10
364.0144788191499
 20
582.628487526709
 30
0.0
 10
364.2455223880597
 20
582.5811613922964
 30
0.0
  0
LINE
  5
1CF
330
1F
100
AcDbEntity
  8
0
  6
Continuous
 62
     7
370
    25
100
AcDbLine
 10
360.1455223881
 20
582.018858783
 30
0.0
 11
360.1455223881
 21
583.0656788255
 31
0.0
  0
SPLINE
  5
1D0
330
1F
100
AcDbEntity
  8
0
  6
Continuous
 62
     7
370
    25
100
AcDbSpline
210
0.0
220
0.0
230
1.0
 70
     8
 71
     3
 72
    22
 73
    18
 74
     0
 42
0.000000001
 43
0.00000001
 40
0.0
 40
0.0
 40
0.0
 40
0.0
 40
0.125
 40
0.125
 40
0.25
 40
0.25
 40
0.375
 40
0.375
 40
0.5
 40
0.5
 40
0.625
 40
0.625
 40
0.75
 40
0.75
 40
0.875
 40
0.875
 40
1.0
 40
1.0
 40
1.0
 40
1.0
 10
315.2455223880597
 20
582.5811613922963
 30
0.0
 10
315.3610600850208
 20
582.6048277189633
 30
0.0
 10
315.4938988092173
 20
582.6297059784762
 30
0.0
 10
315.7928198655632
 20
582.6815696260574
 30
0.0
 10
315.9604021054732
 20
582.7087410723236
 30
0.0
 10
316.3124374604604
 20
582.762239613217
 30
0.0
 10
316.5006390287076
 20
582.789162948681
 30
0.0
 10
316.8896047480284
 20
582.8414405084638
 30
0.0
 10
317.0868989871261
 20
582.8663620989505
 30
0.0
 10
317.4870958040254
 20
582.9137287407752
 30
0.0
 10
317.6886637380372
 20
582.9359667725296
 30
0.0
 10
318.0762164534913
 20
582.9755996814796
 30
0.0
 10
318.2673135596334
 20
582.9935107551283
 30
0.0
 10
318.6235693741596
 20
583.0236837366248
 30
0.0
 10
318.7889849318851
 20
583.0360293900136
 30
0.0
 10
319.0936921746056
 20
583.0553098246864
 30
0.0
 10
319.2291922996907
 20
583.0619871709301
 30
0.0
 10
319.3455223880597
 20
583.0656788255427
 30
0.0
  0
LINE
  5
1D1
330
1F
100
AcDbEntity
  8
0
  6
Continuous
 62
     7
370
    25
100
AcDbLine
 10
315.2455223881
 20
581.5316532169
 30
0.0
 11
315.2455223881
 21
582.5811613923
 31
0.0
  0
SPLINE
  5
1D2
330
1F
100
AcDbEntity
  8
0
  6
Continuous
 62
     7
370
    25
100
AcDbSpline
210
0.0
220
0.0
230
1.0
 70
     8
 71
     3
 72
    22
 73
    18
 74
     0
 42
0.000000001
 43
0.00000001
 40
0.0
 40
0.0
 40
0.0
 40
0.0
 40
0.125
 40
0.125
 40
0.25
 40
0.25
 40
0.375
 40
0.375
 40
0.5
 40
0.5
 40
0.625
 40
0.625
 40
0.75
 40
0.75
 40
0.875
 40
0.875
 40
1.0
 40
1.0
 40
1.0
 40
1.0
 10
319.3455223880597
 20
582.0188587829732
 30
0.0
 10
319.229852106219
 20
581.9976496751118
 30
0.0
 10
319.0968175847766
 20
581.9753735813089
 30
0.0
 10
318.7973926492318
 20
581.9285485146912
 30
0.0
 10
318.6295333467343
 20
581.9038267498688
 30
0.0
 10
318.2769988324603
 20
581.8544024794654
 30
0.0
 10
318.0884864478129
 20
581.82914117079
 30
0.0
 10
317.699341743088
 20
581.7790771537533
 30
0.0
 10
317.5019952132057
 20
581.7546734658031
 30
0.0
 10
317.1017843712655
 20
581.7070646802609
 30
0.0
 10
316.9004803720689
 20
581.6840735204327
 30
0.0
 10
316.5133166881373
 20
581.6417842733424
 30
0.0
 10
316.322424652027
 20
581.6219438779797
 30
0.0
 10
315.9667459659972
 20
581.5872135321976
 30
0.0
 10
315.801541321639
 20
581.5722413774771
 30
0.0
 10
315.497118989004
 20
581.547441910933
 30
0.0
 10
315.3617890877983
 20
581.5379474676934
 30
0.0
 10
315.2455223880597
 20
581.5316532168548
 30
0.0
  0
LINE
  5
1D3
330
1F
100
AcDbEntity
  8
0
  6
Continuous
 62
     7
370
    25
100
AcDbLine
 10
319.3455223881
 20
583.0656788255
 30
0.0
 11
319.3455223881
 21
582.018858783
 31
0.0
  0
SPLINE
  5
1D4
330
1F
100
AcDbEntity
  8
0
  6
Continuous
 62
     7
370
    25
100
AcDbSpline
210
0.0
220
0.0
230
1.0
 70
     8
 71
     3
 72
    22
 73
    18
 74
     0
 42
0.000000001
 43
0.00000001
 40
0.0
 40
0.0
 40
0.0
 40
0.0
 40
0.1249999999999994
 40
0.1249999999999994
 40
0.2499999999999989
 40
0.2499999999999989
 40
0.3749999999999983
 40
0.3749999999999983
 40
0.4999999999999978
 40
0.4999999999999978
 40
0.6249999999999983
 40
0.6249999999999983
 40
0.7499999999999989
 40
0.7499999999999989
 40
0.8749999999999994
 40
0.8749999999999994
 40
1.0
 40
1.0
 40
1.0
 40
1.0
 10
322.3455223880597
 20
583.3635297151525
 30
0.0
 10
322.4610024526398
 20
583.382783399834
 30
0.0
 10
322.593830079473
 20
583.4026107862771
 30
0.0
 10
322.8929201253629
 20
583.4431515959542
 30
0.0
 10
323.0606515591254
 20
583.463990159392
 30
0.0
 10
323.4130941048567
 20
583.5042081091569
 30
0.0
 10
323.601667266965
 20
583.5240529566648
 30
0.0
 10
323.991078679228
 20
583.5616780890242
 30
0.0
 10
324.1886196021644
 20
583.5791751337298
 30
0.0
 10
324.5893612304728
 20
583.6114932575601
 30
0.0
 10
324.7908881871796
 20
583.6261324106603
 30
0.0
 10
325.1784745140126
 20
583.6511787576711
 30
0.0
 10
325.3695629274542
 20
583.6619006120338
 30
0.0
 10
325.7251959930641
 20
583.6786597063934
 30
0.0
 10
325.8903576602914
 20
583.6847895652162
 30
0.0
 10
326.1946450788528
 20
583.6926384371277
 30
0.0
 10
326.3295036596359
 20
583.6942359820669
 30
0.0
 10
326.4455223880597
 20
583.6935893491785
 30
0.0
  0
LINE
  5
1D5
330
1F
100
AcDbEntity
  8
0
  6
Continuous
 62
     7
370
    25
100
AcDbLine
 10
322.3455223881
 20
582.3183553253
 30
0.0
 11
322.3455223881
 21
583.3635297152
 31
0.0
  0
SPLINE
  5
1D6
330
1F
100
AcDbEntity
  8
0
  6
Continuous
 62
     7
370
    25
100
AcDbSpline
210
0.0
220
0.0
230
1.0
 70
     8
 71
     3
 72
    22
 73
    18
 74
     0
 42
0.000000001
 43
0.00000001
 40
0.0
 40
0.0
 40
0.0
 40
0.0
 40
0.125
 40
0.125
 40
0.25
 40
0.25
 40
0.375
 40
0.375
 40
0.5
 40
0.5
 40
0.625
 40
0.625
 40
0.75
 40
0.75
 40
0.875
 40
0.875
 40
1.0
 40
1.0
 40
1.0
 40
1.0
 10
326.4455223880597
 20
582.6502325184854
 30
0.0
 10
326.3299435181963
 20
582.6334342348912
 30
0.0
 10
326.1969718909429
 20
582.616216021878
 30
0.0
 10
325.8975182705166
 20
582.5807491631576
 30
0.0
 10
325.7295907272534
 20
582.5623861474492
 30
0.0
 10
325.3768021184032
 20
582.5263047735576
 30
0.0
 10
325.1880187588857
 20
582.5081652965773
 30
0.0
 10
324.7985081139207
 20
582.4728231187078
 30
0.0
 10
324.6009441281753
 20
582.4558828937788
 30
0.0
 10
324.2002209974058
 20
582.423406506487
 30
0.0
 10
323.9988946295447
 20
582.4080463461537
 30
0.0
 10
323.6115925841971
 20
582.3804242526925
 30
0.0
 10
323.4206561594953
 20
582.367817804132
 30
0.0
 10
323.0654036877842
 20
582.3465903661543
 30
0.0
 10
322.9003783738385
 20
582.3378845544706
 30
0.0
 10
322.5962716899043
 20
582.3246203053864
 30
0.0
 10
322.461507712798
 20
582.3202619012759
 30
0.0
 10
322.3455223880597
 20
582.3183553252737
 30
0.0
  0
LINE
  5
1D7
330
1F
100
AcDbEntity
  8
0
  6
Continuous
 62
     7
370
    25
100
AcDbLine
 10
326.4455223881
 20
583.6935893492
 30
0.0
 11
326.4455223881
 21
582.6502325185
 31
0.0
  0
SPLINE
  5
1D8
330
1F
100
AcDbEntity
  8
0
  6
Continuous
 62
     7
370
    25
100
AcDbSpline
210
0.0
220
0.0
230
1.0
 70
     8
 71
     3
 72
    20
 73
    16
 74
     0
 42
0.000000001
 43
0.00000001
 40
0.0
 40
0.0
 40
0.0
 40
0.0
 40
0.1249999999999999
 40
0.1249999999999999
 40
0.2499999999999998
 40
0.2499999999999998
 40
0.3749999999999998
 40
0.3749999999999998
 40
0.4999999999999997
 40
0.4999999999999997
 40
0.6249999999999996
 40
0.6249999999999996
 40
0.7499999999999996
 40
0.7499999999999996
 40
1.0
 40
1.0
 40
1.0
 40
1.0
 10
329.4455223880597
 20
583.8789923748304
 30
0.0
 10
329.5610121190564
 20
583.893903271103
 30
0.0
 10
329.6938951639531
 20
583.9087482439345
 30
0.0
 10
329.9932523911829
 20
583.9380919940952
 30
0.0
 10
330.1611619778299
 20
583.952657581346
 30
0.0
 10
330.5140212715624
 20
583.979703696962
 30
0.0
 10
330.7029384199189
 20
583.9925113463697
 30
0.0
 10
331.0926982125032
 20
584.0155865750861
 30
0.0
 10
331.2904248325468
 20
584.0257065968801
 30
0.0
 10
331.6915630290919
 20
584.0430642346886
 30
0.0
 10
331.8929803228461
 20
584.0501706943498
 30
0.0
 10
332.2804975619833
 20
584.0607459084574
 30
0.0
 10
332.4715123831987
 20
584.0643352858834
 30
0.0
 10
333.0040858399084
 20
584.0695746218736
 30
0.0
 10
333.3139648408292
 20
584.0658651291186
 30
0.0
 10
333.5455223880597
 20
584.0559785799943
 30
0.0
  0
LINE
  5
1D9
330
1F
100
AcDbEntity
  8
0
  6
Continuous
 62
     7
370
    25
100
AcDbLine
 10
329.4455223881
 20
582.8366537364
 30
0.0
 11
329.4455223881
 21
583.8789923748
 31
0.0
  0
SPLINE
  5
1DA
330
1F
100
AcDbEntity
  8
0
  6
Continuous
 62
     7
370
    25
100
AcDbSpline
210
0.0
220
0.0
230
1.0
 70
     8
 71
     3
 72
    20
 73
    16
 74
     0
 42
0.000000001
 43
0.00000001
 40
0.0
 40
0.0
 40
0.0
 40
0.0
 40
0.1250000000000001
 40
0.1250000000000001
 40
0.2500000000000002
 40
0.2500000000000002
 40
0.3750000000000003
 40
0.3750000000000003
 40
0.5000000000000004
 40
0.5000000000000004
 40
0.6250000000000006
 40
0.6250000000000006
 40
0.7500000000000007
 40
0.7500000000000007
 40
1.0
 40
1.0
 40
1.0
 40
1.0
 10
333.5455223880597
 20
583.014610053205
 30
0.0
 10
333.4299655922034
 20
583.0021616167559
 30
0.0
 10
333.2969879108559
 20
582.989940646447
 30
0.0
 10
332.9974029077268
 20
582.9657172266905
 30
0.0
 10
332.8293759065803
 20
582.9536567988256
 30
0.0
 10
332.4763213780234
 20
582.9308136131588
 30
0.0
 10
332.2872926354431
 20
582.9197528479526
 30
0.0
 10
331.8975144853283
 20
582.8990311750996
 30
0.0
 10
331.6997950106737
 20
582.8895060110872
 30
0.0
 10
331.2987105294781
 20
582.8720697192018
 30
0.0
 10
331.0974289225185
 20
582.8642757571704
 30
0.0
 10
330.710096758734
 20
582.8512024752212
 30
0.0
 10
330.519175364875
 20
582.8457696378543
 30
0.0
 10
329.986891324923
 20
582.8339536299206
 30
0.0
 10
329.677072914285
 20
582.8317962724291
 30
0.0
 10
329.4455223880597
 20
582.8366537364134
 30
0.0
  0
LINE
  5
1DB
330
1F
100
AcDbEntity
  8
0
  6
Continuous
 62
     7
370
    25
100
AcDbLine
 10
333.5455223881
 20
584.05597858
 30
0.0
 11
333.5455223881
 21
583.0146100532
 31
0.0
  0
SPLINE
  5
1DC
330
1F
100
AcDbEntity
  8
0
  6
Continuous
 62
     7
370
    25
100
AcDbSpline
210
0.0
220
0.0
230
1.0
 70
    11
 71
     3
 72
    68
 73
    64
 74
     0
 42
0.000000001
 43
0.00000001
 40
0.0
 40
0.0
 40
0.0
 40
0.0
 40
0.03125
 40
0.03125
 40
0.0625000000000001
 40
0.0625000000000001
 40
0.0937500000000001
 40
0.0937500000000001
 40
0.1250000000000001
 40
0.1250000000000001
 40
0.1562500000000001
 40
0.1562500000000001
 40
0.1875000000000002
 40
0.1875000000000002
 40
0.2187500000000002
 40
0.2187500000000002
 40
0.2500000000000002
 40
0.2500000000000002
 40
0.2812500000000002
 40
0.2812500000000002
 40
0.3125000000000002
 40
0.3125000000000002
 40
0.3437500000000001
 40
0.3437500000000001
 40
0.3750000000000001
 40
0.3750000000000001
 40
0.4062500000000001
 40
0.4062500000000001
 40
0.4375000000000001
 40
0.4375000000000001
 40
0.46875
 40
0.46875
 40
0.5
 40
0.5
 40
0.53125
 40
0.53125
 40
0.5625
 40
0.5625
 40
0.5937500000000001
 40
0.5937500000000001
 40
0.6250000000000001
 40
0.6250000000000001
 40
0.6562500000000001
 40
0.6562500000000001
 40
0.6875000000000001
 40
0.6875000000000001
 40
0.7187500000000002
 40
0.7187500000000002
 40
0.7500000000000002
 40
0.7500000000000002
 40
0.7812500000000002
 40
0.7812500000000002
 40
0.8125000000000002
 40
0.8125000000000002
 40
0.8437500000000003
 40
0.8437500000000003
 40
0.8750000000000003
 40
0.8750000000000003
 40
0.9062500000000002
 40
0.9062500000000002
 40
0.9375000000000001
 40
0.9375000000000001
 40
1.0
 40
1.0
 40
1.0
 40
1.0
 10
337.5541425675674
 20
583.5085564493173
 30
0.0
 10
337.4092411432089
 20
583.5144809354323
 30
0.0
 10
337.2809927567522
 20
583.5210520545761
 30
0.0
 10
337.0564205239139
 20
583.5356164726235
 30
0.0
 10
336.9593223186288
 20
583.5437081172685
 30
0.0
 10
336.803812256227
 20
583.5610472227256
 30
0.0
 10
336.7452005985362
 20
583.5702465423245
 30
0.0
 10
336.6658919688125
 20
583.5897984086886
 30
0.0
 10
336.6455962858135
 20
583.6002250092477
 30
0.0
 10
336.6454489024552
 20
583.6214089137908
 30
0.0
 10
336.6649494289222
 20
583.6322619638072
 30
0.0
 10
336.7440092158136
 20
583.6544651813118
 30
0.0
 10
336.8033278414788
 20
583.6656525067385
 30
0.0
 10
336.9573713252567
 20
583.6875111955517
 30
0.0
 10
337.0531575249589
 20
583.698342928542
 30
0.0
 10
337.2793946917527
 20
583.7191843379223
 30
0.0
 10
337.4074894270024
 20
583.7290029296377
 30
0.0
 10
337.6928378495667
 20
583.7472856464825
 30
0.0
 10
337.8520745263792
 20
583.7558238948563
 30
0.0
 10
338.1889477813379
 20
583.7706919921905
 30
0.0
 10
338.3668865740872
 20
583.7770807959586
 30
0.0
 10
338.7418751780362
 20
583.7875994219197
 30
0.0
 10
338.9390113143729
 20
583.7916896918713
 30
0.0
 10
339.3354331013481
 20
583.7971101526621
 30
0.0
 10
339.5368202954631
 20
583.7985089943372
 30
0.0
 10
339.9461906660184
 20
583.7985454059997
 30
0.0
 10
340.1483527809053
 20
583.7971755729363
 30
0.0
 10
340.5448151817349
 20
583.7918210112339
 30
0.0
 10
340.7415972615728
 20
583.7877757532347
 30
0.0
 10
341.1176164450642
 20
583.7772990425802
 30
0.0
 10
341.2958162834908
 20
583.7709323836402
 30
0.0
 10
341.6328688510112
 20
583.7561286662288
 30
0.0
 10
341.792555627169
 20
583.7476075412517
 30
0.0
 10
342.078821392053
 20
583.7293450007337
 30
0.0
 10
342.2072007608465
 20
583.7195435795896
 30
0.0
 10
342.4338809238638
 20
583.6987607804143
 30
0.0
 10
342.530467382716
 20
583.6878992632478
 30
0.0
 10
342.6853892892747
 20
583.6660473169849
 30
0.0
 10
342.7449913765702
 20
583.6549013295489
 30
0.0
 10
342.8251699625646
 20
583.6326547453541
 30
0.0
 10
342.8451153915732
 20
583.6217913894684
 30
0.0
 10
342.8459171708156
 20
583.6006062597953
 30
0.0
 10
342.8261602344203
 20
583.5901781941717
 30
0.0
 10
342.7477145063773
 20
583.5705809132044
 30
0.0
 10
342.6895291192765
 20
583.5613705309127
 30
0.0
 10
342.5351470369737
 20
583.5440251500966
 30
0.0
 10
342.4383247883198
 20
583.535899697428
 30
0.0
 10
342.2144491797469
 20
583.5212955312239
 30
0.0
 10
342.0866501156286
 20
583.5147138190322
 30
0.0
 10
341.7982164590643
 20
583.5028526755784
 30
0.0
 10
341.6410432410308
 20
583.497724805515
 30
0.0
 10
341.3056016547408
 20
583.488963332576
 30
0.0
 10
341.1248568568661
 20
583.485279132191
 30
0.0
 10
340.748847399872
 20
583.4794259441368
 30
0.0
 10
340.5555301824724
 20
583.4772669160074
 30
0.0
 10
340.1584464386709
 20
583.4743535912877
 30
0.0
 10
339.9528660147752
 20
583.4736106122641
 30
0.0
 10
339.5477744665378
 20
583.4735879506501
 30
0.0
 10
339.3465934466852
 20
583.4742842101377
 30
0.0
 10
338.9470049912828
 20
583.4771513743276
 30
0.0
 10
338.7504611906008
 20
583.4793267283131
 30
0.0
 10
338.1901103343727
 20
583.4879634015169
 30
0.0
 10
337.8439454162844
 20
583.4967074770873
 30
0.0
 10
337.5541425675673
 20
583.5085564493172
 30
0.0
  0
SPLINE
  5
1DD
330
1F
100
AcDbEntity
  8
0
  6
Continuous
 62
     7
370
    25
100
AcDbSpline
210
0.0
220
0.0
230
1.0
 70
    11
 71
     3
 72
   200
 73
   196
 74
     0
 42
0.000000001
 43
0.00000001
 40
0.0
 40
0.0
 40
0.0
 40
0.0
 40
0.0156249999999993
 40
0.0156249999999993
 40
0.0195312499999992
 40
0.0195312499999992
 40
0.023437499999999
 40
0.023437499999999
 40
0.0312499999999987
 40
0.0312499999999987
 40
0.046874999999998
 40
0.046874999999998
 40
0.0624999999999974
 40
0.0624999999999974
 40
0.0703124999999971
 40
0.0703124999999971
 40
0.0781249999999967
 40
0.0781249999999967
 40
0.093749999999996
 40
0.093749999999996
 40
0.1093749999999954
 40
0.1093749999999954
 40
0.117187499999995
 40
0.117187499999995
 40
0.1210937499999949
 40
0.1210937499999949
 40
0.1249999999999947
 40
0.1249999999999947
 40
0.1406249999999941
 40
0.1406249999999941
 40
0.1562499999999934
 40
0.1562499999999934
 40
0.1718749999999929
 40
0.1718749999999929
 40
0.1757812499999928
 40
0.1757812499999928
 40
0.1796874999999926
 40
0.1796874999999926
 40
0.1874999999999925
 40
0.1874999999999925
 40
0.2031249999999922
 40
0.2031249999999922
 40
0.2187499999999919
 40
0.2187499999999919
 40
0.2265624999999918
 40
0.2265624999999918
 40
0.2304687499999917
 40
0.2304687499999917
 40
0.2343749999999916
 40
0.2343749999999916
 40
0.2499999999999913
 40
0.2499999999999913
 40
0.265624999999991
 40
0.265624999999991
 40
0.2812499999999907
 40
0.2812499999999907
 40
0.2890624999999905
 40
0.2890624999999905
 40
0.2968749999999903
 40
0.2968749999999903
 40
0.3124999999999901
 40
0.3124999999999901
 40
0.3281249999999898
 40
0.3281249999999898
 40
0.3359374999999897
 40
0.3359374999999897
 40
0.3398437499999896
 40
0.3398437499999896
 40
0.3437499999999896
 40
0.3437499999999896
 40
0.3593749999999893
 40
0.3593749999999893
 40
0.3749999999999891
 40
0.3749999999999891
 40
0.3906249999999889
 40
0.3906249999999889
 40
0.3945312499999889
 40
0.3945312499999889
 40
0.3984374999999889
 40
0.3984374999999889
 40
0.406249999999989
 40
0.406249999999989
 40
0.4218749999999892
 40
0.4218749999999892
 40
0.4374999999999894
 40
0.4374999999999894
 40
0.4453124999999895
 40
0.4453124999999895
 40
0.4492187499999896
 40
0.4492187499999896
 40
0.4531249999999896
 40
0.4531249999999896
 40
0.4687499999999899
 40
0.4687499999999899
 40
0.4843749999999901
 40
0.4843749999999901
 40
0.4999999999999903
 40
0.4999999999999903
 40
0.5078124999999905
 40
0.5078124999999905
 40
0.5156249999999906
 40
0.5156249999999906
 40
0.5312499999999908
 40
0.5312499999999908
 40
0.546874999999991
 40
0.546874999999991
 40
0.5507812499999911
 40
0.5507812499999911
 40
0.5546874999999911
 40
0.5546874999999911
 40
0.5624999999999912
 40
0.5624999999999912
 40
0.5781249999999915
 40
0.5781249999999915
 40
0.5937499999999917
 40
0.5937499999999917
 40
0.6015624999999918
 40
0.6015624999999918
 40
0.6054687499999919
 40
0.6054687499999919
 40
0.6093749999999919
 40
0.6093749999999919
 40
0.624999999999992
 40
0.624999999999992
 40
0.6406249999999922
 40
0.6406249999999922
 40
0.6562499999999923
 40
0.6562499999999923
 40
0.6601562499999923
 40
0.6601562499999923
 40
0.6640624999999925
 40
0.6640624999999925
 40
0.6718749999999926
 40
0.6718749999999926
 40
0.6874999999999928
 40
0.6874999999999928
 40
0.703124999999993
 40
0.703124999999993
 40
0.7109374999999931
 40
0.7109374999999931
 40
0.7187499999999933
 40
0.7187499999999933
 40
0.7343749999999937
 40
0.7343749999999937
 40
0.749999999999994
 40
0.749999999999994
 40
0.7656249999999943
 40
0.7656249999999943
 40
0.7695312499999944
 40
0.7695312499999944
 40
0.7734374999999944
 40
0.7734374999999944
 40
0.7812499999999947
 40
0.7812499999999947
 40
0.796874999999995
 40
0.796874999999995
 40
0.8124999999999953
 40
0.8124999999999953
 40
0.8203124999999956
 40
0.8203124999999956
 40
0.8242187499999957
 40
0.8242187499999957
 40
0.8281249999999957
 40
0.8281249999999957
 40
0.8437499999999961
 40
0.8437499999999961
 40
0.8593749999999966
 40
0.8593749999999966
 40
0.874999999999997
 40
0.874999999999997
 40
0.8789062499999971
 40
0.8789062499999971
 40
0.8828124999999972
 40
0.8828124999999972
 40
0.8906249999999973
 40
0.8906249999999973
 40
0.9062499999999977
 40
0.9062499999999977
 40
0.921874999999998
 40
0.921874999999998
 40
0.9296874999999982
 40
0.9296874999999982
 40
0.9374999999999984
 40
0.9374999999999984
 40
0.9531249999999989
 40
0.9531249999999989
 40
0.9687499999999993
 40
0.9687499999999993
 40
0.9765624999999996
 40
0.9765624999999996
 40
0.9804687499999996
 40
0.9804687499999996
 40
0.9843749999999997
 40
0.9843749999999997
 40
1.0
 40
1.0
 40
1.0
 40
1.0
 10
524.7681905124894
 20
372.9867210216516
 30
0.0
 10
525.4227716283207
 20
379.0972455258
 30
0.0
 10
525.77357398873
 20
385.2239295092691
 30
0.0
 10
525.8327920794602
 20
392.9024586170818
 30
0.0
 10
525.8255811798206
 20
394.4391126840171
 30
0.0
 10
525.773363315761
 20
397.5031317080297
 30
0.0
 10
525.728378469997
 20
399.031919167141
 30
0.0
 10
525.5373815657391
 20
403.6087152064636
 30
0.0
 10
525.3353620961202
 20
406.6471634158877
 30
0.0
 10
524.508613621808
 20
415.7248358011307
 30
0.0
 10
523.6637139388962
 20
421.7264764055806
 30
0.0
 10
521.3914528833797
 20
433.6303256423333
 30
0.0
 10
519.9641079640173
 20
439.532537094259
 30
0.0
 10
517.3773294976367
 20
448.3097547151542
 30
0.0
 10
516.4406437079907
 20
451.2227879908975
 30
0.0
 10
514.4152240627649
 20
457.0228964983364
 30
0.0
 10
513.3337862433195
 20
459.8888155903826
 30
0.0
 10
509.8928377734061
 20
468.3716713996004
 30
0.0
 10
507.3348991401721
 20
473.8804757040192
 30
0.0
 10
501.7021474544846
 20
484.6113520906598
 30
0.0
 10
498.6273174475284
 20
489.8334147642472
 30
0.0
 10
493.6244202051466
 20
497.4497917976611
 30
0.0
 10
491.8915639695349
 20
499.9524007928657
 30
0.0
 10
489.1929951093322
 20
503.6512349494375
 30
0.0
 10
488.2769170195568
 20
504.8749954977652
 30
0.0
 10
486.4113128997585
 20
507.3039608418019
 30
0.0
 10
485.4606891094929
 20
508.5105152892073
 30
0.0
 10
480.6360314715827
 20
514.4802211158013
 30
0.0
 10
476.571934534883
 20
519.0261953390763
 30
0.0
 10
468.0487061363789
 20
527.673970900447
 30
0.0
 10
463.5895368181817
 20
531.7757295345516
 30
0.0
 10
454.2780452844424
 20
539.537195054483
 30
0.0
 10
449.4257407708804
 20
543.1969215832855
 30
0.0
 10
443.1087263291319
 20
547.4886617394319
 30
0.0
 10
441.8327126192193
 20
548.3328311657596
 30
0.0
 10
439.2551948755064
 20
549.9925112691042
 30
0.0
 10
437.9520342404931
 20
550.8089945020032
 30
0.0
 10
434.0236171345824
 20
553.2030837757795
 30
0.0
 10
431.3755050974875
 20
554.7281331697266
 30
0.0
 10
423.3453859370234
 20
559.09445190143
 30
0.0
 10
417.8777986795663
 20
561.7273842095766
 30
0.0
 10
406.7182603711762
 20
566.4471784749617
 30
0.0
 10
401.026305809091
 20
568.5340317597497
 30
0.0
 10
392.3182112935704
 20
571.2502880480912
 30
0.0
 10
389.3871025770974
 20
572.0865813340173
 30
0.0
 10
384.9471153338528
 20
573.2356282773312
 30
0.0
 10
383.4598954841858
 20
573.6010701543422
 30
0.0
 10
380.4708468843335
 20
574.2964186533503
 30
0.0
 10
378.9694809547095
 20
574.6261489862104
 30
0.0
 10
371.4679780420078
 20
576.1768685750645
 30
0.0
 10
365.4506745703663
 20
577.1127390693051
 30
0.0
 10
353.3848247796867
 20
578.3934557671546
 30
0.0
 10
347.3362760630695
 20
578.738258599482
 30
0.0
 10
335.2079702470722
 20
578.8375971725866
 30
0.0
 10
329.1282151408972
 20
578.5921710811358
 30
0.0
 10
319.9845229529961
 20
577.7689203904222
 30
0.0
 10
316.9256142884747
 20
577.4172412597882
 30
0.0
 10
310.8621822667185
 20
576.5679517810484
 30
0.0
 10
307.8518736285132
 20
576.070172408496
 30
0.0
 10
298.8840338467358
 20
574.3612731670233
 30
0.0
 10
292.9894401588593
 20
572.9351000614781
 30
0.0
 10
281.365890835667
 20
569.5165550442978
 30
0.0
 10
275.6369347492539
 20
567.5241836353335
 30
0.0
 10
267.1696047237394
 20
564.1044104244022
 30
0.0
 10
264.3682159827378
 20
562.8924896135121
 30
0.0
 10
260.1983038803752
 20
560.9645834296914
 30
0.0
 10
258.812124880125
 20
560.3028204742118
 30
0.0
 10
256.0581627221222
 20
558.9458924304734
 30
0.0
 10
254.692401637661
 20
558.25177847454
 30
0.0
 10
247.9190662807654
 20
554.7038345509654
 30
0.0
 10
242.6774889226992
 20
551.6184572718563
 30
0.0
 10
232.5392351857467
 20
544.9665481023342
 30
0.0
 10
227.6425787871021
 20
541.3999887663721
 30
0.0
 10
218.1950087460966
 20
533.7845131929599
 30
0.0
 10
213.6440666175309
 20
529.7356369723295
 30
0.0
 10
208.1783234630933
 20
524.3635128636419
 30
0.0
 10
207.0949943247473
 20
523.2720585174535
 30
0.0
 10
204.9614173200429
 20
521.0685466390833
 30
0.0
 10
203.9103588783103
 20
519.9557652078399
 30
0.0
 10
200.8038637359804
 20
516.5847019350722
 30
0.0
 10
198.7950779210838
 20
514.2937216405178
 30
0.0
 10
192.952372023451
 20
507.2920566704645
 30
0.0
 10
189.30167116641
 20
502.4529508398323
 30
0.0
 10
182.4840989293436
 20
492.435621898865
 30
0.0
 10
179.3172180669436
 20
487.2574054648298
 30
0.0
 10
174.9365017842545
 20
479.231030246228
 30
0.0
 10
173.537973631967
 20
476.5123198207544
 30
0.0
 10
171.5346438501673
 20
472.3680478132055
 30
0.0
 10
170.8828011297893
 20
470.9758026416328
 30
0.0
 10
169.6178901542514
 20
468.1848140609837
 30
0.0
 10
169.0038706983192
 20
466.7841387192528
 30
0.0
 10
166.0250008511663
 20
459.7551247295788
 30
0.0
 10
163.9331589582152
 20
454.0500636029266
 30
0.0
 10
160.3187155562996
 20
442.479975859692
 30
0.0
 10
158.7961377276941
 20
436.6149425789215
 30
0.0
 10
156.3235918475549
 20
424.7239693774533
 30
0.0
 10
155.3735665999853
 20
418.6980455173633
 30
0.0
 10
154.393203058728
 20
409.5342078574714
 30
0.0
 10
154.1432055909002
 20
406.4818110794261
 30
0.0
 10
153.7943394106171
 20
400.3892032102357
 30
0.0
 10
153.6953331317933
 20
397.3476830963706
 30
0.0
 10
153.6214016803722
 20
388.2372723015112
 30
0.0
 10
153.8690389573069
 20
382.1824978808653
 30
0.0
 10
154.9542079649978
 20
370.1103666652778
 30
0.0
 10
155.7917177092936
 20
364.0930084676614
 30
0.0
 10
157.2155197015692
 20
356.5952205092665
 30
0.0
 10
157.5191693165661
 20
355.0968611644514
 30
0.0
 10
158.1646326870508
 20
352.1025634760695
 30
0.0
 10
158.5068840091375
 20
350.6048419558608
 30
0.0
 10
159.5883815496834
 20
346.1284163000441
 30
0.0
 10
160.3802574859396
 20
343.1741518915912
 30
0.0
 10
162.9641584449828
 20
334.3995706191907
 30
0.0
 10
164.9639621837175
 20
328.6672563019741
 30
0.0
 10
169.5073977611878
 20
317.4329619841059
 30
0.0
 10
172.0510423848383
 20
311.9309873937528
 30
0.0
 10
176.2783046155591
 20
303.8524393131388
 30
0.0
 10
177.7561458995657
 20
301.1887103054395
 30
0.0
 10
180.0776672700428
 20
297.23748723733
 30
0.0
 10
180.8689758307455
 20
295.92781142673
 30
0.0
 10
182.486902975008
 20
293.3234152427227
 30
0.0
 10
183.3145688440156
 20
292.0271597706931
 30
0.0
 10
187.5206221398198
 20
285.6161536753347
 30
0.0
 10
191.1121098157122
 20
280.6934433252365
 30
0.0
 10
198.7340656897393
 20
271.2472003950265
 30
0.0
 10
202.7645714103785
 20
266.7237019325173
 30
0.0
 10
211.263320591972
 20
258.0747533515725
 30
0.0
 10
215.7315398448794
 20
253.949281218031
 30
0.0
 10
221.5975437467854
 20
249.0477176633632
 30
0.0
 10
222.7848137527655
 20
248.0801985487679
 30
0.0
 10
225.1878070291709
 20
246.171033790432
 30
0.0
 10
226.4031069951812
 20
245.2298088244884
 30
0.0
 10
230.0713377535195
 20
242.4606301807032
 30
0.0
 10
232.5532012869869
 20
240.6818121584957
 30
0.0
 10
240.1058888966734
 20
235.5435017816812
 30
0.0
 10
245.2835570551311
 20
232.3816851704553
 30
0.0
 10
255.919570645306
 20
226.5773425222335
 30
0.0
 10
261.3779177115641
 20
223.9348195083158
 30
0.0
 10
269.7787402799707
 20
220.3656724244503
 30
0.0
 10
272.6146277373468
 20
219.2418460825075
 30
0.0
 10
278.3588899404882
 20
217.1283046954551
 30
0.0
 10
281.2740182510693
 20
216.1367833975124
 30
0.0
 10
290.0390813212691
 20
213.3953541448956
 30
0.0
 10
295.9304348150211
 20
211.8685192591759
 30
0.0
 10
307.8064159298247
 20
209.3996042240913
 30
0.0
 10
313.7910498255767
 20
208.4575634116533
 30
0.0
 10
325.8536602911667
 20
207.1586663400818
 30
0.0
 10
331.9316300234539
 20
206.8017672148193
 30
0.0
 10
339.5891742877111
 20
206.7323104479664
 30
0.0
 10
341.1255521079008
 20
206.7373330294371
 30
0.0
 10
344.1952793525322
 20
206.7854222003521
 30
0.0
 10
345.7267127088317
 20
206.8284058204528
 30
0.0
 10
350.310837483335
 20
207.0135360706085
 30
0.0
 10
353.353360030628
 20
207.211826625554
 30
0.0
 10
362.4409284643355
 20
208.0275401607459
 30
0.0
 10
368.4460693151632
 20
208.8652850714388
 30
0.0
 10
380.3511419000196
 20
211.1216507739716
 30
0.0
 10
386.2510748548195
 20
212.5402648260994
 30
0.0
 10
395.0207332327326
 20
215.1112091358247
 30
0.0
 10
397.9305554217286
 20
216.04215896681
 30
0.0
 10
402.2747986906406
 20
217.551712225629
 30
0.0
 10
403.7211949057503
 20
218.0744466051324
 30
0.0
 10
406.5925285937698
 20
219.1525181256584
 30
0.0
 10
408.0187178159042
 20
219.708240291668
 30
0.0
 10
415.1027853759082
 20
222.5693860068019
 30
0.0
 10
420.6203757063843
 20
225.1218021464543
 30
0.0
 10
431.3635258275714
 20
230.7407863040598
 30
0.0
 10
436.5890711632846
 20
233.8073797725545
 30
0.0
 10
446.7468779437204
 20
240.4569249203247
 30
0.0
 10
451.6791661989788
 20
244.0398293981495
 30
0.0
 10
457.6550531061723
 20
248.8520482998154
 30
0.0
 10
458.8402742575551
 20
249.830926832946
 30
0.0
 10
461.1785279771842
 20
251.811178454218
 30
0.0
 10
462.3332287960191
 20
252.813877260784
 30
0.0
 10
465.7544982034011
 20
255.8593047514697
 30
0.0
 10
467.9782604238944
 20
257.9393412528744
 30
0.0
 10
474.4808570160688
 20
264.3264721881269
 30
0.0
 10
478.5913980462088
 20
268.7802422892119
 30
0.0
 10
486.3671789151631
 20
278.0758830322318
 30
0.0
 10
490.0324316970386
 20
282.9177423961684
 30
0.0
 10
495.1894639495928
 20
290.4775946760477
 30
0.0
 10
496.8515653861974
 20
293.0471444307497
 30
0.0
 10
500.0594971238544
 20
298.2875792860964
 30
0.0
 10
501.5929571401437
 20
300.9383649713238
 30
0.0
 10
505.9810257844579
 20
308.9717823731456
 30
0.0
 10
508.6261958565871
 20
314.4391437342791
 30
0.0
 10
513.3677790366607
 20
325.5927141212827
 30
0.0
 10
515.464174652182
 20
331.2789301276636
 30
0.0
 10
518.1939574235682
 20
339.9736820631419
 30
0.0
 10
519.0346277221183
 20
342.8995527550613
 30
0.0
 10
520.1902010911257
 20
347.3304053122361
 30
0.0
 10
520.5578120022672
 20
348.8143671873763
 30
0.0
 10
521.2575134979126
 20
351.7964564854561
 30
0.0
 10
521.5898453045189
 20
353.2957607007103
 30
0.0
 10
523.1586699582226
 20
360.813758251362
 30
0.0
 10
524.113609396658
 20
366.8761965175029
 30
0.0
 10
524.7681905124894
 20
372.9867210216516
 30
0.0
  0
SPLINE
  5
1DE
330
1F
100
AcDbEntity
  8
0
  6
Continuous
 62
     7
370
    25
100
AcDbSpline
210
0.0
220
0.0
230
1.0
 70
     8
 71
     3
 72
    22
 73
    18
 74
     0
 42
0.000000001
 43
0.00000001
 40
0.0
 40
0.0
 40
0.0
 40
0.0
 40
0.125
 40
0.125
 40
0.25
 40
0.25
 40
0.375
 40
0.375
 40
0.5
 40
0.5
 40
0.625
 40
0.625
 40
0.75
 40
0.75
 40
0.875
 40
0.875
 40
1.0
 40
1.0
 40
1.0
 40
1.0
 10
319.3455223880597
 20
582.8245817794112
 30
0.0
 10
319.2298540434392
 20
582.8034263558635
 30
0.0
 10
319.0968212064392
 20
582.7812122008842
 30
0.0
 10
318.7973975978556
 20
582.7345277428086
 30
0.0
 10
318.629538166279
 20
582.7098854070218
 30
0.0
 10
318.277001409323
 20
582.6606299361075
 30
0.0
 10
318.088485926438
 20
582.6354597018777
 30
0.0
 10
317.6993361497969
 20
582.5855865861673
 30
0.0
 10
317.5019864691582
 20
582.5612809231278
 30
0.0
 10
317.1017679421947
 20
582.5138735542487
 30
0.0
 10
316.9004626672858
 20
582.4909854141987
 30
0.0
 10
316.5132956640653
 20
582.4488966879046
 30
0.0
 10
316.3224021845282
 20
582.4291564978447
 30
0.0
 10
315.9667281263337
 20
582.3946155436277
 30
0.0
 10
315.8015255371409
 20
582.3797323470451
 30
0.0
 10
315.4971070809788
 20
582.3550980618916
 30
0.0
 10
315.3617850323097
 20
582.3456781631946
 30
0.0
 10
315.2455223880597
 20
582.3394478681217
 30
0.0
  0
SPLINE
  5
1DF
330
1F
100
AcDbEntity
  8
0
  6
Continuous
 62
     7
370
    25
100
AcDbSpline
210
0.0
220
0.0
230
1.0
 70
     8
 71
     3
 72
    20
 73
    16
 74
     0
 42
0.000000001
 43
0.00000001
 40
0.0
 40
0.0
 40
0.0
 40
0.0
 40
0.1249999999999998
 40
0.1249999999999998
 40
0.2499999999999995
 40
0.2499999999999995
 40
0.3749999999999992
 40
0.3749999999999992
 40
0.499999999999999
 40
0.499999999999999
 40
0.6249999999999988
 40
0.6249999999999988
 40
0.7499999999999984
 40
0.7499999999999984
 40
1.0
 40
1.0
 40
1.0
 40
1.0
 10
364.2455223880597
 20
582.3394478681217
 30
0.0
 10
364.1292682339357
 20
582.3456777082249
 30
0.0
 10
363.9954747048046
 20
582.3549945068557
 30
0.0
 10
363.6941476715371
 20
582.379337400853
 30
0.0
 10
363.5253354548578
 20
582.3945241148083
 30
0.0
 10
363.1710139493074
 20
582.4289187656798
 30
0.0
 10
362.9812447802803
 20
582.448524236371
 30
0.0
 10
362.5914514661481
 20
582.4908834302296
 30
0.0
 10
362.393781041929
 20
582.5133533330759
 30
0.0
 10
361.9928978055132
 20
582.5608130756701
 30
0.0
 10
361.7925354882772
 20
582.5854885144169
 30
0.0
 10
361.4063286934924
 20
582.6349687570569
 30
0.0
 10
361.2160109262271
 20
582.6603618112454
 30
0.0
 10
360.6859012090225
 20
582.7344070465551
 30
0.0
 10
360.3768358520813
 20
582.7822751801446
 30
0.0
 10
360.1455223880598
 20
582.8245817794112
 30
0.0
  0
SPLINE
  5
1E0
330
1F
100
AcDbEntity
  8
0
  6
Continuous
 62
     7
370
    25
100
AcDbSpline
210
0.0
220
0.0
230
1.0
 70
     8
 71
     3
 72
    22
 73
    18
 74
     0
 42
0.000000001
 43
0.00000001
 40
0.0
 40
0.0
 40
0.0
 40
0.0
 40
0.1249999999999994
 40
0.1249999999999994
 40
0.2499999999999989
 40
0.2499999999999989
 40
0.3749999999999983
 40
0.3749999999999983
 40
0.4999999999999978
 40
0.4999999999999978
 40
0.6249999999999983
 40
0.6249999999999983
 40
0.7499999999999989
 40
0.7499999999999989
 40
0.8749999999999994
 40
0.8749999999999994
 40
1.0
 40
1.0
 40
1.0
 40
1.0
 10
326.4455223880597
 20
583.4532865621698
 30
0.0
 10
326.329944227719
 20
583.4365226835695
 30
0.0
 10
326.1969731443997
 20
583.4193443953086
 30
0.0
 10
325.8975195326981
 20
583.3839689438475
 30
0.0
 10
325.7295916295271
 20
583.3656579081736
 30
0.0
 10
325.3768013845898
 20
583.329687900197
 30
0.0
 10
325.1880161287903
 20
583.3116089844391
 30
0.0
 10
324.7985028631247
 20
583.2763945665049
 30
0.0
 10
324.6009372590452
 20
583.2595203890784
 30
0.0
 10
324.2002101826021
 20
583.2271806533529
 30
0.0
 10
323.9988835231335
 20
583.2118906668966
 30
0.0
 10
323.6115801510941
 20
583.1844059757456
 30
0.0
 10
323.4206432930702
 20
583.1718685787284
 30
0.0
 10
323.0653937187699
 20
583.1507718187206
 30
0.0
 10
322.9003696408802
 20
583.142127717373
 30
0.0
 10
322.5962652086884
 20
583.1289785025073
 30
0.0
 10
322.4615055744449
 20
583.1246718975715
 30
0.0
 10
322.3455223880597
 20
583.1228100817414
 30
0.0
  0
SPLINE
  5
1E1
330
1F
100
AcDbEntity
  8
0
  6
Continuous
 62
     7
370
    25
100
AcDbSpline
210
0.0
220
0.0
230
1.0
 70
     8
 71
     3
 72
    20
 73
    16
 74
     0
 42
0.000000001
 43
0.00000001
 40
0.0
 40
0.0
 40
0.0
 40
0.0
 40
0.1250000000000001
 40
0.1250000000000001
 40
0.2500000000000002
 40
0.2500000000000002
 40
0.3750000000000003
 40
0.3750000000000003
 40
0.5000000000000004
 40
0.5000000000000004
 40
0.6250000000000006
 40
0.6250000000000006
 40
0.7500000000000007
 40
0.7500000000000007
 40
1.0
 40
1.0
 40
1.0
 40
1.0
 10
357.1455223880598
 20
583.1228100817414
 30
0.0
 10
357.0295456081463
 20
583.1246717947319
 30
0.0
 10
356.8960561534738
 20
583.1289431584773
 30
0.0
 10
356.5953026504687
 20
583.1419081588068
 30
0.0
 10
356.4267229448507
 20
583.1507156352011
 30
0.0
 10
356.0727092583527
 20
583.1717241294309
 30
0.0
 10
355.8830622548662
 20
583.1841585369285
 30
0.0
 10
355.4931061859685
 20
583.2118158372413
 30
0.0
 10
355.2953192934921
 20
583.2268323065074
 30
0.0
 10
354.8941323940185
 20
583.2591822755724
 30
0.0
 10
354.6934567810181
 20
583.2763199205527
 30
0.0
 10
354.3068075437259
 20
583.3112593822569
 30
0.0
 10
354.1162811298431
 20
583.3294871112562
 30
0.0
 10
353.5857187113144
 20
583.3835616903127
 30
0.0
 10
353.2766649740806
 20
583.4197607970946
 30
0.0
 10
353.0455223880597
 20
583.4532865621698
 30
0.0
  0
SPLINE
  5
1E2
330
1F
100
AcDbEntity
  8
0
  6
Continuous
 62
     7
370
    25
100
AcDbSpline
210
0.0
220
0.0
230
1.0
 70
     8
 71
     3
 72
    20
 73
    16
 74
     0
 42
0.000000001
 43
0.00000001
 40
0.0
 40
0.0
 40
0.0
 40
0.0
 40
0.1250000000000001
 40
0.1250000000000001
 40
0.2500000000000001
 40
0.2500000000000001
 40
0.3750000000000002
 40
0.3750000000000002
 40
0.5000000000000002
 40
0.5000000000000002
 40
0.6250000000000002
 40
0.6250000000000002
 40
0.7500000000000003
 40
0.7500000000000003
 40
1.0
 40
1.0
 40
1.0
 40
1.0
 10
333.5455223880597
 20
583.8161318092103
 30
0.0
 10
333.4299656658102
 20
583.8036992325164
 30
0.0
 10
333.2969879749679
 20
583.7914969299793
 30
0.0
 10
332.9974025357556
 20
583.7673171968629
 30
0.0
 10
332.8293752091364
 20
583.7552820391151
 30
0.0
 10
332.4763197581678
 20
583.7324941808912
 30
0.0
 10
332.2872901186087
 20
583.7214640776679
 30
0.0
 10
331.8975109767204
 20
583.7008083380159
 30
0.0
 10
331.6997908996661
 20
583.6913178768465
 30
0.0
 10
331.2987049575839
 20
583.6739546854919
 30
0.0
 10
331.0974234679574
 20
583.6661988168031
 30
0.0
 10
330.7100910621875
 20
583.6532012743634
 30
0.0
 10
330.5191696820859
 20
583.6478070615805
 30
0.0
 10
329.986887806372
 20
583.6361017732538
 30
0.0
 10
329.6770712425499
 20
583.6340131062735
 30
0.0
 10
329.4455223880597
 20
583.638923108193
 30
0.0
  0
SPLINE
  5
1E3
330
1F
100
AcDbEntity
  8
0
  6
Continuous
 62
     7
370
    25
100
AcDbSpline
210
0.0
220
0.0
230
1.0
 70
     8
 71
     3
 72
    20
 73
    16
 74
     0
 42
0.000000001
 43
0.00000001
 40
0.0
 40
0.0
 40
0.0
 40
0.0
 40
0.1249999999999998
 40
0.1249999999999998
 40
0.2499999999999996
 40
0.2499999999999996
 40
0.3749999999999994
 40
0.3749999999999994
 40
0.4999999999999992
 40
0.4999999999999992
 40
0.624999999999999
 40
0.624999999999999
 40
0.7499999999999989
 40
0.7499999999999989
 40
1.0
 40
1.0
 40
1.0
 40
1.0
 10
350.0455223880597
 20
583.638923108193
 30
0.0
 10
349.9297520647304
 20
583.636468194257
 30
0.0
 10
349.7964963554092
 20
583.6357578601667
 30
0.0
 10
349.4962128098035
 20
583.6374847024905
 30
0.0
 10
349.3278350590312
 20
583.6399866239681
 30
0.0
 10
348.9741210212358
 20
583.6477503455181
 30
0.0
 10
348.7846267081771
 20
583.6530860865428
 30
0.0
 10
348.3946086489245
 20
583.6661577156052
 30
0.0
 10
348.1967689753586
 20
583.6737766811364
 30
0.0
 10
347.7954341072929
 20
583.6911234684592
 30
0.0
 10
347.5945046332574
 20
583.7007650317787
 30
0.0
 10
347.2075229926729
 20
583.7212563381252
 30
0.0
 10
347.0168277599296
 20
583.7323655996591
 30
0.0
 10
346.4857839160227
 20
583.7666203438205
 30
0.0
 10
346.1766300805378
 20
583.7912672746739
 30
0.0
 10
345.9455223880597
 20
583.8161318092103
 30
0.0
  0
SPLINE
  5
1E4
330
1F
100
AcDbEntity
  8
0
  6
Continuous
 62
     7
370
    25
100
AcDbSpline
210
0.0
220
0.0
230
1.0
 70
    11
 71
     3
 72
   201
 73
   197
 74
     0
 42
0.000000001
 43
0.00000001
 40
0.0
 40
0.0
 40
0.0
 40
0.0
 40
0.0156250000000002
 40
0.0156250000000002
 40
0.0234375000000003
 40
0.0234375000000003
 40
0.0273437500000003
 40
0.0273437500000003
 40
0.0312500000000004
 40
0.0312500000000004
 40
0.0468750000000006
 40
0.0468750000000006
 40
0.0625000000000008
 40
0.0625000000000008
 40
0.0781250000000011
 40
0.0781250000000011
 40
0.0820312500000011
 40
0.0820312500000011
 40
0.0859375000000012
 40
0.0859375000000012
 40
0.0937500000000013
 40
0.0937500000000013
 40
0.1093750000000014
 40
0.1093750000000014
 40
0.1250000000000014
 40
0.1250000000000014
 40
0.1328125000000015
 40
0.1328125000000015
 40
0.1406250000000016
 40
0.1406250000000016
 40
0.1562500000000017
 40
0.1562500000000017
 40
0.1718750000000019
 40
0.1718750000000019
 40
0.1796875000000019
 40
0.1796875000000019
 40
0.1835937500000019
 40
0.1835937500000019
 40
0.1875000000000019
 40
0.1875000000000019
 40
0.2031250000000021
 40
0.2031250000000021
 40
0.2187500000000022
 40
0.2187500000000022
 40
0.2343750000000024
 40
0.2343750000000024
 40
0.2382812500000024
 40
0.2382812500000024
 40
0.2421875000000025
 40
0.2421875000000025
 40
0.2500000000000025
 40
0.2500000000000025
 40
0.2656250000000027
 40
0.2812500000000028
 40
0.2812500000000028
 40
0.2890625000000029
 40
0.2890625000000029
 40
0.2929687500000029
 40
0.2929687500000029
 40
0.296875000000003
 40
0.296875000000003
 40
0.3125000000000032
 40
0.3125000000000032
 40
0.3281250000000033
 40
0.3281250000000033
 40
0.3437500000000034
 40
0.3437500000000034
 40
0.3476562500000034
 40
0.3476562500000034
 40
0.3515625000000035
 40
0.3515625000000035
 40
0.3593750000000036
 40
0.3593750000000036
 40
0.3750000000000036
 40
0.3750000000000036
 40
0.3906250000000037
 40
0.3906250000000037
 40
0.3984375000000038
 40
0.3984375000000038
 40
0.4023437500000038
 40
0.4023437500000038
 40
0.4062500000000038
 40
0.4062500000000038
 40
0.4218750000000039
 40
0.4218750000000039
 40
0.437500000000004
 40
0.437500000000004
 40
0.4453125000000041
 40
0.4453125000000041
 40
0.4492187500000041
 40
0.4492187500000041
 40
0.4531250000000041
 40
0.4531250000000041
 40
0.4687500000000041
 40
0.4687500000000041
 40
0.4843750000000041
 40
0.4843750000000041
 40
0.5000000000000041
 40
0.5000000000000041
 40
0.5039062500000041
 40
0.5039062500000041
 40
0.5078125000000042
 40
0.5078125000000042
 40
0.5156250000000042
 40
0.5156250000000042
 40
0.5312500000000041
 40
0.5312500000000041
 40
0.5468750000000041
 40
0.5468750000000041
 40
0.5546875000000041
 40
0.5546875000000041
 40
0.5585937500000041
 40
0.5585937500000041
 40
0.5625000000000042
 40
0.5625000000000042
 40
0.5781250000000041
 40
0.5781250000000041
 40
0.5937500000000039
 40
0.5937500000000039
 40
0.6093750000000038
 40
0.6093750000000038
 40
0.6171875000000037
 40
0.6171875000000037
 40
0.6250000000000036
 40
0.6250000000000036
 40
0.6406250000000032
 40
0.6406250000000032
 40
0.656250000000003
 40
0.656250000000003
 40
0.6640625000000029
 40
0.6640625000000029
 40
0.6679687500000028
 40
0.6679687500000028
 40
0.6718750000000028
 40
0.6718750000000028
 40
0.6875000000000027
 40
0.6875000000000027
 40
0.7031250000000024
 40
0.7031250000000024
 40
0.7187500000000023
 40
0.7187500000000023
 40
0.7226562500000022
 40
0.7226562500000022
 40
0.7265625000000022
 40
0.7265625000000022
 40
0.7343750000000022
 40
0.7343750000000022
 40
0.750000000000002
 40
0.750000000000002
 40
0.7656250000000019
 40
0.7656250000000019
 40
0.7734375000000019
 40
0.7734375000000019
 40
0.7812500000000019
 40
0.7812500000000019
 40
0.7968750000000019
 40
0.7968750000000019
 40
0.8125000000000018
 40
0.8125000000000018
 40
0.8281250000000018
 40
0.8281250000000018
 40
0.8320312500000018
 40
0.8320312500000018
 40
0.8359375000000017
 40
0.8359375000000017
 40
0.8437500000000017
 40
0.8437500000000017
 40
0.8593750000000017
 40
0.8593750000000017
 40
0.8750000000000016
 40
0.8750000000000016
 40
0.8828125000000016
 40
0.8828125000000016
 40
0.8867187500000016
 40
0.8867187500000016
 40
0.8906250000000014
 40
0.8906250000000014
 40
0.9062500000000013
 40
0.9062500000000013
 40
0.9218750000000011
 40
0.9218750000000011
 40
0.937500000000001
 40
0.937500000000001
 40
0.941406250000001
 40
0.941406250000001
 40
0.9453125000000009
 40
0.9453125000000009
 40
0.9531250000000008
 40
0.9531250000000008
 40
0.9687500000000006
 40
0.9687500000000006
 40
0.9843750000000002
 40
0.9843750000000002
 40
0.9921875000000001
 40
0.9921875000000001
 40
1.0
 40
1.0
 40
1.0
 40
1.0
 10
497.3591049202626
 20
385.111448481665
 30
0.0
 10
497.0757655476881
 20
379.890264583981
 30
0.0
 10
496.5362556774477
 20
374.7039053546982
 30
0.0
 10
495.3458955140022
 20
366.9761758933398
 30
0.0
 10
494.8854773322811
 20
364.4089166783863
 30
0.0
 10
494.0987534979051
 20
360.5710922805594
 30
0.0
 10
493.8201960722068
 20
359.2928127055825
 30
0.0
 10
493.2330484159121
 20
356.749876162441
 30
0.0
 10
492.9243466927984
 20
355.4845170298433
 30
0.0
 10
491.3059917042839
 20
349.1879468532522
 30
0.0
 10
489.7723507066469
 20
344.2471896101451
 30
0.0
 10
486.2383537490384
 20
334.5541520422976
 30
0.0
 10
484.2379774776223
 20
329.8018799149389
 30
0.0
 10
479.7681075254069
 20
320.4867842631597
 30
0.0
 10
477.2986592387448
 20
315.9239424025574
 30
0.0
 10
473.9085254897075
 20
310.3428851908448
 30
0.0
 10
473.2159052084907
 20
309.2339102567357
 30
0.0
 10
471.8078732035788
 20
307.0403050038374
 30
0.0
 10
471.0916008951916
 20
305.9542437564377
 30
0.0
 10
468.9063824841843
 20
302.7279621573823
 30
0.0
 10
467.4010575175959
 20
300.619624123447
 30
0.0
 10
462.7416386199237
 20
294.4203240373396
 30
0.0
 10
459.4444388353055
 20
290.4547796551211
 30
0.0
 10
452.4709382444822
 20
282.855935008891
 30
0.0
 10
448.7946510177201
 20
279.2226228415471
 30
0.0
 10
442.9896803236084
 20
274.0272842154236
 30
0.0
 10
441.0045215124971
 20
272.3366806171906
 30
0.0
 10
436.941939471417
 20
269.0479787312842
 30
0.0
 10
434.8782555367829
 20
267.4608631107005
 30
0.0
 10
428.5920326813321
 20
262.8676748980835
 30
0.0
 10
424.2745498076703
 20
260.0293596948623
 30
0.0
 10
415.3911339286716
 20
254.791718629333
 30
0.0
 10
410.8251950207094
 20
252.392403195179
 30
0.0
 10
403.7881665511666
 20
249.1258218294697
 30
0.0
 10
401.4110813235372
 20
248.0924584566758
 30
0.0
 10
397.7975942712384
 20
246.6269764647359
 30
0.0
 10
396.5851182863253
 20
246.1525829655501
 30
0.0
 10
394.1440344041565
 20
245.2322996585693
 30
0.0
 10
392.9138914214303
 20
244.7859035931571
 30
0.0
 10
386.7535013367533
 20
242.6366650457801
 30
0.0
 10
381.7786787368867
 20
241.1748147726291
 30
0.0
 10
371.7389325481556
 20
238.7500263340916
 30
0.0
 10
366.674001351155
 20
237.7871302962859
 30
0.0
 10
356.454260026289
 20
236.3590208465536
 30
0.0
 10
351.2994551276959
 20
235.8937784786073
 30
0.0
 10
344.7982745854019
 20
235.6315835603588
 30
0.0
 10
343.4951479725675
 20
235.5951500402054
 30
0.0
 10
340.8830479823375
 20
235.5546580339314
 30
0.0
 10
339.5758038333107
 20
235.5506706571612
 30
0.0
 10
335.6664381411373
 20
235.5871950118359
 30
0.0
 10
333.0704527518995
 20
235.6760430650612
 30
0.0
 10
325.3127094234727
 20
236.1325467920555
 30
0.0
 10
315.0494749435544
 20
237.2468701321983
 30
0.0
 10
304.9447316178265
 20
239.3576872858515
 30
0.0
 10
297.4264585342247
 20
241.3198309423291
 30
0.0
 10
294.9304328347253
 20
242.0371633370935
 30
0.0
 10
291.2017688988959
 20
243.2098278964854
 30
0.0
 10
289.9602541059886
 20
243.6172450878042
 30
0.0
 10
287.4878439012771
 20
244.4628345621276
 30
0.0
 10
286.2594424095503
 20
244.9001177434444
 30
0.0
 10
280.1560088063194
 20
247.1581511494729
 30
0.0
 10
275.3964083204821
 20
249.1932155615743
 30
0.0
 10
266.1169340950843
 20
253.7084287528932
 30
0.0
 10
261.5970750159935
 20
256.1886047521309
 30
0.0
 10
252.7976087414609
 20
261.5950157679738
 30
0.0
 10
248.5179820823571
 20
264.5212146491713
 30
0.0
 10
243.3233495005466
 20
268.4665564546997
 30
0.0
 10
242.2910992234645
 20
269.2709505959139
 30
0.0
 10
240.2529394462931
 20
270.9002728536456
 30
0.0
 10
239.2459438885922
 20
271.7259816740313
 30
0.0
 10
236.260820304701
 20
274.2358947400518
 30
0.0
 10
234.3185328086552
 20
275.9528649668302
 30
0.0
 10
228.6327817881805
 20
281.2327818745963
 30
0.0
 10
225.0300967654833
 20
284.924430383914
 30
0.0
 10
218.196594903576
 20
292.6476942182114
 30
0.0
 10
214.9657705356863
 20
296.6793026628537
 30
0.0
 10
210.4037133968967
 20
302.9865153100985
 30
0.0
 10
208.9304755073219
 20
305.1322968527513
 30
0.0
 10
206.7932634191731
 20
308.4173817144111
 30
0.0
 10
206.0942648732772
 20
309.5215672552563
 30
0.0
 10
204.7276974697625
 20
311.740477791177
 30
0.0
 10
204.059380123509
 20
312.8563466496164
 30
0.0
 10
200.7918661100225
 20
318.4674335627012
 30
0.0
 10
198.4143426225196
 20
323.0576459455145
 30
0.0
 10
194.1218305298323
 20
332.4362809656479
 30
0.0
 10
192.2068601819277
 20
337.2247114310851
 30
0.0
 10
189.6835780900724
 20
344.5569874332987
 30
0.0
 10
188.9007822256781
 20
347.0260617813406
 30
0.0
 10
187.8152732493299
 20
350.7676770005548
 30
0.0
 10
187.4682245661718
 20
352.021218953673
 30
0.0
 10
186.8039938421743
 20
354.5411014466842
 30
0.0
 10
186.4864964612534
 20
355.8087869994647
 30
0.0
 10
184.9782489226393
 20
362.163852358497
 30
0.0
 10
184.0322712845793
 20
367.2661027328279
 30
0.0
 10
182.6437224368458
 20
377.5057517502938
 30
0.0
 10
182.2012018491456
 20
382.6431539352682
 30
0.0
 10
181.8167104916892
 20
392.9529042813215
 30
0.0
 10
181.8747208064233
 20
398.1252511299585
 30
0.0
 10
182.2672120218704
 20
404.6130220553225
 30
0.0
 10
182.3617456864637
 20
405.9116956561472
 30
0.0
 10
182.5832133096798
 20
408.5113046352209
 30
0.0
 10
182.7103342565681
 20
409.8136420598555
 30
0.0
 10
183.1384648272937
 20
413.7038483374168
 30
0.0
 10
183.48652174536
 20
416.280198935738
 30
0.0
 10
184.7148119897147
 20
423.9589249439961
 30
0.0
 10
185.7787371131211
 20
429.0110914713347
 30
0.0
 10
188.3874691230307
 20
438.9839788339259
 30
0.0
 10
189.9322886560606
 20
443.9046962191342
 30
0.0
 10
192.6134871814319
 20
451.1862798646835
 30
0.0
 10
193.5679862242178
 20
453.5968637315664
 30
0.0
 10
195.0922761870127
 20
457.1874424837931
 30
0.0
 10
195.6158034425316
 20
458.3800839701982
 30
0.0
 10
196.6940388763961
 20
460.7568432692964
 30
0.0
 10
197.2490688606828
 20
461.9415176515046
 30
0.0
 10
200.087229807443
 20
467.8115376949983
 30
0.0
 10
202.5699905258454
 20
472.362416798552
 30
0.0
 10
207.9466800929478
 20
481.1829868254841
 30
0.0
 10
210.8406432761516
 20
485.4526542400129
 30
0.0
 10
217.0382901585157
 20
493.7117865332441
 30
0.0
 10
220.3419518825466
 20
497.7012663727922
 30
0.0
 10
225.6122605971739
 20
503.4701873171855
 30
0.0
 10
227.4251565348249
 20
505.3603578836561
 30
0.0
 10
231.119516249258
 20
509.029972892824
 30
0.0
 10
233.004706710572
 20
510.8138377238086
 30
0.0
 10
238.7722832973117
 20
516.0153229653346
 30
0.0
 10
242.7664034549664
 20
519.2831969924637
 30
0.0
 10
251.0487099273308
 20
525.4248627865057
 30
0.0
 10
255.3368748687533
 20
528.2986829892645
 30
0.0
 10
261.9933323751608
 20
532.3089802698419
 30
0.0
 10
264.2495914334111
 20
533.5955781603367
 30
0.0
 10
267.6913137365584
 20
535.4486561071193
 30
0.0
 10
268.8495030990277
 20
536.054236247457
 30
0.0
 10
271.1784754579385
 20
537.2360019197164
 30
0.0
 10
272.3477695251875
 20
537.8114805618765
 30
0.0
 10
278.2180646496369
 20
540.6125447395535
 30
0.0
 10
282.990321897193
 20
542.6098418724715
 30
0.0
 10
292.6849263368858
 20
546.1236973060313
 30
0.0
 10
297.6072786943655
 20
547.6402396074511
 30
0.0
 10
307.6056097051327
 20
550.1813699381405
 30
0.0
 10
312.6815950406042
 20
551.2059370333253
 30
0.0
 10
319.1281296080389
 20
552.161497142522
 30
0.0
 10
320.4242142427793
 20
552.3365104632671
 30
0.0
 10
323.0186358192715
 20
552.6523744441901
 30
0.0
 10
324.3148585186599
 20
552.7930176510397
 30
0.0
 10
328.200588104133
 20
553.1635326575274
 30
0.0
 10
330.7871575195613
 20
553.3420081671796
 30
0.0
 10
338.5352781933171
 20
553.6746948267156
 30
0.0
 10
343.6852552742751
 20
553.6264017690289
 30
0.0
 10
353.9548436910172
 20
552.9985257073021
 30
0.0
 10
359.0744596871011
 20
552.4190244273287
 30
0.0
 10
366.7311214446726
 20
551.1514802491027
 30
0.0
 10
369.2795440064458
 20
550.6625075592734
 30
0.0
 10
374.3687282957282
 20
549.5505019184451
 30
0.0
 10
376.9140473962175
 20
548.9258715665593
 30
0.0
 10
384.4507015471824
 20
546.8736980929938
 30
0.0
 10
389.3699038804629
 20
545.2636196457331
 30
0.0
 10
399.0079553053305
 20
541.582691831719
 30
0.0
 10
403.7267730987647
 20
539.511770023174
 30
0.0
 10
412.9664341296252
 20
534.9145234478797
 30
0.0
 10
417.4872684428938
 20
532.3881779807887
 30
0.0
 10
423.0116928378937
 20
528.9389309601355
 30
0.0
 10
424.1112555001417
 20
528.2337976995651
 30
0.0
 10
426.2928563797283
 20
526.7970960043777
 30
0.0
 10
427.3727907372064
 20
526.0669521344488
 30
0.0
 10
430.5803650798297
 20
523.8415415781997
 30
0.0
 10
432.6757976862109
 20
522.3113190816879
 30
0.0
 10
438.8353858052507
 20
517.5831231082444
 30
0.0
 10
442.7731321024578
 20
514.2479468543836
 30
0.0
 10
450.3149942216002
 20
507.2154570335721
 30
0.0
 10
453.9191048981577
 20
503.5181380499746
 30
0.0
 10
459.0705531453116
 20
497.6956722676391
 30
0.0
 10
460.745175265123
 20
495.7086885179408
 30
0.0
 10
463.1920504520363
 20
492.6575947782252
 30
0.0
 10
463.9978887984125
 20
491.6273696775679
 30
0.0
 10
465.5808981265954
 20
489.5519568295817
 30
0.0
 10
466.3582529261325
 20
488.5066260679007
 30
0.0
 10
470.1749835184268
 20
483.2422310302091
 30
0.0
 10
473.0047290362469
 20
478.9102123503485
 30
0.0
 10
478.226765584008
 20
470.0104669366625
 30
0.0
 10
480.6190399065863
 20
465.4427312272281
 30
0.0
 10
484.9635984865698
 20
456.0701916466462
 30
0.0
 10
486.9159250797467
 20
451.265410591517
 30
0.0
 10
489.0718889972555
 20
445.1061792146602
 30
0.0
 10
489.4889009835546
 20
443.866250999114
 30
0.0
 10
490.2898257447585
 20
441.3845614606037
 30
0.0
 10
490.6743422104319
 20
440.14113104842
 30
0.0
 10
491.7805213056927
 20
436.403158789763
 30
0.0
 10
492.4548423838173
 20
433.900940583483
 30
0.0
 10
494.291077169666
 20
426.3640091051307
 30
0.0
 10
495.2666934987111
 20
421.2990888731474
 30
0.0
 10
496.7243414046965
 20
411.0892212502789
 30
0.0
 10
497.206390866565
 20
405.9442767503712
 30
0.0
 10
497.551354272725
 20
398.1655584609151
 30
0.0
 10
497.603212649117
 20
395.5624174500709
 30
0.0
 10
497.5779161999806
 20
390.3352195834885
 30
0.0
 10
497.5007746065498
 20
387.7220404305069
 30
0.0
 10
497.3591049202626
 20
385.111448481665
 30
0.0
  0
SPLINE
  5
1E5
330
1F
100
AcDbEntity
  8
0
  6
Continuous
 62
     7
370
    25
100
AcDbSpline
210
0.0
220
0.0
230
1.0
 70
     8
 71
     3
 72
    22
 73
    18
 74
     0
 42
0.000000001
 43
0.00000001
 40
0.0
 40
0.0
 40
0.0
 40
0.0
 40
0.1250000000000016
 40
0.1250000000000016
 40
0.187500000000002
 40
0.187500000000002
 40
0.2500000000000024
 40
0.2500000000000024
 40
0.5000000000000018
 40
0.5000000000000018
 40
0.6250000000000009
 40
0.6250000000000009
 40
0.687500000000001
 40
0.687500000000001
 40
0.750000000000001
 40
0.750000000000001
 40
1.0
 40
1.0
 40
1.0
 40
1.0
 10
393.039236356406
 20
504.772817999539
 30
0.0
 10
393.6636115114078
 20
503.2917806859834
 30
0.0
 10
394.2255656276713
 20
501.7881019855428
 30
0.0
 10
394.9748166438268
 20
499.4986070122779
 30
0.0
 10
395.2091315848826
 20
498.7289202237001
 30
0.0
 10
395.6438667106058
 20
497.1871231622204
 30
0.0
 10
395.8446250875351
 20
496.4140956158475
 30
0.0
 10
396.7665411775119
 20
492.5384641276974
 30
0.0
 10
397.2437014868755
 20
489.4045875687883
 30
0.0
 10
397.5711805495935
 20
484.6540395773004
 30
0.0
 10
397.6153124109905
 20
483.0621940638179
 30
0.0
 10
397.581266405715
 20
480.66158935543
 30
0.0
 10
397.5530784256738
 20
479.8576553189293
 30
0.0
 10
397.463126453873
 20
478.2547891279565
 30
0.0
 10
397.4014545027049
 20
477.4559417964205
 30
0.0
 10
397.0103493513432
 20
473.4745213398424
 30
0.0
 10
396.4343752710024
 20
470.3301343365297
 30
0.0
 10
395.5910992745244
 20
467.2271624701532
 30
0.0
  0
SPLINE
  5
1E6
330
1F
100
AcDbEntity
  8
0
  6
Continuous
 62
     7
370
    25
100
AcDbSpline
210
0.0
220
0.0
230
1.0
 70
     8
 71
     3
 72
    26
 73
    22
 74
     0
 42
0.000000001
 43
0.00000001
 40
0.0
 40
0.0
 40
0.0
 40
0.0
 40
0.0625
 40
0.0625
 40
0.1250000000000001
 40
0.1250000000000001
 40
0.2500000000000002
 40
0.2500000000000002
 40
0.3750000000000002
 40
0.3750000000000002
 40
0.5000000000000003
 40
0.5000000000000003
 40
0.6250000000000004
 40
0.6250000000000004
 40
0.7500000000000004
 40
0.7500000000000004
 40
0.8750000000000006
 40
0.8750000000000006
 40
0.9375000000000003
 40
0.9375000000000003
 40
1.0
 40
1.0
 40
1.0
 40
1.0
 10
356.0086959423552
 20
537.9948723503175
 30
0.0
 10
357.0438391380196
 20
537.6887756674697
 30
0.0
 10
358.0688365772872
 20
537.353993263972
 30
0.0
 10
360.0986523986653
 20
536.6273648885449
 30
0.0
 10
361.1050005951909
 20
536.2348613130741
 30
0.0
 10
364.083005103362
 20
534.97598461966
 30
0.0
 10
366.0032278985848
 20
534.033416009794
 30
0.0
 10
369.718461911075
 20
531.9495176899293
 30
0.0
 10
371.5134578690829
 20
530.8081637490815
 30
0.0
 10
374.9784832797523
 20
528.3269955357586
 30
0.0
 10
376.6486897161925
 20
526.9870558227111
 30
0.0
 10
379.8590688095446
 20
524.1022127024855
 30
0.0
 10
381.369118975145
 20
522.5844188746795
 30
0.0
 10
384.2065135152264
 20
519.4040378492627
 30
0.0
 10
385.5338325984546
 20
517.7414307016144
 30
0.0
 10
388.0063213114601
 20
514.2718314755476
 30
0.0
 10
389.1515067510347
 20
512.4648520021226
 30
0.0
 10
390.7280308701543
 20
509.6424024232129
 30
0.0
 10
391.2283395528804
 20
508.6855524035108
 30
0.0
 10
392.1739612226626
 20
506.7486165959466
 30
0.0
 10
392.6200211561667
 20
505.7672095107806
 30
0.0
 10
393.039236356406
 20
504.772817999539
 30
0.0
  0
SPLINE
  5
1E7
330
1F
100
AcDbEntity
  8
0
  6
Continuous
 62
     7
370
    25
100
AcDbSpline
210
0.0
220
0.0
230
1.0
 70
     8
 71
     3
 72
    18
 73
    14
 74
     0
 42
0.000000001
 43
0.00000001
 40
0.0
 40
0.0
 40
0.0
 40
0.0
 40
0.1250000000000001
 40
0.1250000000000001
 40
0.2500000000000002
 40
0.2500000000000002
 40
0.5000000000000001
 40
0.5000000000000001
 40
0.75
 40
0.75
 40
0.875
 40
0.875
 40
1.0
 40
1.0
 40
1.0
 40
1.0
 10
323.4823488337651
 20
537.9948723503176
 30
0.0
 10
324.8080205045483
 20
538.386879661646
 30
0.0
 10
326.1446380403551
 20
538.7301443690355
 30
0.0
 10
328.8396463343448
 20
539.3197343309013
 30
0.0
 10
330.2006167896392
 20
539.5664155940717
 30
0.0
 10
334.2990017059351
 20
540.1572130003584
 30
0.0
 10
337.0282454643882
 20
540.3502938085818
 30
0.0
 10
342.4809248909958
 20
540.3494316044779
 30
0.0
 10
345.2043601753143
 20
540.1554629527101
 30
0.0
 10
349.2850515079161
 20
539.5671778753574
 30
0.0
 10
350.6477467355459
 20
539.3204781255549
 30
0.0
 10
353.3456925425207
 20
538.7303556179836
 30
0.0
 10
354.6830264459301
 20
538.3868790186779
 30
0.0
 10
356.0086959423552
 20
537.9948723503175
 30
0.0
  0
SPLINE
  5
1E8
330
1F
100
AcDbEntity
  8
0
  6
Continuous
 62
     7
370
    25
100
AcDbSpline
210
0.0
220
0.0
230
1.0
 70
     8
 71
     3
 72
    26
 73
    22
 74
     0
 42
0.000000001
 43
0.00000001
 40
0.0
 40
0.0
 40
0.0
 40
0.0
 40
0.1250000000000002
 40
0.1250000000000002
 40
0.2500000000000004
 40
0.2500000000000004
 40
0.375
 40
0.375
 40
0.4999999999999996
 40
0.4999999999999996
 40
0.5624999999999999
 40
0.5624999999999999
 40
0.6250000000000002
 40
0.6250000000000002
 40
0.75
 40
0.75
 40
0.8749999999999998
 40
0.8749999999999998
 40
0.9374999999999999
 40
0.9374999999999999
 40
1.0
 40
1.0
 40
1.0
 40
1.0
 10
286.4518084197352
 20
504.77281799957
 30
0.0
 10
287.2900046497821
 20
506.7610455624555
 30
0.0
 10
288.2350689635498
 20
508.6969998911074
 30
0.0
 10
290.3390958146828
 20
512.4642832293266
 30
0.0
 10
291.4854469531709
 20
514.2729954622848
 30
0.0
 10
293.9592386330149
 20
517.7441254964561
 30
0.0
 10
295.2868602894078
 20
519.4068205825242
 30
0.0
 10
298.1237792507355
 20
522.5863239469363
 30
0.0
 10
299.6330538866275
 20
524.10315033938
 30
0.0
 10
302.0385275029375
 20
526.2647527483605
 30
0.0
 10
302.8587509081718
 20
526.9614720984697
 30
0.0
 10
304.528779391986
 20
528.3025741740574
 30
0.0
 10
305.379622063951
 20
528.9478916419449
 30
0.0
 10
307.9790229507976
 20
530.8091356214445
 30
0.0
 10
309.7743130273921
 20
531.9505783713691
 30
0.0
 10
313.4898145045776
 20
534.0344461784979
 30
0.0
 10
315.4100111056318
 20
534.9768948218584
 30
0.0
 10
318.3876743120218
 20
536.2355119452493
 30
0.0
 10
319.3935994112509
 20
536.6278160085182
 30
0.0
 10
321.4228035929647
 20
537.3541873557175
 30
0.0
 10
322.447500390795
 20
537.6888628272154
 30
0.0
 10
323.4823488337661
 20
537.9948723503178
 30
0.0
  0
SPLINE
  5
1E9
330
1F
100
AcDbEntity
  8
0
  6
Continuous
 62
     7
370
    25
100
AcDbSpline
210
0.0
220
0.0
230
1.0
 70
     8
 71
     3
 72
    22
 73
    18
 74
     0
 42
0.000000001
 43
0.00000001
 40
0.0
 40
0.0
 40
0.0
 40
0.0
 40
0.2499999999999999
 40
0.2499999999999999
 40
0.3124999999999999
 40
0.3124999999999999
 40
0.3749999999999999
 40
0.3749999999999999
 40
0.4999999999999999
 40
0.4999999999999999
 40
0.7499999999999988
 40
0.7499999999999988
 40
0.8124999999999987
 40
0.8124999999999987
 40
0.8749999999999987
 40
0.8749999999999987
 40
1.0
 40
1.0
 40
1.0
 40
1.0
 10
283.8999455015991
 20
467.2271624701377
 30
0.0
 10
283.0566695051192
 20
470.3301343365181
 30
0.0
 10
282.480695424777
 20
473.4745213398359
 30
0.0
 10
282.0895902734146
 20
477.4559417964192
 30
0.0
 10
282.0279183222465
 20
478.2547891279562
 30
0.0
 10
281.9379663504456
 20
479.857655318931
 30
0.0
 10
281.9097783704042
 20
480.661589355433
 30
0.0
 10
281.8757323651288
 20
483.0621940638243
 30
0.0
 10
281.9198642265262
 20
484.6540395773089
 30
0.0
 10
282.2473432892456
 20
489.4045875688032
 30
0.0
 10
282.7245035986107
 20
492.5384641277165
 30
0.0
 10
283.6464196885904
 20
496.4140956158714
 30
0.0
 10
283.8471780655201
 20
497.1871231622453
 30
0.0
 10
284.2819131912447
 20
498.7289202237269
 30
0.0
 10
284.5162281323013
 20
499.4986070123055
 30
0.0
 10
285.265479148459
 20
501.7881019855731
 30
0.0
 10
285.8274332647242
 20
503.291780686016
 30
0.0
 10
286.4518084197278
 20
504.7728179995731
 30
0.0
  0
SPLINE
  5
1EA
330
1F
100
AcDbEntity
  8
0
  6
Continuous
 62
     7
370
    25
100
AcDbSpline
210
0.0
220
0.0
230
1.0
 70
     8
 71
     3
 72
     9
 73
     5
 74
     0
 42
0.000000001
 43
0.00000001
 40
0.0
 40
0.0
 40
0.0
 40
0.0
 40
0.5267592844677105
 40
1.0
 40
1.0
 40
1.0
 40
1.0
 10
395.6415732436769
 20
468.5664140647589
 30
0.0
 10
395.4852933983508
 20
468.6068798703288
 30
0.0
 10
395.1886116882525
 20
468.6837001690176
 30
0.0
 10
394.9793624041479
 20
468.7416272900616
 30
0.0
 10
394.8803371232136
 20
468.7690407622732
 30
0.0
  0
SPLINE
  5
1EB
330
1F
100
AcDbEntity
  8
0
  6
Continuous
 62
     7
370
    25
100
AcDbSpline
210
0.0
220
0.0
230
1.0
 70
     8
 71
     3
 72
    38
 73
    34
 74
     0
 42
0.000000001
 43
0.00000001
 40
0.0000000000000003
 40
0.0000000000000003
 40
0.0000000000000003
 40
0.0000000000000003
 40
0.0004425459170244
 40
0.0004425459170244
 40
0.0004425459170244
 40
0.0007405270817394
 40
0.0007405270817394
 40
0.0007405270817394
 40
0.0009414300034964
 40
0.0009414300034964
 40
0.0009414300034964
 40
0.0010771907072109
 40
0.0010771907072109
 40
0.0010771907072109
 40
0.0011692772168674
 40
0.0011692772168674
 40
0.0011692772168674
 40
0.0012321174750514
 40
0.0012321174750514
 40
0.0012321174750514
 40
0.001275412952887
 40
0.001275412952887
 40
0.001275412952887
 40
0.0013195772889668
 40
0.0013195772889668
 40
0.0013195772889668
 40
0.0013376517424548
 40
0.0013376517424548
 40
0.0013376517424548
 40
0.0013561131642423
 40
0.0013561131642423
 40
0.0013561131642423
 40
0.0013642962124094
 40
0.0013642962124094
 40
0.0013642962124094
 40
0.0013642962124094
 10
395.5910992745245
 20
467.2271624701532
 30
0.0
 10
395.6137412055494
 20
467.3729289271651
 30
0.0
 10
395.6345912960124
 20
467.519003201243
 30
0.0
 10
395.6525771826758
 20
467.6654173008873
 30
0.0
 10
395.6646879248464
 20
467.7640047902952
 30
0.0
 10
395.6755213148952
 20
467.8627722971745
 30
0.0
 10
395.684183759244
 20
467.9617171631594
 30
0.0
 10
395.6900241693282
 20
468.0284279632311
 30
0.0
 10
395.694895006172
 20
468.0952432323646
 30
0.0
 10
395.6980469605492
 20
468.1621250595913
 30
0.0
 10
395.7001769137877
 20
468.2073208801715
 30
0.0
 10
395.7015359703782
 20
468.2525707938364
 30
0.0
 10
395.701491134074
 20
468.2978026776922
 30
0.0
 10
395.7014607217772
 20
468.3284832948032
 30
0.0
 10
395.7007954790721
 20
468.359180467306
 30
0.0
 10
395.6989558020471
 20
468.3897878890382
 30
0.0
 10
395.69770043336
 20
468.4106739458376
 30
0.0
 10
395.6959062183138
 20
468.431545430739
 30
0.0
 10
395.6931085261543
 20
468.4522592025975
 30
0.0
 10
395.691181134399
 20
468.4665293763084
 30
0.0
 10
395.6887816493295
 20
468.48075580375
 30
0.0
 10
395.6855071644004
 20
468.4947513954467
 30
0.0
 10
395.6821770048644
 20
468.5089849479474
 30
0.0
 10
395.6780044992379
 20
468.5231877901617
 30
0.0
 10
395.6716478364578
 20
468.5362557167309
 30
0.0
 10
395.6690350410905
 20
468.5416270600256
 30
0.0
 10
395.6660086822367
 20
468.5468394860982
 30
0.0
 10
395.6623627876871
 20
468.5515202243529
 30
0.0
 10
395.6586739909355
 20
468.556256042088
 30
0.0
 10
395.6541930425015
 20
468.5605671879078
 30
0.0
 10
395.6490026917148
 20
468.5634400815587
 30
0.0
 10
395.6466631723832
 20
468.5647350210551
 30
0.0
 10
395.6441528271193
 20
468.5657516277346
 30
0.0
 10
395.6415732436774
 20
468.5664140647598
 30
0.0
  0
SPLINE
  5
1EC
330
1F
100
AcDbEntity
  8
0
  6
Continuous
 62
     7
370
    25
100
AcDbSpline
210
0.0
220
0.0
230
1.0
 70
     8
 71
     3
 72
    18
 73
    14
 74
     0
 42
0.000000001
 43
0.00000001
 40
0.0
 40
0.0
 40
0.0
 40
0.0
 40
0.0312499999999787
 40
0.0312499999999787
 40
0.0624999999999574
 40
0.0624999999999574
 40
0.1249999999999442
 40
0.1249999999999442
 40
0.2499999999999514
 40
0.2499999999999514
 40
0.4999999999999676
 40
0.4999999999999676
 40
1.0
 40
1.0
 40
1.0
 40
1.0
 10
283.8494715324427
 20
468.5664140647584
 30
0.0
 10
283.8357696693818
 20
468.5628954263389
 30
0.0
 10
283.8264777229188
 20
468.5503375291536
 30
0.0
 10
283.8137249135878
 20
468.5250200348099
 30
0.0
 10
283.8095206457331
 20
468.5111908640794
 30
0.0
 10
283.799480525938
 20
468.4698781165355
 30
0.0
 10
283.796111426299
 20
468.4416432044177
 30
0.0
 10
283.7890450104798
 20
468.356405718153
 30
0.0
 10
283.7889128896236
 20
468.2996696135702
 30
0.0
 10
283.7926382450365
 20
468.1295424987539
 30
0.0
 10
283.8013840954123
 20
468.0161595374318
 30
0.0
 10
283.833992019354
 20
467.6768124190592
 30
0.0
 10
283.8650605252735
 20
467.4517484118729
 30
0.0
 10
283.8999455015991
 20
467.2271624701377
 30
0.0
  0
SPLINE
  5
1ED
330
1F
100
AcDbEntity
  8
0
  6
Continuous
 62
     7
370
    25
100
AcDbSpline
210
0.0
220
0.0
230
1.0
 70
     8
 71
     3
 72
     9
 73
     5
 74
     0
 42
0.000000001
 43
0.00000001
 40
0.0
 40
0.0
 40
0.0
 40
0.0
 40
0.5669791061127138
 40
1.0
 40
1.0
 40
1.0
 40
1.0
 10
283.8494715324427
 20
468.5664140647584
 30
0.0
 10
284.0063688303543
 20
468.6070132949853
 30
0.0
 10
284.2830938387719
 20
468.6786195143137
 30
0.0
 10
284.4785886190224
 20
468.7326727821646
 30
0.0
 10
284.5632419435167
 20
468.7560789765269
 30
0.0
  0
ARC
  5
1EE
330
1F
100
AcDbEntity
  8
0
  6
Continuous
 62
     7
370
    25
100
AcDbCircle
 10
339.7455223881
 20
482.7504170052
 30
0.0
 40
57.66762038325405
100
AcDbArc
 50
194.2386507427
 51
345.7613492573
  0
LINE
  5
1EF
330
1F
100
AcDbEntity
  8
0
  6
Continuous
 62
     8
370
    25
100
AcDbLine
 10
354.9256247441
 20
496.6488777393
 30
0.0
 11
355.59520712
 21
495.8305347774
 31
0.0
  0
LWPOLYLINE
  5
1F0
330
1F
100
AcDbEntity
  8
0
  6
Continuous
 62
     8
370
    25
100
AcDbPolyline
 90
        3
 70
   128
 43
0.0
 10
358.8576772308
 20
489.6127153283
 10
358.886440972
 20
489.5212321911
 10
359.3590458089
 20
487.7122091479
  0
LINE
  5
1F1
330
1F
100
AcDbEntity
  8
0
  6
Continuous
 62
     8
370
    25
100
AcDbLine
 10
359.5639125468
 20
480.532858795
 30
0.0
 11
359.2577853671
 21
478.9570479321
 31
0.0
  0
LWPOLYLINE
  5
1F2
330
1F
100
AcDbEntity
  8
0
  6
Continuous
 62
     8
370
    25
100
AcDbPolyline
 90
        3
 70
   128
 43
0.0
 10
356.4142136164
 20
472.427301028
 10
355.6563277916
 20
471.3699567633
 10
355.3277540541
 20
470.9531834188
  0
LWPOLYLINE
  5
1F3
330
1F
100
AcDbEntity
  8
0
  6
Continuous
 62
     8
370
    25
100
AcDbPolyline
 90
        3
 70
   128
 43
0.0
 10
349.8383214536
 20
466.2482773993
 10
349.4793615881
 20
466.044184629
 10
348.2563125539
 20
465.4191643082
  0
LINE
  5
1F4
330
1F
100
AcDbEntity
  8
0
  6
Continuous
 62
     8
370
    25
100
AcDbLine
 10
341.593897337
 20
463.6095439259
 30
0.0
 11
339.6502667189
 21
463.5244351389
 31
0.0
  0
LINE
  5
1F5
330
1F
100
AcDbEntity
  8
0
  6
Continuous
 62
     8
370
    25
100
AcDbLine
 10
332.7114639763
 20
464.7978900565
 30
0.0
 11
331.2071980114
 21
465.4320913148
 31
0.0
  0
LINE
  5
1F6
330
1F
100
AcDbEntity
  8
0
  6
Continuous
 62
     8
370
    25
100
AcDbLine
 10
325.4245059338
 20
469.5386382636
 30
0.0
 11
324.5654200397
 21
470.4723491845
 31
0.0
  0
LINE
  5
1F7
330
1F
100
AcDbEntity
  8
0
  6
Continuous
 62
     8
370
    25
100
AcDbLine
 10
324.5654200374
 20
470.4723491872
 30
0.0
 11
324.120489643
 21
471.0062032983
 31
0.0
  0
LWPOLYLINE
  5
1F8
330
1F
100
AcDbEntity
  8
0
  6
Continuous
 62
     8
370
    25
100
AcDbPolyline
 90
        3
 70
   128
 43
0.0
 10
320.7698357752
 20
477.0938224165
 10
320.6046038058
 20
477.5999947363
 10
320.277957298
 20
478.7717712723
  0
LINE
  5
1F9
330
1F
100
AcDbEntity
  8
0
  6
Continuous
 62
     8
370
    25
100
AcDbLine
 10
319.8408504014
 20
485.9572975081
 30
0.0
 11
320.1705425801
 21
487.8900907428
 31
0.0
  0
LWPOLYLINE
  5
1FA
330
1F
100
AcDbEntity
  8
0
  6
Continuous
 62
     8
370
    25
100
AcDbPolyline
 90
        3
 70
   128
 43
0.0
 10
322.8647668676
 20
494.3700848514
 10
323.8347169848
 20
495.7512701698
 10
324.0216633173
 20
495.9911762968
  0
LWPOLYLINE
  5
1FB
330
1F
100
AcDbEntity
  8
0
  6
Continuous
 62
     8
370
    25
100
AcDbPolyline
 90
        3
 70
   128
 43
0.0
 10
329.2925606343
 20
500.6581623094
 10
330.0116831907
 20
501.0770423053
 10
331.0432139807
 20
501.6110863242
  0
LINE
  5
1FC
330
1F
100
AcDbEntity
  8
0
  6
Continuous
 62
     8
370
    25
100
AcDbLine
 10
337.8512507112
 20
503.5073828738
 30
0.0
 11
339.8460014681
 21
503.596766311
 31
0.0
  0
LWPOLYLINE
  5
1FD
330
1F
100
AcDbEntity
  8
0
  6
Continuous
 62
     8
370
    25
100
AcDbPolyline
 90
        3
 70
   128
 43
0.0
 10
346.7915428161
 20
502.3188534894
 10
348.4513266807
 20
501.60940256
 10
348.6283148574
 20
501.5230633438
  0
LINE
  5
1FE
330
1F
100
AcDbEntity
  8
0
  6
Continuous
 62
     8
370
    25
100
AcDbLine
 10
354.2973834253
 20
497.3431661764
 30
0.0
 11
354.9256247441
 21
496.6488777393
 31
0.0
  0
LINE
  5
1FF
330
1F
100
AcDbEntity
  8
0
  6
Continuous
 62
     8
370
    25
100
AcDbLine
 10
355.386523806
 20
497.0626165381
 30
0.0
 11
354.7454245739
 21
497.7714263292
 31
0.0
  0
LINE
  5
200
330
1F
100
AcDbEntity
  8
0
  6
Continuous
 62
     8
370
    25
100
AcDbLine
 10
348.900113811
 20
502.0837554654
 30
0.0
 11
347.0149424075
 21
502.9011896967
 31
0.0
  0
LWPOLYLINE
  5
201
330
1F
100
AcDbEntity
  8
0
  6
Continuous
 62
     8
370
    25
100
AcDbPolyline
 90
        3
 70
   128
 43
0.0
 10
339.8470719243
 20
504.2214670862
 10
338.5617531705
 20
504.1877913611
 10
337.792048888
 20
504.1291997971
  0
LWPOLYLINE
  5
202
330
1F
100
AcDbEntity
  8
0
  6
Continuous
 62
     8
370
    25
100
AcDbPolyline
 90
        3
 70
   128
 43
0.0
 10
330.7751041379
 20
502.1736143815
 10
330.759632992
 20
502.1661527691
 10
328.9691431714
 20
501.1899391037
  0
LWPOLYLINE
  5
203
330
1F
100
AcDbEntity
  8
0
  6
Continuous
 62
     8
370
    25
100
AcDbPolyline
 90
        3
 70
   128
 43
0.0
 10
323.5371418415
 20
496.3759544719
 10
322.6632548891
 20
495.1854662185
 10
322.3468681757
 20
494.7062633447
  0
LWPOLYLINE
  5
204
330
1F
100
AcDbEntity
  8
0
  6
Continuous
 62
     8
370
    25
100
AcDbPolyline
 90
        3
 70
   128
 43
0.0
 10
319.5733239679
 20
488.0248600187
 10
319.5184764218
 20
487.7687031975
 10
319.2349600289
 20
486.0335793972
  0
LWPOLYLINE
  5
205
330
1F
100
AcDbEntity
  8
0
  6
Continuous
 62
     8
370
    25
100
AcDbPolyline
 90
        3
 70
   128
 43
0.0
 10
319.6411263229
 20
478.8323597183
 10
320.1312404589
 20
477.0997547592
 10
320.1972002134
 20
476.9035654341
  0
LINE
  5
206
330
1F
100
AcDbEntity
  8
0
  6
Continuous
 62
     8
370
    25
100
AcDbLine
 10
323.6541342055
 20
470.6313742528
 30
0.0
 11
324.1045209701
 21
470.0913148406
 31
0.0
  0
LINE
  5
207
330
1F
100
AcDbEntity
  8
0
  6
Continuous
 62
     8
370
    25
100
AcDbLine
 10
356.4372986681
 20
498.0026156155
 30
0.0
 11
355.7679617161
 21
498.7433741007
 31
0.0
  0
LINE
  5
208
330
1F
100
AcDbEntity
  8
0
  6
Continuous
 62
     8
370
    25
100
AcDbLine
 10
349.5252397093
 20
503.3560789035
 30
0.0
 11
347.5110186036
 21
504.2305299728
 31
0.0
  0
LWPOLYLINE
  5
209
330
1F
100
AcDbEntity
  8
0
  6
Continuous
 62
     8
370
    25
100
AcDbPolyline
 90
        3
 70
   128
 43
0.0
 10
339.854575795
 20
505.6424000573
 10
338.4822266238
 20
505.6064653304
 10
337.6614676986
 20
505.5439996821
  0
LWPOLYLINE
  5
20A
330
1F
100
AcDbEntity
  8
0
  6
Continuous
 62
     8
370
    25
100
AcDbPolyline
 90
        3
 70
   128
 43
0.0
 10
330.1566537655
 20
503.4493493742
 10
330.1559538342
 20
503.4490114594
 10
328.2397813221
 20
502.403916337
  0
LWPOLYLINE
  5
20B
330
1F
100
AcDbEntity
  8
0
  6
Continuous
 62
     8
370
    25
100
AcDbPolyline
 90
        3
 70
   128
 43
0.0
 10
322.4315233458
 20
497.2486398943
 10
321.5156546389
 20
495.9993568616
 10
321.1680324722
 20
495.4723628615
  0
LWPOLYLINE
  5
20C
330
1F
100
AcDbEntity
  8
0
  6
Continuous
 62
     8
370
    25
100
AcDbPolyline
 90
        3
 70
   128
 43
0.0
 10
318.2136826449
 20
488.3374610765
 10
318.1596074633
 20
488.0843298294
 10
317.8528503652
 20
486.1974269133
  0
LWPOLYLINE
  5
20D
330
1F
100
AcDbEntity
  8
0
  6
Continuous
 62
     8
370
    25
100
AcDbPolyline
 90
        3
 70
   128
 43
0.0
 10
318.2949208658
 20
478.5289499849
 10
318.8135374725
 20
476.6986329883
 10
318.8911694028
 20
476.4681135933
  0
LINE
  5
20E
330
1F
100
AcDbEntity
  8
0
  6
Continuous
 62
     8
370
    25
100
AcDbLine
 10
322.5888046836
 20
469.7762295217
 30
0.0
 11
323.053746114
 21
469.2193605273
 31
0.0
  0
LINE
  5
20F
330
1F
100
AcDbEntity
  8
0
  6
Continuous
 62
     8
370
    25
100
AcDbLine
 10
324.1045209701
 20
470.0913148406
 30
0.0
 11
324.997210337
 21
469.1215876476
 31
0.0
  0
LINE
  5
210
330
1F
100
AcDbEntity
  8
0
  6
Continuous
 62
     8
370
    25
100
AcDbLine
 10
330.7875931933
 20
464.9743051809
 30
0.0
 11
332.641506229
 21
464.1913999334
 31
0.0
  0
LWPOLYLINE
  5
211
330
1F
100
AcDbEntity
  8
0
  6
Continuous
 62
     8
370
    25
100
AcDbPolyline
 90
        3
 70
   128
 43
0.0
 10
339.6458018336
 20
462.9324553877
 10
340.9292916056
 20
462.9661400176
 10
341.6530230594
 20
463.0204190306
  0
LWPOLYLINE
  5
212
330
1F
100
AcDbEntity
  8
0
  6
Continuous
 62
     8
370
    25
100
AcDbPolyline
 90
        3
 70
   128
 43
0.0
 10
348.5188292086
 20
464.8866319914
 10
348.7314117841
 20
464.9877786096
 10
350.3010906681
 20
465.8309401415
  0
LWPOLYLINE
  5
213
330
1F
100
AcDbEntity
  8
0
  6
Continuous
 62
     8
370
    25
100
AcDbPolyline
 90
        3
 70
   128
 43
0.0
 10
355.7084881111
 20
470.4735377861
 10
356.827789887
 20
471.9684651601
 10
356.9132076337
 20
472.0950105421
  0
LWPOLYLINE
  5
214
330
1F
100
AcDbEntity
  8
0
  6
Continuous
 62
     8
370
    25
100
AcDbPolyline
 90
        3
 70
   128
 43
0.0
 10
359.8070691521
 20
478.6545402542
 10
359.9725683543
 20
479.3852281812
 10
360.1907754943
 20
480.6262900396
  0
LINE
  5
215
330
1F
100
AcDbEntity
  8
0
  6
Continuous
 62
     8
370
    25
100
AcDbLine
 10
359.9570816872
 20
487.8426613871
 30
0.0
 11
359.4424007552
 21
489.7988025837
 31
0.0
  0
LINE
  5
216
330
1F
100
AcDbEntity
  8
0
  6
Continuous
 62
     8
370
    25
100
AcDbLine
 10
356.0820181293
 20
496.2122218812
 30
0.0
 11
355.386523806
 21
497.0626165381
 31
0.0
  0
LINE
  5
217
330
1F
100
AcDbEntity
  8
0
  6
Continuous
 62
     8
370
    25
100
AcDbLine
 10
323.0537461165
 20
469.2193605243
 30
0.0
 11
324.0179359288
 21
468.172746891
 31
0.0
  0
LINE
  5
218
330
1F
100
AcDbEntity
  8
0
  6
Continuous
 62
     8
370
    25
100
AcDbLine
 10
330.1965860931
 20
463.7533984591
 30
0.0
 11
332.1743780034
 21
462.9193815195
 31
0.0
  0
LWPOLYLINE
  5
219
330
1F
100
AcDbEntity
  8
0
  6
Continuous
 62
     8
370
    25
100
AcDbPolyline
 90
        3
 70
   128
 43
0.0
 10
339.6386102696
 20
461.57956561
 10
341.0088181589
 20
461.6155108196
 10
341.7755302866
 20
461.6729143393
  0
LWPOLYLINE
  5
21A
330
1F
100
AcDbEntity
  8
0
  6
Continuous
 62
     8
370
    25
100
AcDbPolyline
 90
        3
 70
   128
 43
0.0
 10
349.1049723989
 20
463.663497472
 10
349.3350909454
 20
463.7729646919
 10
350.9924067022
 20
464.6621978786
  0
LWPOLYLINE
  5
21B
330
1F
100
AcDbEntity
  8
0
  6
Continuous
 62
     8
370
    25
100
AcDbPolyline
 90
        3
 70
   128
 43
0.0
 10
356.7697438909
 20
469.6137071669
 10
357.9753901373
 20
471.2226192881
 10
358.0540111392
 20
471.3389671388
  0
LWPOLYLINE
  5
21C
330
1F
100
AcDbEntity
  8
0
  6
Continuous
 62
     8
370
    25
100
AcDbPolyline
 90
        3
 70
   128
 43
0.0
 10
361.1471214832
 20
478.3266323518
 10
361.3314373123
 20
479.1376463177
 10
361.5616881738
 20
480.4440350168
  0
LINE
  5
21D
330
1F
100
AcDbEntity
  8
0
  6
Continuous
 62
     8
370
    25
100
AcDbLine
 10
361.3209871036
 20
488.1344029947
 30
0.0
 11
360.7752462467
 21
490.2204021977
 31
0.0
  0
LINE
  5
21E
330
1F
100
AcDbEntity
  8
0
  6
Continuous
 62
     8
370
    25
100
AcDbLine
 10
357.1878417978
 20
497.0843334535
 30
0.0
 11
356.4372986681
 21
498.0026156155
 31
0.0
  0
LINE
  5
21F
330
1F
100
AcDbEntity
  8
0
  6
Continuous
 62
     8
370
    25
100
AcDbLine
 10
359.9386913284
 20
501.0499687323
 30
0.0
 11
360.8532258074
 21
499.9305858129
 31
0.0
  0
LWPOLYLINE
  5
220
330
1F
100
AcDbEntity
  8
0
  6
Continuous
 62
     8
370
    25
100
AcDbPolyline
 90
        3
 70
   128
 43
0.0
 10
365.1881247328
 20
491.630450832
 10
365.6093889023
 20
490.1409003681
 10
365.8495317802
 20
489.0987862182
  0
LWPOLYLINE
  5
221
330
1F
100
AcDbEntity
  8
0
  6
Continuous
 62
     8
370
    25
100
AcDbPolyline
 90
        3
 70
   128
 43
0.0
 10
366.1358301772
 20
479.7931907125
 10
365.777944092
 20
477.848746728
 10
365.6352792784
 20
477.2417397666
  0
LWPOLYLINE
  5
222
330
1F
100
AcDbEntity
  8
0
  6
Continuous
 62
     8
370
    25
100
AcDbPolyline
 90
        3
 70
   128
 43
0.0
 10
361.886034363
 20
468.7804900078
 10
360.4084993563
 20
466.7884756668
 10
360.3394756634
 20
466.7042920715
  0
LINE
  5
223
330
1F
100
AcDbEntity
  8
0
  6
Continuous
 62
     8
370
    25
100
AcDbLine
 10
353.3463724126
 20
460.7126933158
 30
0.0
 11
351.0621409325
 21
459.5047420804
 31
0.0
  0
LWPOLYLINE
  5
224
330
1F
100
AcDbEntity
  8
0
  6
Continuous
 62
     8
370
    25
100
AcDbPolyline
 90
        3
 70
   128
 43
0.0
 10
342.2025539784
 20
457.0995861491
 10
341.6608954391
 20
457.0550591026
 10
339.6201532459
 20
456.9865265696
  0
LWPOLYLINE
  5
225
330
1F
100
AcDbEntity
  8
0
  6
Continuous
 62
     8
370
    25
100
AcDbPolyline
 90
        3
 70
   128
 43
0.0
 10
330.5828587838
 20
458.6086318036
 10
329.518839149
 20
459.0236758435
 10
328.2092982154
 20
459.6088107036
  0
LINE
  5
226
330
1F
100
AcDbEntity
  8
0
  6
Continuous
 62
     8
370
    25
100
AcDbLine
 10
320.7157628588
 20
464.9658518991
 30
0.0
 11
319.5523534477
 21
466.2289213348
 31
0.0
  0
LINE
  5
227
330
1F
100
AcDbEntity
  8
0
  6
Continuous
 62
     8
370
    25
100
AcDbLine
 10
319.5523534477
 20
466.2289213348
 30
0.0
 11
318.99547055
 21
466.8956842085
 31
0.0
  0
LWPOLYLINE
  5
228
330
1F
100
AcDbEntity
  8
0
  6
Continuous
 62
     8
370
    25
100
AcDbPolyline
 90
        3
 70
   128
 43
0.0
 10
314.5208017535
 20
474.9859942284
 10
313.8816558738
 20
477.137989699
 10
313.7982405149
 20
477.4788979937
  0
LINE
  5
229
330
1F
100
AcDbEntity
  8
0
  6
Continuous
 62
     8
370
    25
100
AcDbLine
 10
313.2601461871
 20
486.7656228155
 30
0.0
 11
313.6926704709
 21
489.3376350689
 31
0.0
  0
LINE
  5
22A
330
1F
100
AcDbEntity
  8
0
  6
Continuous
 62
     8
370
    25
100
AcDbLine
 10
317.2696043737
 20
497.9866451407
 30
0.0
 11
318.7903610269
 21
500.1261005131
 31
0.0
  0
LWPOLYLINE
  5
22B
330
1F
100
AcDbEntity
  8
0
  6
Continuous
 62
     8
370
    25
100
AcDbPolyline
 90
        3
 70
   128
 43
0.0
 10
325.8218787282
 20
506.371845574
 10
326.0955593954
 20
506.5370258253
 10
328.141050282
 20
507.637236706
  0
LWPOLYLINE
  5
22C
330
1F
100
AcDbEntity
  8
0
  6
Continuous
 62
     8
370
    25
100
AcDbPolyline
 90
        3
 70
   128
 43
0.0
 10
337.2213548053
 20
510.1730105529
 10
337.830149337
 20
510.2238309646
 10
339.8735928671
 20
510.2923506698
  0
LWPOLYLINE
  5
22D
330
1F
100
AcDbEntity
  8
0
  6
Continuous
 62
     8
370
    25
100
AcDbPolyline
 90
        3
 70
   128
 43
0.0
 10
349.1480466154
 20
508.5812568592
 10
349.9722056271
 20
508.2552142236
 10
351.5723761423
 20
507.5285566702
  0
LINE
  5
22E
330
1F
100
AcDbEntity
  8
0
  6
Continuous
 62
     8
370
    25
100
AcDbLine
 10
359.1426711322
 20
501.9315920867
 30
0.0
 11
359.9386913284
 21
501.0499687323
 31
0.0
  0
LINE
  5
22F
330
1F
100
AcDbEntity
  8
0
  6
Continuous
 62
     8
370
    25
100
AcDbLine
 10
360.1889650485
 20
501.2795021225
 30
0.0
 11
359.3877316295
 21
502.167123374
 31
0.0
  0
LWPOLYLINE
  5
230
330
1F
100
AcDbEntity
  8
0
  6
Continuous
 62
     8
370
    25
100
AcDbPolyline
 90
        3
 70
   128
 43
0.0
 10
351.730339191
 20
507.8327545208
 10
350.0989549271
 20
508.5740492787
 10
349.265436291
 20
508.903810945
  0
LWPOLYLINE
  5
231
330
1F
100
AcDbEntity
  8
0
  6
Continuous
 62
     8
370
    25
100
AcDbPolyline
 90
        3
 70
   128
 43
0.0
 10
339.8810790747
 20
510.636404997
 10
337.8064102396
 20
510.5670650142
 10
337.1854544217
 20
510.5151757548
  0
LWPOLYLINE
  5
232
330
1F
100
AcDbEntity
  8
0
  6
Continuous
 62
     8
370
    25
100
AcDbPolyline
 90
        3
 70
   128
 43
0.0
 10
327.9966085363
 20
507.9481149615
 10
325.9263820309
 20
506.8345656857
 10
325.6410543749
 20
506.662286116
  0
LWPOLYLINE
  5
233
330
1F
100
AcDbEntity
  8
0
  6
Continuous
 62
     8
370
    25
100
AcDbPolyline
 90
        3
 70
   128
 43
0.0
 10
318.5266399651
 20
500.3391001955
 10
316.9861647685
 20
498.1705834905
 10
316.9839602161
 20
498.1671309781
  0
LINE
  5
234
330
1F
100
AcDbEntity
  8
0
  6
Continuous
 62
     8
370
    25
100
AcDbLine
 10
313.367520735
 20
489.4117160669
 30
0.0
 11
312.9302903111
 21
486.8045762465
 31
0.0
  0
LWPOLYLINE
  5
235
330
1F
100
AcDbEntity
  8
0
  6
Continuous
 62
     8
370
    25
100
AcDbPolyline
 90
        3
 70
   128
 43
0.0
 10
366.1750598036
 20
489.170658535
 10
365.929945132
 20
490.2352269872
 10
365.5090184246
 20
491.7255411414
  0
LINE
  5
236
330
1F
100
AcDbEntity
  8
0
  6
Continuous
 62
     8
370
    25
100
AcDbLine
 10
361.1193813584
 20
500.1403596072
 30
0.0
 11
360.1889650517
 21
501.2795021188
 31
0.0
  0
SPLINE
  5
237
330
1F
100
AcDbEntity
  8
0
  6
Continuous
 62
     8
370
    25
100
AcDbSpline
210
0.0
220
0.0
230
1.0
 70
     8
 71
     3
 72
     9
 73
     5
 74
     0
 42
0.000000001
 43
0.00000001
 40
0.0
 40
0.0
 40
0.0
 40
0.0
 40
0.6902920759907344
 40
1.0
 40
1.0
 40
1.0
 40
1.0
 10
350.5440556533135
 20
470.9631282027559
 30
0.0
 10
349.4477470011285
 20
472.2170920049973
 30
0.0
 10
347.8595661566483
 20
474.033661897447
 30
0.0
 10
346.299878096874
 20
475.8043734397444
 30
0.0
 10
345.8168303457793
 20
476.3527768355286
 30
0.0
  0
SPLINE
  5
238
330
1F
100
AcDbEntity
  8
0
  6
Continuous
 62
     8
370
    25
100
AcDbSpline
210
0.0
220
0.0
230
1.0
 70
     8
 71
     3
 72
     9
 73
     5
 74
     0
 42
0.000000001
 43
0.00000001
 40
0.0
 40
0.0
 40
0.0
 40
0.0
 40
0.4992221801252307
 40
1.0
 40
1.0
 40
1.0
 40
1.0
 10
334.0626195618628
 20
489.8087693223736
 30
0.0
 10
333.2181925332231
 20
490.7839018126059
 30
0.0
 10
331.5267071340211
 20
492.7372054298204
 30
0.0
 10
329.807786466983
 20
494.7075757139128
 30
0.0
 10
328.9469891228059
 20
495.6942934491266
 30
0.0
  0
SPLINE
  5
239
330
1F
100
AcDbEntity
  8
0
  6
Continuous
 62
     8
370
    25
100
AcDbSpline
210
0.0
220
0.0
230
1.0
 70
     8
 71
     3
 72
    12
 73
     8
 74
     0
 42
0.000000001
 43
0.00000001
 40
0.0
 40
0.0
 40
0.0
 40
0.0
 40
0.2255205936560838
 40
0.4658392100985461
 40
0.7172828359933978
 40
0.9687264618241903
 40
1.0
 40
1.0
 40
1.0
 40
1.0
 10
332.1169636823816
 20
485.7943795614611
 30
0.0
 10
332.0828484668143
 20
485.8073812720877
 30
0.0
 10
332.0123794918326
 20
485.8342378287773
 30
0.0
 10
331.9190517457249
 20
485.8716512403372
 30
0.0
 10
331.8462215220599
 20
485.9022174044229
 30
0.0
 10
331.8064840106518
 20
485.919934633819
 30
0.0
 10
331.8021619962985
 20
485.9231460808464
 30
0.0
 10
331.8016839047708
 20
485.923501323909
 30
0.0
  0
SPLINE
  5
23A
330
1F
100
AcDbEntity
  8
0
  6
Continuous
 62
     8
370
    25
100
AcDbSpline
210
0.0
220
0.0
230
1.0
 70
     8
 71
     3
 72
    12
 73
     8
 74
     0
 42
0.000000001
 43
0.00000001
 40
0.0
 40
0.0
 40
0.0
 40
0.0
 40
0.3063820004926085
 40
0.5275372706286733
 40
0.7593748479610455
 40
0.9912124253224496
 40
1.0
 40
1.0
 40
1.0
 40
1.0
 10
347.4197192156554
 20
480.0226096568962
 30
0.0
 10
347.5228363938747
 20
479.9842725917202
 30
0.0
 10
347.7003864936369
 20
479.9182627390057
 30
0.0
 10
347.9198650403281
 20
479.8409907613286
 30
0.0
 10
348.064409845398
 20
479.7932106419588
 30
0.0
 10
348.1416443922185
 20
479.7696200022002
 30
0.0
 10
348.1482385105363
 20
479.7701316164863
 30
0.0
 10
348.1484793262061
 20
479.7701503005212
 30
0.0
  0
SPLINE
  5
23B
330
1F
100
AcDbEntity
  8
0
  6
Continuous
 62
     8
370
    25
100
AcDbSpline
210
0.0
220
0.0
230
1.0
 70
     8
 71
     3
 72
    12
 73
     8
 74
     0
 42
0.000000001
 43
0.00000001
 40
0.0
 40
0.0
 40
0.0
 40
0.0
 40
0.0180586860292301
 40
0.2477278160020256
 40
0.4773969459460738
 40
0.6964836835626823
 40
1.0
 40
1.0
 40
1.0
 40
1.0
 10
331.3417423157113
 20
486.0937953457458
 30
0.0
 10
331.3422121289358
 20
486.0933916875262
 30
0.0
 10
331.3486569945176
 20
486.0878543317625
 30
0.0
 10
331.4262836478447
 20
486.0530640973344
 30
0.0
 10
331.5712676245815
 20
485.9919159644218
 30
0.0
 10
331.7906268164353
 20
485.904080796889
 30
0.0
 10
331.9681968216166
 20
485.8364819439614
 30
0.0
 10
332.0713255604641
 20
485.7972220225413
 30
0.0
  0
ARC
  5
23C
330
1F
100
AcDbEntity
  8
0
  6
Continuous
 62
     8
370
    25
100
AcDbCircle
 10
339.7482064222
 20
483.2514968016
 30
0.0
 40
39.9360029880169
100
AcDbArc
 50
167.0744680812
 51
357.8102493553
  0
ARC
  5
23D
330
1F
100
AcDbEntity
  8
0
  6
Continuous
 62
     8
370
    25
100
AcDbCircle
 10
339.7932872562
 20
483.235776963
 30
0.0
 40
39.89035688510061
100
AcDbArc
 50
357.8303376929
 51
12.5759885148
  0
LWPOLYLINE
  5
23E
330
1F
100
AcDbEntity
  8
0
  6
Continuous
 62
     8
370
    25
100
AcDbPolyline
 90
        3
 70
   128
 43
0.0
 10
339.6091180392
 20
452.9799736978
 10
341.9062697977
 20
453.0558055485
 10
342.5627558953
 20
453.10920957
  0
LWPOLYLINE
  5
23F
330
1F
100
AcDbEntity
  8
0
  6
Continuous
 62
     8
370
    25
100
AcDbPolyline
 90
        3
 70
   128
 43
0.0
 10
352.7719826234
 20
455.8805843383
 10
354.5571834046
 20
456.7894393345
 10
355.3790507229
 20
457.2588890468
  0
LWPOLYLINE
  5
240
330
1F
100
AcDbEntity
  8
0
  6
Continuous
 62
     8
370
    25
100
AcDbPolyline
 90
        3
 70
   128
 43
0.0
 10
363.4415056421
 20
464.164789163
 10
364.4701739046
 20
465.4867384179
 10
365.205025151
 20
466.5311712446
  0
LWPOLYLINE
  5
241
330
1F
100
AcDbEntity
  8
0
  6
Continuous
 62
     8
370
    25
100
AcDbPolyline
 90
        3
 70
   128
 43
0.0
 10
369.5304075679
 20
476.2855368084
 10
369.8128333242
 20
477.5400143632
 10
370.1019722494
 20
479.1940225602
  0
LWPOLYLINE
  5
242
330
1F
100
AcDbEntity
  8
0
  6
Continuous
 62
     8
370
    25
100
AcDbPolyline
 90
        3
 70
   128
 43
0.0
 10
369.7759137267
 20
489.922862761
 10
369.597575554
 20
490.7212292285
 10
369.0218988585
 20
492.8132979356
  0
LWPOLYLINE
  5
243
330
1F
100
AcDbEntity
  8
0
  6
Continuous
 62
     8
370
    25
100
AcDbPolyline
 90
        3
 70
   128
 43
0.0
 10
364.0289510947
 20
502.3825302558
 10
363.8641908122
 20
502.5938465098
 10
362.068793955
 20
504.6765540018
  0
LWPOLYLINE
  5
244
330
1F
100
AcDbEntity
  8
0
  6
Continuous
 62
     8
370
    25
100
AcDbPolyline
 90
        3
 70
   128
 43
0.0
 10
353.3582685749
 20
511.1209418701
 10
350.6351009303
 20
512.3079172774
 10
350.567042848
 20
512.3336473419
  0
LWPOLYLINE
  5
245
330
1F
100
AcDbEntity
  8
0
  6
Continuous
 62
     8
370
    25
100
AcDbPolyline
 90
        3
 70
   128
 43
0.0
 10
339.8940309572
 20
514.3038835429
 10
337.5847749784
 20
514.2281078603
 10
336.8421847138
 20
514.1666464243
  0
LWPOLYLINE
  5
246
330
1F
100
AcDbEntity
  8
0
  6
Continuous
 62
     8
370
    25
100
AcDbPolyline
 90
        3
 70
   128
 43
0.0
 10
326.3859449518
 20
511.2447619641
 10
324.9338613715
 20
510.4944740743
 10
323.72459388
 20
509.7918754981
  0
LWPOLYLINE
  5
247
330
1F
100
AcDbEntity
  8
0
  6
Continuous
 62
     8
370
    25
100
AcDbPolyline
 90
        3
 70
   128
 43
0.0
 10
315.6251926934
 20
502.5917347183
 10
315.0208708715
 20
501.7971749909
 10
313.8864717657
 20
500.1434637421
  0
LWPOLYLINE
  5
248
330
1F
100
AcDbEntity
  8
0
  6
Continuous
 62
     8
370
    25
100
AcDbPolyline
 90
        3
 70
   128
 43
0.0
 10
309.768487129
 20
490.1724729365
 10
309.6782114519
 20
489.7438990457
 10
309.2760062077
 20
487.2357188744
  0
LINE
  5
249
330
1F
100
AcDbEntity
  8
0
  6
Continuous
 62
     8
370
    25
100
AcDbLine
 10
309.9010482331
 20
476.5308394191
 30
0.0
 11
310.7262724466
 21
473.6878321622
 31
0.0
  0
LWPOLYLINE
  5
24A
330
1F
100
AcDbEntity
  8
0
  6
Continuous
 62
     8
370
    25
100
AcDbPolyline
 90
        3
 70
   128
 43
0.0
 10
315.8874180805
 20
464.3634731888
 10
317.8185473473
 20
462.1950654657
 10
317.852894213
 20
462.1600485792
  0
LWPOLYLINE
  5
24B
330
1F
100
AcDbEntity
  8
0
  6
Continuous
 62
     8
370
    25
100
AcDbPolyline
 90
        3
 70
   128
 43
0.0
 10
326.4787718464
 20
455.9944706135
 10
328.8559438458
 20
454.9759961314
 10
329.2020527115
 20
454.847053884
  0
ARC
  5
24C
330
1F
100
AcDbEntity
  8
0
  6
Continuous
 62
     8
370
    25
100
AcDbCircle
 10
282.3252738797
 20
559.9842873053
 30
0.0
 40
76.89461006422006
100
AcDbArc
 50
342.8912895779
 51
343.3832674187
  0
ARC
  5
24D
330
1F
100
AcDbEntity
  8
0
  6
Continuous
 62
     8
370
    25
100
AcDbCircle
 10
370.8758067079
 20
557.7824283425
 30
0.0
 40
57.45638695999718
100
AcDbArc
 50
292.0063016113
 51
292.689907402
  0
ARC
  5
24E
330
1F
100
AcDbEntity
  8
0
  6
Continuous
 62
     8
370
    25
100
AcDbCircle
 10
397.165770901
 20
559.9842873067
 30
0.0
 40
76.89461006895488
100
AcDbArc
 50
196.6167325813
 51
197.1087104221
  0
ARC
  5
24F
330
1F
100
AcDbEntity
  8
0
  6
Continuous
 62
     8
370
    25
100
AcDbCircle
 10
308.6152380717
 20
557.7824283501
 30
0.0
 40
57.45638696826147
100
AcDbArc
 50
247.3100925978
 51
247.9936983884
  0
ENDSEC
  0
SECTION
  2
OBJECTS
  0
DICTIONARY
  5
C
330
0
100
AcDbDictionary
281
     1
  3
ACAD_GROUP
350
D
  3
ACAD_LAYOUT
350
1A
  3
ACAD_MLINESTYLE
350
17
  3
ACAD_PLOTSETTINGS
350
19
  3
ACAD_PLOTSTYLENAME
350
E
  3
ACAD_SCALELIST
350
47
  0
DICTIONARY
  5
D
102
{ACAD_REACTORS
330
C
102
}
330
C
100
AcDbDictionary
281
     1
  0
DICTIONARY
  5
1A
102
{ACAD_REACTORS
330
C
102
}
330
C
100
AcDbDictionary
281
     1
  3
Layout1
350
1E
  3
Layout2
350
26
  3
Model
350
22
  0
DICTIONARY
  5
17
102
{ACAD_REACTORS
330
C
102
}
330
C
100
AcDbDictionary
281
     1
  3
Standard
350
18
  0
DICTIONARY
  5
19
102
{ACAD_REACTORS
330
C
102
}
330
C
100
AcDbDictionary
281
     1
  0
ACDBDICTIONARYWDFLT
  5
E
102
{ACAD_REACTORS
330
C
102
}
330
C
100
AcDbDictionary
281
     1
  3
Normal
350
F
100
AcDbDictionaryWithDefault
340
F
  0
DICTIONARY
  5
47
102
{ACAD_REACTORS
330
C
102
}
330
C
100
AcDbDictionary
281
     1
  3
A0
350
48
  3
A1
350
49
  3
A2
350
4A
  3
A3
350
4B
  3
A4
350
4C
  3
A5
350
4D
  3
A6
350
4E
  3
A7
350
4F
  3
A8
350
50
  3
A9
350
51
  3
B0
350
52
  3
B1
350
53
  3
B2
350
54
  3
B3
350
55
  3
B4
350
56
  3
B5
350
57
  3
B6
350
58
  3
B7
350
59
  3
B8
350
5A
  3
B9
350
5B
  3
C0
350
5C
  3
C1
350
5D
  3
C2
350
5E
  3
C3
350
5F
  3
C4
350
60
  3
C5
350
61
  3
C6
350
62
  3
C7
350
63
  3
C8
350
64
  3
C9
350
65
  3
D0
350
66
  3
D1
350
67
  3
D2
350
68
  0
LAYOUT
  5
1E
102
{ACAD_REACTORS
330
1A
102
}
330
1A
100
AcDbPlotSettings
  1

  2
none_device
  4

  6

 40
0.0
 41
0.0
 42
0.0
 43
0.0
 44
0.0
 45
0.0
 46
0.0
 47
0.0
 48
0.0
 49
0.0
140
0.0
141
0.0
142
1.0
143
1.0
 70
   688
 72
     1
 73
     0
 74
     5
  7

 75
    16
147
1.0
148
0.0
149
0.0
100
AcDbLayout
  1
Layout1
 70
     1
 71
     1
 10
0.0
 20
0.0
 11
420.0
 21
297.0
 12
0.0
 22
0.0
 32
0.0
 14
1.0000000000E+20
 24
1.0000000000E+20
 34
1.0000000000E+20
 15
-1.0000000000E+20
 25
-1.0000000000E+20
 35
-1.0000000000E+20
146
0.0
 13
0.0
 23
0.0
 33
0.0
 16
1.0
 26
0.0
 36
0.0
 17
0.0
 27
1.0
 37
0.0
 76
     0
330
1B
  0
LAYOUT
  5
26
102
{ACAD_REACTORS
330
1A
102
}
330
1A
100
AcDbPlotSettings
  1

  2
none_device
  4

  6

 40
0.0
 41
0.0
 42
0.0
 43
0.0
 44
0.0
 45
0.0
 46
0.0
 47
0.0
 48
0.0
 49
0.0
140
0.0
141
0.0
142
1.0
143
1.0
 70
   688
 72
     1
 73
     0
 74
     5
  7

 75
    16
147
1.0
148
0.0
149
0.0
100
AcDbLayout
  1
Layout2
 70
     1
 71
     2
 10
0.0
 20
0.0
 11
0.0
 21
0.0
 12
0.0
 22
0.0
 32
0.0
 14
0.0
 24
0.0
 34
0.0
 15
0.0
 25
0.0
 35
0.0
146
0.0
 13
0.0
 23
0.0
 33
0.0
 16
1.0
 26
0.0
 36
0.0
 17
0.0
 27
1.0
 37
0.0
 76
     0
330
23
  0
LAYOUT
  5
22
102
{ACAD_REACTORS
330
1A
102
}
330
1A
100
AcDbPlotSettings
  1

  2
none_device
  4
Letter_(8.50_x_11.00_Inches)
  6

 40
6.35
 41
6.35
 42
6.35000508
 43
6.35000508
 44
215.9
 45
279.4
 46
0.0
 47
0.0
 48
0.0
 49
0.0
140
0.0
141
0.0
142
1.0
143
1.0
 70
  1712
 72
     1
 73
     0
 74
     0
  7

 75
     0
147
1.0
148
0.0
149
0.0
100
AcDbLayout
  1
Model
 70
     1
 71
     0
 10
0.0
 20
0.0
 11
750.0
 21
750.0
 12
0.0
 22
0.0
 32
0.0
 14
0.0
 24
0.0
 34
0.0
 15
750.0
 25
750.0
 35
0.0
146
0.0
 13
0.0
 23
0.0
 33
0.0
 16
1.0
 26
0.0
 36
0.0
 17
0.0
 27
1.0
 37
0.0
 76
     0
330
1F
331
29
  0
MLINESTYLE
  5
18
102
{ACAD_REACTORS
330
17
102
}
330
17
100
AcDbMlineStyle
  2
Standard
 70
     0
  3

 62
   256
 51
90.0
 52
90.0
 71
     2
 49
0.5
 62
   256
  6
BYLAYER
 49
-0.5
 62
   256
  6
BYLAYER
  0
ACDBPLACEHOLDER
  5
F
102
{ACAD_REACTORS
330
E
102
}
330
E
  0
SCALE
  5
48
102
{ACAD_REACTORS
330
47
102
}
330
47
100
AcDbScale
 70
     0
300
1:1
140
1.0
141
1.0
290
     1
  0
SCALE
  5
49
102
{ACAD_REACTORS
330
47
102
}
330
47
100
AcDbScale
 70
     0
300
1:2
140
1.0
141
2.0
290
     0
  0
SCALE
  5
4A
102
{ACAD_REACTORS
330
47
102
}
330
47
100
AcDbScale
 70
     0
300
1:4
140
1.0
141
4.0
290
     0
  0
SCALE
  5
4B
102
{ACAD_REACTORS
330
47
102
}
330
47
100
AcDbScale
 70
     0
300
1:5
140
1.0
141
5.0
290
     0
  0
SCALE
  5
4C
102
{ACAD_REACTORS
330
47
102
}
330
47
100
AcDbScale
 70
     0
300
1:8
140
1.0
141
8.0
290
     0
  0
SCALE
  5
4D
102
{ACAD_REACTORS
330
47
102
}
330
47
100
AcDbScale
 70
     0
300
1:10
140
1.0
141
10.0
290
     0
  0
SCALE
  5
4E
102
{ACAD_REACTORS
330
47
102
}
330
47
100
AcDbScale
 70
     0
300
1:16
140
1.0
141
16.0
290
     0
  0
SCALE
  5
4F
102
{ACAD_REACTORS
330
47
102
}
330
47
100
AcDbScale
 70
     0
300
1:20
140
1.0
141
20.0
290
     0
  0
SCALE
  5
50
102
{ACAD_REACTORS
330
47
102
}
330
47
100
AcDbScale
 70
     0
300
1:30
140
1.0
141
30.0
290
     0
  0
SCALE
  5
51
102
{ACAD_REACTORS
330
47
102
}
330
47
100
AcDbScale
 70
     0
300
1:40
140
1.0
141
40.0
290
     0
  0
SCALE
  5
52
102
{ACAD_REACTORS
330
47
102
}
330
47
100
AcDbScale
 70
     0
300
1:50
140
1.0
141
50.0
290
     0
  0
SCALE
  5
53
102
{ACAD_REACTORS
330
47
102
}
330
47
100
AcDbScale
 70
     0
300
1:100
140
1.0
141
100.0
290
     0
  0
SCALE
  5
54
102
{ACAD_REACTORS
330
47
102
}
330
47
100
AcDbScale
 70
     0
300
2:1
140
2.0
141
1.0
290
     0
  0
SCALE
  5
55
102
{ACAD_REACTORS
330
47
102
}
330
47
100
AcDbScale
 70
     0
300
4:1
140
4.0
141
1.0
290
     0
  0
SCALE
  5
56
102
{ACAD_REACTORS
330
47
102
}
330
47
100
AcDbScale
 70
     0
300
8:1
140
8.0
141
1.0
290
     0
  0
SCALE
  5
57
102
{ACAD_REACTORS
330
47
102
}
330
47
100
AcDbScale
 70
     0
300
10:1
140
10.0
141
1.0
290
     0
  0
SCALE
  5
58
102
{ACAD_REACTORS
330
47
102
}
330
47
100
AcDbScale
 70
     0
300
100:1
140
100.0
141
1.0
290
     0
  0
SCALE
  5
59
102
{ACAD_REACTORS
330
47
102
}
330
47
100
AcDbScale
 70
     0
300
1/128" = 1'-0"
140
0.0078125
141
12.0
290
     0
  0
SCALE
  5
5A
102
{ACAD_REACTORS
330
47
102
}
330
47
100
AcDbScale
 70
     0
300
1/64" = 1'-0"
140
0.015625
141
12.0
290
     0
  0
SCALE
  5
5B
102
{ACAD_REACTORS
330
47
102
}
330
47
100
AcDbScale
 70
     0
300
1/32" = 1'-0"
140
0.03125
141
12.0
290
     0
  0
SCALE
  5
5C
102
{ACAD_REACTORS
330
47
102
}
330
47
100
AcDbScale
 70
     0
300
1/16" = 1'-0"
140
0.0625
141
12.0
290
     0
  0
SCALE
  5
5D
102
{ACAD_REACTORS
330
47
102
}
330
47
100
AcDbScale
 70
     0
300
3/32" = 1'-0"
140
0.09375
141
12.0
290
     0
  0
SCALE
  5
5E
102
{ACAD_REACTORS
330
47
102
}
330
47
100
AcDbScale
 70
     0
300
1/8" = 1'-0"
140
0.125
141
12.0
290
     0
  0
SCALE
  5
5F
102
{ACAD_REACTORS
330
47
102
}
330
47
100
AcDbScale
 70
     0
300
3/16" = 1'-0"
140
0.1875
141
12.0
290
     0
  0
SCALE
  5
60
102
{ACAD_REACTORS
330
47
102
}
330
47
100
AcDbScale
 70
     0
300
1/4" = 1'-0"
140
0.25
141
12.0
290
     0
  0
SCALE
  5
61
102
{ACAD_REACTORS
330
47
102
}
330
47
100
AcDbScale
 70
     0
300
3/8" = 1'-0"
140
0.375
141
12.0
290
     0
  0
SCALE
  5
62
102
{ACAD_REACTORS
330
47
102
}
330
47
100
AcDbScale
 70
     0
300
1/2" = 1'-0"
140
0.5
141
12.0
290
     0
  0
SCALE
  5
63
102
{ACAD_REACTORS
330
47
102
}
330
47
100
AcDbScale
 70
     0
300
3/4" = 1'-0"
140
0.75
141
12.0
290
     0
  0
SCALE
  5
64
102
{ACAD_REACTORS
330
47
102
}
330
47
100
AcDbScale
 70
     0
300
1" = 1'-0"
140
1.0
141
12.0
290
     0
  0
SCALE
  5
65
102
{ACAD_REACTORS
330
47
102
}
330
47
100
AcDbScale
 70
     0
300
1-1/2" = 1'-0"
140
1.5
141
12.0
290
     0
  0
SCALE
  5
66
102
{ACAD_REACTORS
330
47
102
}
330
47
100
AcDbScale
 70
     0
300
3" = 1'-0"
140
3.0
141
12.0
290
     0
  0
SCALE
  5
67
102
{ACAD_REACTORS
330
47
102
}
330
47
100
AcDbScale
 70
     0
300
6" = 1'-0"
140
6.0
141
12.0
290
     0
  0
SCALE
  5
68
102
{ACAD_REACTORS
330
47
102
}
330
47
100
AcDbScale
 70
     0
300
1'-0" = 1'-0"
140
12.0
141
12.0
290
     0
  0
ENDSEC
  0
EOF
