  0
SECTION
  2
HEADER
  9
$ACADVER
  1
AC1015
  9
$ACADMAINTVER
 70
     6
  9
$DWGCODEPAGE
  3
ANSI_1252
  9
$INSBASE
 10
0.0
 20
0.0
 30
0.0
  9
$EXTMIN
 10
0.0
 20
0.0
 30
0.0
  9
$EXTMAX
 10
500.0
 20
500.0
 30
0.0
  9
$LIMMIN
 10
0.0
 20
0.0
  9
$LIMMAX
 10
500.0
 20
500.0
  9
$ORTHOMODE
 70
     0
  9
$REGENMODE
 70
     1
  9
$FILLMODE
 70
     1
  9
$QTEXTMODE
 70
     0
  9
$MIRRTEXT
 70
     1
  9
$LTSCALE
 40
1.0
  9
$ATTMODE
 70
     1
  9
$TEXTSIZE
 40
3.5
  9
$TRACEWID
 40
1.0
  9
$TEXTSTYLE
  7
Standard
  9
$CLAYER
  8
0
  9
$CELTYPE
  6
ByLayer
  9
$CECOLOR
 62
   256
  9
$CELTSCALE
 40
1.0
  9
$DISPSILH
 70
     0
  9
$DIMSCALE
 40
1.0
  9
$DIMASZ
 40
3.302
  9
$DIMEXO
 40
1.0
  9
$DIMDLI
 40
3.75
  9
$DIMRND
 40
0.0
  9
$DIMDLE
 40
0.0
  9
$DIMEXE
 40
1.0
  9
$DIMTP
 40
0.0
  9
$DIMTM
 40
0.0
  9
$DIMTXT
 40
3.5
  9
$DIMCEN
 40
2.5
  9
$DIMTSZ
 40
0.0
  9
$DIMTOL
 70
     0
  9
$DIMLIM
 70
     0
  9
$DIMTIH
 70
     1
  9
$DIMTOH
 70
     1
  9
$DIMSE1
 70
     0
  9
$DIMSE2
 70
     0
  9
$DIMTAD
 70
     1
  9
$DIMZIN
 70
     1
  9
$DIMBLK
  1

  9
$DIMASO
 70
     1
  9
$DIMSHO
 70
     1
  9
$DIMPOST
  1

  9
$DIMAPOST
  1

  9
$DIMALT
 70
     0
  9
$DIMALTD
 70
     3
  9
$DIMALTF
 40
0.0393700787
  9
$DIMLFAC
 40
1.0
  9
$DIMTOFL
 70
     1
  9
$DIMTVP
 40
0.0
  9
$DIMTIX
 70
     0
  9
$DIMSOXD
 70
     0
  9
$DIMSAH
 70
     0
  9
$DIMBLK1
  1

  9
$DIMBLK2
  1

  9
$DIMSTYLE
  2
ISO-25
  9
$DIMCLRD
 70
     0
  9
$DIMCLRE
 70
     0
  9
$DIMCLRT
 70
     0
  9
$DIMTFAC
 40
1.0
  9
$DIMGAP
 40
1.524
  9
$DIMJUST
 70
     0
  9
$DIMSD1
 70
     0
  9
$DIMSD2
 70
     0
  9
$DIMTOLJ
 70
     0
  9
$DIMTZIN
 70
     1
  9
$DIMALTZ
 70
     0
  9
$DIMALTTZ
 70
     0
  9
$DIMUPT
 70
     0
  9
$DIMDEC
 70
     0
  9
$DIMTDEC
 70
     0
  9
$DIMALTU
 70
     2
  9
$DIMALTTD
 70
     3
  9
$DIMTXSTY
  7
Standard
  9
$DIMAUNIT
 70
     0
  9
$DIMADEC
 70
     0
  9
$DIMALTRND
 40
0.0
  9
$DIMAZIN
 70
     0
  9
$DIMDSEP
 70
    44
  9
$DIMATFIT
 70
     3
  9
$DIMFRAC
 70
     0
  9
$DIMLDRBLK
  1

  9
$DIMLUNIT
 70
     2
  9
$DIMLWD
 70
    -2
  9
$DIMLWE
 70
    -2
  9
$DIMTMOVE
 70
     0
  9
$LUNITS
 70
     2
  9
$LUPREC
 70
     2
  9
$SKETCHINC
 40
1.0
  9
$FILLETRAD
 40
0.0
  9
$AUNITS
 70
     0
  9
$AUPREC
 70
     2
  9
$MENU
  1
.
  9
$ELEVATION
 40
0.0
  9
$PELEVATION
 40
0.0
  9
$THICKNESS
 40
0.0
  9
$LIMCHECK
 70
     0
  9
$CHAMFERA
 40
0.0
  9
$CHAMFERB
 40
0.0
  9
$CHAMFERC
 40
0.0
  9
$CHAMFERD
 40
0.0
  9
$SKPOLY
 70
     0
  9
$TDCREATE
 40
2460556.379501563
  9
$TDUCREATE
 40
2460556.254501563
  9
$TDUPDATE
 40
2460556.379502245
  9
$TDUUPDATE
 40
2460556.254502245
  9
$TDINDWG
 40
0.0000000116
  9
$TDUSRTIMER
 40
0.0000000116
  9
$USRTIMER
 70
     1
  9
$ANGBASE
 50
0.0
  9
$ANGDIR
 70
     0
  9
$PDMODE
 70
     0
  9
$PDSIZE
 40
-1.0
  9
$PLINEWID
 40
0.0
  9
$SPLFRAME
 70
     0
  9
$SPLINETYPE
 70
     6
  9
$SPLINESEGS
 70
     8
  9
$HANDSEED
  5
F1
  9
$SURFTAB1
 70
     6
  9
$SURFTAB2
 70
     6
  9
$SURFTYPE
 70
     6
  9
$SURFU
 70
     6
  9
$SURFV
 70
     6
  9
$UCSBASE
  2

  9
$UCSNAME
  2

  9
$UCSORG
 10
0.0
 20
0.0
 30
0.0
  9
$UCSXDIR
 10
1.0
 20
0.0
 30
0.0
  9
$UCSYDIR
 10
0.0
 20
1.0
 30
0.0
  9
$UCSORTHOREF
  2

  9
$UCSORTHOVIEW
 70
     0
  9
$UCSORGTOP
 10
0.0
 20
0.0
 30
0.0
  9
$UCSORGBOTTOM
 10
0.0
 20
0.0
 30
0.0
  9
$UCSORGLEFT
 10
0.0
 20
0.0
 30
0.0
  9
$UCSORGRIGHT
 10
0.0
 20
0.0
 30
0.0
  9
$UCSORGFRONT
 10
0.0
 20
0.0
 30
0.0
  9
$UCSORGBACK
 10
0.0
 20
0.0
 30
0.0
  9
$PUCSBASE
  2

  9
$PUCSNAME
  2

  9
$PUCSORG
 10
0.0
 20
0.0
 30
0.0
  9
$PUCSXDIR
 10
1.0
 20
0.0
 30
0.0
  9
$PUCSYDIR
 10
0.0
 20
1.0
 30
0.0
  9
$PUCSORTHOREF
  2

  9
$PUCSORTHOVIEW
 70
     0
  9
$PUCSORGTOP
 10
0.0
 20
0.0
 30
0.0
  9
$PUCSORGBOTTOM
 10
0.0
 20
0.0
 30
0.0
  9
$PUCSORGLEFT
 10
0.0
 20
0.0
 30
0.0
  9
$PUCSORGRIGHT
 10
0.0
 20
0.0
 30
0.0
  9
$PUCSORGFRONT
 10
0.0
 20
0.0
 30
0.0
  9
$PUCSORGBACK
 10
0.0
 20
0.0
 30
0.0
  9
$USERI1
 70
     0
  9
$USERI2
 70
     0
  9
$USERI3
 70
     0
  9
$USERI4
 70
     0
  9
$USERI5
 70
     0
  9
$USERR1
 40
0.0
  9
$USERR2
 40
0.0
  9
$USERR3
 40
0.0
  9
$USERR4
 40
0.0
  9
$USERR5
 40
0.0
  9
$WORLDVIEW
 70
     1
  9
$SHADEDGE
 70
     3
  9
$SHADEDIF
 70
    70
  9
$TILEMODE
 70
     1
  9
$MAXACTVP
 70
    64
  9
$PINSBASE
 10
0.0
 20
0.0
 30
0.0
  9
$PLIMCHECK
 70
     0
  9
$PEXTMIN
 10
1.0000000000E+20
 20
1.0000000000E+20
 30
1.0000000000E+20
  9
$PEXTMAX
 10
-1.0000000000E+20
 20
-1.0000000000E+20
 30
-1.0000000000E+20
  9
$PLIMMIN
 10
0.0
 20
0.0
  9
$PLIMMAX
 10
420.0
 20
297.0
  9
$UNITMODE
 70
     0
  9
$VISRETAIN
 70
     1
  9
$PLINEGEN
 70
     0
  9
$PSLTSCALE
 70
     1
  9
$TREEDEPTH
 70
  3020
  9
$CMLSTYLE
  2
Standard
  9
$CMLJUST
 70
     0
  9
$CMLSCALE
 40
20.0
  9
$PROXYGRAPHICS
 70
     1
  9
$MEASUREMENT
 70
     1
  9
$CELWEIGHT
370
    -1
  9
$ENDCAPS
280
     0
  9
$JOINSTYLE
280
     0
  9
$LWDISPLAY
290
     1
  9
$INSUNITS
 70
     4
  9
$HYPERLINKBASE
  1

  9
$STYLESHEET
  1

  9
$XEDIT
290
     1
  9
$CEPSNTYPE
380
     0
  9
$PSTYLEMODE
290
     1
  9
$FINGERPRINTGUID
  2
{3f4dabd5-1399-4461-a252-fd02acf1bc8f}
  9
$VERSIONGUID
  2
{FAEB1C32-E019-11D5-929B-00C0DF256EC4}
  9
$EXTNAMES
290
     1
  9
$PSVPSCALE
 40
0.0
  9
$OLESTARTUP
290
     0
  0
ENDSEC
  0
SECTION
  2
CLASSES
  0
CLASS
  1
ACDBDICTIONARYWDFLT
  2
AcDbDictionaryWithDefault
  3
ObjectDBX Classes
 90
        0
280
     0
281
     0
  0
CLASS
  1
VISUALSTYLE
  2
AcDbVisualStyle
  3
ObjectDBX Classes
 90
     4095
280
     0
281
     0
  0
CLASS
  1
MATERIAL
  2
AcDbMaterial
  3
ObjectDBX Classes
 90
     1153
280
     0
281
     0
  0
CLASS
  1
SCALE
  2
AcDbScale
  3
ObjectDBX Classes
 90
     1153
280
     0
281
     0
  0
CLASS
  1
TABLESTYLE
  2
AcDbTableStyle
  3
ObjectDBX Classes
 90
     4095
280
     0
281
     0
  0
CLASS
  1
MLEADERSTYLE
  2
AcDbMLeaderStyle
  3
ACDB_MLEADERSTYLE_CLASS
 90
     4095
280
     0
281
     0
  0
CLASS
  1
SUN
  2
AcDbSun
  3
SCENEOE
 90
     1153
280
     0
281
     0
  0
CLASS
  1
ACDBPLACEHOLDER
  2
AcDbPlaceHolder
  3
ObjectDBX Classes
 90
        0
280
     0
281
     0
  0
CLASS
  1
LAYOUT
  2
AcDbLayout
  3
ObjectDBX Classes
 90
        0
280
     0
281
     0
  0
ENDSEC
  0
SECTION
  2
TABLES
  0
TABLE
  2
VPORT
  5
8
330
0
100
AcDbSymbolTable
 70
     1
  0
VPORT
  5
29
330
8
100
AcDbSymbolTableRecord
100
AcDbViewportTableRecord
  2
*Active
 70
     0
 10
0.0
 20
0.0
 11
1.0
 21
1.0
 12
250.0
 22
250.0
 13
0.0
 23
0.0
 14
10.0
 24
10.0
 15
10.0
 25
10.0
 16
0.0
 26
0.0
 36
1.0
 17
0.0
 27
0.0
 37
0.0
 40
500.0
 41
1.0
 42
50.0
 43
0.0
 44
0.0
 50
0.0
 51
0.0
 71
     0
 72
  2000
 73
     1
 74
     3
 75
     0
 76
     0
 77
     0
 78
     0
281
     0
 65
     1
110
0.0
120
0.0
130
0.0
111
1.0
121
0.0
131
0.0
112
0.0
122
1.0
132
0.0
 79
     0
146
0.0
  0
ENDTAB
  0
TABLE
  2
LTYPE
  5
5
330
0
100
AcDbSymbolTable
 70
     6
  0
LTYPE
  5
14
330
5
100
AcDbSymbolTableRecord
100
AcDbLinetypeTableRecord
  2
ByBlock
 70
     0
  3

 72
    65
 73
     0
 40
0.0
  0
LTYPE
  5
15
330
5
100
AcDbSymbolTableRecord
100
AcDbLinetypeTableRecord
  2
ByLayer
 70
     0
  3

 72
    65
 73
     0
 40
0.0
  0
LTYPE
  5
16
330
5
100
AcDbSymbolTableRecord
100
AcDbLinetypeTableRecord
  2
Continuous
 70
     0
  3
Solid line
 72
    65
 73
     0
 40
0.0
  0
LTYPE
  5
5E
330
5
100
AcDbSymbolTableRecord
100
AcDbLinetypeTableRecord
  2
HIDDEN
 70
     0
  3
Hidden __ __ __ __ __ __ __ __ __ __ __ __ __ __
 72
    65
 73
     2
 40
1.905
 49
1.27
 74
     0
 49
-0.635
 74
     0
  0
LTYPE
  5
5F
330
5
100
AcDbSymbolTableRecord
100
AcDbLinetypeTableRecord
  2
PHANTOM
 70
     0
  3
Phantom ______  __  __  ______  __  __  ______
 72
    65
 73
     6
 40
12.7
 49
6.35
 74
     0
 49
-1.27
 74
     0
 49
1.27
 74
     0
 49
-1.27
 74
     0
 49
1.27
 74
     0
 49
-1.27
 74
     0
  0
LTYPE
  5
60
330
5
100
AcDbSymbolTableRecord
100
AcDbLinetypeTableRecord
  2
CENTER
 70
     0
  3
Center ____ _ ____ _ ____ _ ____ _ ____ _ ____
 72
    65
 73
     4
 40
10.16
 49
6.35
 74
     0
 49
-1.27
 74
     0
 49
1.27
 74
     0
 49
-1.27
 74
     0
  0
LTYPE
  5
61
330
5
100
AcDbSymbolTableRecord
100
AcDbLinetypeTableRecord
  2
CENTERX2
 70
     0
  3
Center (2x) ________  __  ________  __  _____
 72
    65
 73
     4
 40
20.32
 49
12.7
 74
     0
 49
-2.54
 74
     0
 49
2.54
 74
     0
 49
-2.54
 74
     0
  0
LTYPE
  5
62
330
5
100
AcDbSymbolTableRecord
100
AcDbLinetypeTableRecord
  2
DOT2
 70
     0
  3
Dot (.5x) ........................................
 72
    65
 73
     2
 40
0.635
 49
0.0
 74
     0
 49
-0.635
 74
     0
  0
ENDTAB
  0
TABLE
  2
LAYER
  5
2
330
0
100
AcDbSymbolTable
 70
     2
  0
LAYER
  5
10
330
2
100
AcDbSymbolTableRecord
100
AcDbLayerTableRecord
  2
0
 70
     0
 62
     7
  6
Continuous
370
    -3
390
F
  0
LAYER
  5
63
330
2
100
AcDbSymbolTableRecord
100
AcDbLayerTableRecord
  2
TABLE_BL1
 70
     0
 62
   179
  6
Continuous
370
    -3
390
F
  0
ENDTAB
  0
TABLE
  2
STYLE
  5
3
330
0
100
AcDbSymbolTable
 70
     1
  0
STYLE
  5
11
330
3
100
AcDbSymbolTableRecord
100
AcDbTextStyleTableRecord
  2
Standard
 70
     0
 40
0.0
 41
1.0
 50
0.0
 71
     0
 42
3.5
  3
txt
  4

  0
ENDTAB
  0
TABLE
  2
VIEW
  5
6
330
0
100
AcDbSymbolTable
 70
     0
  0
ENDTAB
  0
TABLE
  2
UCS
  5
7
330
0
100
AcDbSymbolTable
 70
     0
  0
ENDTAB
  0
TABLE
  2
APPID
  5
9
330
0
100
AcDbSymbolTable
 70
     1
  0
APPID
  5
12
330
9
100
AcDbSymbolTableRecord
100
AcDbRegAppTableRecord
  2
ACAD
 70
     0
  0
ENDTAB
  0
TABLE
  2
DIMSTYLE
  5
A
330
0
100
AcDbSymbolTable
 70
     1
100
AcDbDimStyleTable
  0
DIMSTYLE
105
27
330
A
100
AcDbSymbolTableRecord
100
AcDbDimStyleTableRecord
  2
ISO-25
 70
     0
 41
2.5
 42
0.625
 43
3.75
 44
1.25
 73
     0
 74
     0
 77
     1
 78
     8
140
2.5
141
2.5
143
0.0393700787
147
0.625
171
     3
172
     1
178
     0
271
     2
272
     2
274
     3
278
    44
283
     0
284
     8
340
11
  0
ENDTAB
  0
TABLE
  2
BLOCK_RECORD
  5
1
330
0
100
AcDbSymbolTable
 70
     1
  0
BLOCK_RECORD
  5
1F
330
1
100
AcDbSymbolTableRecord
100
AcDbBlockTableRecord
  2
*Model_Space
340
22
  0
BLOCK_RECORD
  5
1B
330
1
100
AcDbSymbolTableRecord
100
AcDbBlockTableRecord
  2
*Paper_Space
340
1E
  0
BLOCK_RECORD
  5
23
330
1
100
AcDbSymbolTableRecord
100
AcDbBlockTableRecord
  2
*Paper_Space0
340
26
  0
ENDTAB
  0
ENDSEC
  0
SECTION
  2
BLOCKS
  0
BLOCK
  5
20
330
1F
100
AcDbEntity
  8
0
100
AcDbBlockBegin
  2
*Model_Space
 70
     0
 10
0.0
 20
0.0
 30
0.0
  3
*Model_Space
  1

  0
ENDBLK
  5
21
330
1F
100
AcDbEntity
  8
0
100
AcDbBlockEnd
  0
BLOCK
  5
1C
330
1B
100
AcDbEntity
 67
     1
  8
0
100
AcDbBlockBegin
  2
*Paper_Space
 70
     0
 10
0.0
 20
0.0
 30
0.0
  3
*Paper_Space
  1

  0
ENDBLK
  5
1D
330
1B
100
AcDbEntity
 67
     1
  8
0
100
AcDbBlockEnd
  0
BLOCK
  5
24
330
23
100
AcDbEntity
  8
0
100
AcDbBlockBegin
  2
*Paper_Space0
 70
     0
 10
0.0
 20
0.0
 30
0.0
  3
*Paper_Space0
  1

  0
ENDBLK
  5
25
330
23
100
AcDbEntity
  8
0
100
AcDbBlockEnd
  0
ENDSEC
  0
SECTION
  2
ENTITIES
  0
SPLINE
  5
64
330
1F
100
AcDbEntity
  8
0
  6
Continuous
 62
     7
370
    25
100
AcDbSpline
210
0.0
220
0.0
230
1.0
 70
     8
 71
     3
 72
    29
 73
    25
 74
     0
 42
0.00000001
 43
0.00000001
 40
0.0
 40
0.0
 40
0.0
 40
0.0
 40
0.0349321406882635
 40
0.0633980643159913
 40
0.0838985515737896
 40
0.1410481598295768
 40
0.1993926718331193
 40
0.2579538570990186
 40
0.3167358876867428
 40
0.3756685440136572
 40
0.4347110736298802
 40
0.4938368192040538
 40
0.5530116495173844
 40
0.6120983013386023
 40
0.6710428299972757
 40
0.7298261731686602
 40
0.7884258360426927
 40
0.8467958145206173
 40
0.8655669647427027
 40
0.8834823951604176
 40
0.9012873219477364
 40
0.9267778521638323
 40
0.9604934909203238
 40
1.0
 40
1.0
 40
1.0
 40
1.0
 10
275.7875977644128
 20
355.1888722589292
 30
0.0
 10
274.6989585141229
 20
356.008049416479
 30
0.0
 10
272.7231957968389
 20
357.4947675247107
 30
0.0
 10
269.8737280937164
 20
359.1120354986837
 30
0.0
 10
266.1432021203055
 20
360.8965354382936
 30
0.0
 10
261.0871287250089
 20
362.5876097556077
 30
0.0
 10
254.3371834703177
 20
363.5506694531364
 30
0.0
 10
247.4588663573761
 20
363.2614410494182
 30
0.0
 10
240.727885947059
 20
361.7110438513199
 30
0.0
 10
234.3792218659786
 20
358.9415926997001
 30
0.0
 10
228.6385092412095
 20
355.0418556570656
 30
0.0
 10
223.7095487254039
 20
350.1426150330878
 30
0.0
 10
219.769890354895
 20
344.4153691283711
 30
0.0
 10
216.9590929107098
 20
338.0654513857178
 30
0.0
 10
215.3708629597774
 20
331.3213497473499
 30
0.0
 10
215.0512235539314
 20
324.4190952596139
 30
0.0
 10
215.998845768592
 20
317.5991951923141
 30
0.0
 10
217.6832449255276
 20
312.5506455605463
 30
0.0
 10
219.2717645157616
 20
309.2034506631659
 30
0.0
 10
220.2915240652421
 20
307.3399125604057
 30
0.0
 10
221.5517952736295
 20
305.313513608181
 30
0.0
 10
223.3112878401682
 20
302.8805234887185
 30
0.0
 10
225.8288615450733
 20
299.9572613261545
 30
0.0
 10
227.9921537870991
 20
298.0916314750855
 30
0.0
 10
229.1593433209653
 20
297.0850436484694
 30
0.0
  0
SPLINE
  5
65
330
1F
100
AcDbEntity
  8
0
  6
Continuous
 62
     7
370
    25
100
AcDbSpline
210
0.0
220
0.0
230
1.0
 70
     8
 71
     3
 72
    29
 73
    25
 74
     0
 42
0.00000001
 43
0.00000001
 40
0.0
 40
0.0
 40
0.0
 40
0.0
 40
0.0349321406882635
 40
0.0633980643159913
 40
0.0838985515737895
 40
0.1410481598295767
 40
0.1993926718331194
 40
0.2579538570990188
 40
0.3167358876867428
 40
0.3756685440136572
 40
0.4347110736298801
 40
0.4938368192040538
 40
0.5530116495173844
 40
0.6120983013386023
 40
0.6710428299972757
 40
0.72982617316866
 40
0.7884258360426926
 40
0.8467958145206171
 40
0.8655669647427026
 40
0.8834823951604176
 40
0.9012873219477363
 40
0.9267778521638322
 40
0.9604934909203237
 40
0.9999999999999999
 40
0.9999999999999999
 40
0.9999999999999999
 40
0.9999999999999999
 10
229.1593433209653
 20
297.0850436484694
 30
0.0
 10
230.2479825712552
 20
296.2658664909196
 30
0.0
 10
232.2237452885392
 20
294.7791483826879
 30
0.0
 10
235.0732129916618
 20
293.1618804087149
 30
0.0
 10
238.8037389650726
 20
291.377380469105
 30
0.0
 10
243.8598123603692
 20
289.686306151791
 30
0.0
 10
250.6097576150604
 20
288.7232464542622
 30
0.0
 10
257.4880747280021
 20
289.0124748579803
 30
0.0
 10
264.2190551383191
 20
290.5628720560787
 30
0.0
 10
270.5677192193995
 20
293.3323232076985
 30
0.0
 10
276.3084318441686
 20
297.232060250333
 30
0.0
 10
281.2373923599743
 20
302.1313008743107
 30
0.0
 10
285.1770507304831
 20
307.8585467790274
 30
0.0
 10
287.9878481746683
 20
314.2084645216808
 30
0.0
 10
289.5760781256008
 20
320.9525661600487
 30
0.0
 10
289.8957175314467
 20
327.8548206477846
 30
0.0
 10
288.9480953167861
 20
334.6747207150844
 30
0.0
 10
287.2636961598507
 20
339.7232703468523
 30
0.0
 10
285.6751765696165
 20
343.0704652442327
 30
0.0
 10
284.6554170201361
 20
344.9340033469929
 30
0.0
 10
283.3951458117486
 20
346.9604022992175
 30
0.0
 10
281.6356532452099
 20
349.3933924186799
 30
0.0
 10
279.1180795403048
 20
352.3166545812441
 30
0.0
 10
276.9547872982791
 20
354.1822844323131
 30
0.0
 10
275.7875977644128
 20
355.1888722589291
 30
0.0
  0
SPLINE
  5
66
330
1F
100
AcDbEntity
  8
0
  6
Continuous
 62
     7
370
    25
100
AcDbSpline
210
0.0
220
0.0
230
1.0
 70
     8
 71
     3
 72
     9
 73
     5
 74
     0
 42
0.00000001
 43
0.00000001
 40
0.0
 40
0.0
 40
0.0
 40
0.0
 40
0.5031595920074103
 40
0.9999999999999999
 40
0.9999999999999999
 40
0.9999999999999999
 40
0.9999999999999999
 10
137.4764506364152
 20
60.8369671072172
 30
0.0
 10
137.4809113143531
 20
60.38935727824224
 30
0.0
 10
137.4897766485509
 20
59.49975915453537
 30
0.0
 10
137.6054450810732
 20
58.58584680449952
 30
0.0
 10
137.6629138322795
 20
58.13177821963838
 30
0.0
  0
SPLINE
  5
67
330
1F
100
AcDbEntity
  8
0
  6
Continuous
 62
     7
370
    25
100
AcDbSpline
210
0.0
220
0.0
230
1.0
 70
     8
 71
     3
 72
     9
 73
     5
 74
     0
 42
0.00000001
 43
0.00000001
 40
0.0
 40
0.0
 40
0.0
 40
0.0
 40
0.2685563109041727
 40
1.0
 40
1.0
 40
1.0
 40
1.0
 10
137.473798358545
 20
434.1428664591465
 30
0.0
 10
137.4742653019568
 20
433.3625418028506
 30
0.0
 10
137.4760040189144
 20
430.4569141016477
 30
0.0
 10
137.4762281913427
 20
427.5416715685914
 30
0.0
 10
137.4763921608506
 20
425.4093358156035
 30
0.0
  0
LINE
  5
68
330
1F
100
AcDbEntity
  8
0
  6
Continuous
 62
     7
370
    25
100
AcDbLine
 10
367.5103429622
 20
434.1400848307
 30
0.0
 11
367.4710017985
 21
430.8985026431
 31
0.0
  0
LINE
  5
69
330
1F
100
AcDbEntity
  8
0
  6
Continuous
 62
     7
370
    25
100
AcDbLine
 10
367.4710040093
 20
63.7259475846
 30
0.0
 11
367.5098522831
 21
58.14008467
 31
0.0
  0
LINE
  5
6A
330
1F
100
AcDbEntity
  8
0
  6
Continuous
 62
     7
370
    25
100
AcDbLine
 10
122.6885401283
 20
464.8974229249
 30
0.0
 11
123.2083448974
 21
465.1449664358
 31
0.0
  0
SPLINE
  5
6B
330
1F
100
AcDbEntity
  8
0
  6
Continuous
 62
     7
370
    25
100
AcDbSpline
210
0.0
220
0.0
230
1.0
 70
     8
 71
     3
 72
     9
 73
     5
 74
     0
 42
0.00000001
 43
0.00000001
 40
0.0
 40
0.0
 40
0.0
 40
0.0
 40
0.0965999988985662
 40
0.9999999999999999
 40
0.9999999999999999
 40
0.9999999999999999
 40
0.9999999999999999
 10
123.790467818982
 20
465.4221873470801
 30
0.0
 10
123.8443261754785
 20
465.4483736758424
 30
0.0
 10
124.4018661041603
 20
465.7194536868247
 30
0.0
 10
125.0145952538853
 20
465.8439555345041
 30
0.0
 10
125.5681347684217
 20
465.9564305038347
 30
0.0
  0
LINE
  5
6C
330
1F
100
AcDbEntity
  8
0
  6
Continuous
 62
     7
370
    25
100
AcDbLine
 10
122.4379522732
 20
464.778086972
 30
0.0
 11
122.6885401283
 21
464.8974229249
 31
0.0
  0
LINE
  5
6D
330
1F
100
AcDbEntity
  8
0
  6
Continuous
 62
     7
370
    25
100
AcDbLine
 10
382.5755377116
 20
27.5432838377
 30
0.0
 11
381.7194043658
 21
27.1265831098
 31
0.0
  0
SPLINE
  5
6E
330
1F
100
AcDbEntity
  8
0
  6
Continuous
 62
     7
370
    25
100
AcDbSpline
210
0.0
220
0.0
230
1.0
 70
     8
 71
     3
 72
     9
 73
     5
 74
     0
 42
0.00000001
 43
0.00000001
 40
0.0
 40
0.0
 40
0.0
 40
0.0
 40
0.0795976096941855
 40
1.0
 40
1.0
 40
1.0
 40
1.0
 10
381.1834223418438
 20
26.8657077441698
 30
0.0
 10
381.1396437035095
 20
26.84403737583463
 30
0.0
 10
380.5896442939492
 20
26.57178839224733
 30
0.0
 10
379.9838584342484
 20
26.44391275444219
 30
0.0
 10
379.4262916809664
 20
26.32621571174437
 30
0.0
  0
SPLINE
  5
6F
330
1F
100
AcDbEntity
  8
0
  6
Continuous
 62
     7
370
    25
100
AcDbSpline
210
0.0
220
0.0
230
1.0
 70
     8
 71
     3
 72
     9
 73
     5
 74
     0
 42
0.00000001
 43
0.00000001
 40
0.0
 40
0.0
 40
0.0
 40
0.0
 40
0.5000200518803576
 40
1.0
 40
1.0
 40
1.0
 40
1.0
 10
382.5764335367659
 20
27.54432207826629
 30
0.0
 10
382.5069856153143
 20
27.50343310296688
 30
0.0
 10
382.3680953424333
 20
27.4216584318398
 30
0.0
 10
382.2262788346279
 20
27.34508379482736
 30
0.0
 10
382.1553734244128
 20
27.30679801178648
 30
0.0
  0
LINE
  5
70
330
1F
100
AcDbEntity
  8
0
  6
Continuous
 62
     7
370
    25
100
AcDbLine
 10
355.4732096784
 20
446.1217021948
 30
0.0
 11
356.6590895345
 21
446.0872745264
 31
0.0
  0
SPLINE
  5
71
330
1F
100
AcDbEntity
  8
0
  6
Continuous
 62
     7
370
    25
100
AcDbSpline
210
0.0
220
0.0
230
1.0
 70
     8
 71
     3
 72
     9
 73
     5
 74
     0
 42
0.00000001
 43
0.00000001
 40
0.0
 40
0.0
 40
0.0
 40
0.0
 40
0.5000000711117125
 40
1.0
 40
1.0
 40
1.0
 40
1.0
 10
360.2072669862142
 20
47.10144887194151
 30
0.0
 10
360.8901921405733
 20
47.44196997957306
 30
0.0
 10
362.2560422550355
 20
48.1230120979762
 30
0.0
 10
363.3811081013367
 20
49.15425911611104
 30
0.0
 10
363.943640944482
 20
49.66988255184474
 30
0.0
  0
SPLINE
  5
72
330
1F
100
AcDbEntity
  8
0
  6
Continuous
 62
     7
370
    25
100
AcDbSpline
210
0.0
220
0.0
230
1.0
 70
     8
 71
     3
 72
     9
 73
     5
 74
     0
 42
0.00000001
 43
0.00000001
 40
0.0
 40
0.0
 40
0.0
 40
0.0
 40
0.4735497712471395
 40
1.0
 40
1.0
 40
1.0
 40
1.0
 10
355.4830814654138
 20
46.15702087812829
 30
0.0
 10
355.8317555276323
 20
46.15638317121567
 30
0.0
 10
356.5680541880673
 20
46.15503651886493
 30
0.0
 10
357.3387459303239
 20
46.27224415568437
 30
0.0
 10
357.7444767743328
 20
46.33394814289949
 30
0.0
  0
SPLINE
  5
73
330
1F
100
AcDbEntity
  8
0
  6
Continuous
 62
     7
370
    25
100
AcDbSpline
210
0.0
220
0.0
230
1.0
 70
     8
 71
     3
 72
    12
 73
     8
 74
     0
 42
0.00000001
 43
0.00000001
 40
0.0
 40
0.0
 40
0.0
 40
0.0
 40
0.0340250064414836
 40
0.1361430301202457
 40
0.261459587579024
 40
0.59547702686325
 40
1.0
 40
1.0
 40
1.0
 40
1.0
 10
365.5146748972752
 20
51.58671597588005
 30
0.0
 10
365.5401551755838
 20
51.62451905293541
 30
0.0
 10
365.6421084934535
 20
51.77577914063125
 30
0.0
 10
365.7921387135146
 20
52.01910198989584
 30
0.0
 10
366.0555470150543
 20
52.46605434002111
 30
0.0
 10
366.3279821686557
 20
52.99047920864935
 30
0.0
 10
366.4769635307316
 20
53.33235814474024
 30
0.0
 10
366.5585655426396
 20
53.51961652810611
 30
0.0
  0
SPLINE
  5
74
330
1F
100
AcDbEntity
  8
0
  6
Continuous
 62
     7
370
    25
100
AcDbSpline
210
0.0
220
0.0
230
1.0
 70
     8
 71
     3
 72
     9
 73
     5
 74
     0
 42
0.00000001
 43
0.00000001
 40
0.0
 40
0.0
 40
0.0
 40
0.0
 40
0.8314159493833019
 40
1.0
 40
1.0
 40
1.0
 40
1.0
 10
367.4505803008696
 20
57.87782160180915
 30
0.0
 10
367.4574525569064
 20
57.60784455471835
 30
0.0
 10
367.465718282434
 20
57.28312496365074
 30
0.0
 10
367.4205972465608
 20
56.95555917470291
 30
0.0
 10
367.4129905595653
 20
56.90033680715856
 30
0.0
  0
SPLINE
  5
75
330
1F
100
AcDbEntity
  8
0
  6
Continuous
 62
     7
370
    25
100
AcDbSpline
210
0.0
220
0.0
230
1.0
 70
     8
 71
     3
 72
     9
 73
     5
 74
     0
 42
0.00000001
 43
0.00000001
 40
0.0
 40
0.0
 40
0.0
 40
0.0
 40
0.5000865329801778
 40
1.0
 40
1.0
 40
1.0
 40
1.0
 10
366.5933319059581
 20
53.59609572071344
 30
0.0
 10
366.2474505890278
 20
52.87689107465315
 30
0.0
 10
365.5558076550158
 20
51.43873067914251
 30
0.0
 10
364.4809542102997
 20
50.2594446117417
 30
0.0
 10
363.9436204982135
 20
49.66990362517932
 30
0.0
  0
LINE
  5
76
330
1F
100
AcDbEntity
  8
0
  6
Continuous
 62
     7
370
    25
100
AcDbLine
 10
367.3882922133
 20
56.7083568892
 30
0.0
 11
367.397060945
 21
56.9015584488
 31
0.0
  0
LWPOLYLINE
  5
77
330
1F
100
AcDbEntity
  8
0
  6
Continuous
 62
     7
370
    25
100
AcDbPolyline
 90
        3
 70
   128
 43
0.0
 10
363.890748167
 20
49.6173323115
 10
363.8762085989
 20
49.6028984141
 10
363.8616247402
 20
49.588561145
  0
LINE
  5
78
330
1F
100
AcDbEntity
  8
0
  6
Continuous
 62
     7
370
    25
100
AcDbLine
 10
364.2775111689
 20
50.0166168102
 30
0.0
 11
361.5549230226
 21
47.8530934705
 31
0.0
  0
LINE
  5
79
330
1F
100
AcDbEntity
  8
0
  6
Continuous
 62
     7
370
    25
100
AcDbLine
 10
360.9481976761
 20
47.5219677307
 30
0.0
 11
357.8056624618
 21
46.3682016615
 31
0.0
  0
SPLINE
  5
7A
330
1F
100
AcDbEntity
  8
0
  6
Continuous
 62
     7
370
    25
100
AcDbSpline
210
0.0
220
0.0
230
1.0
 70
     8
 71
     3
 72
     9
 73
     5
 74
     0
 42
0.00000001
 43
0.00000001
 40
0.0
 40
0.0
 40
0.0
 40
0.0
 40
0.9126660167466102
 40
1.0
 40
1.0
 40
1.0
 40
1.0
 10
137.4908604593991
 20
58.13838755372552
 30
0.0
 10
137.4813364083614
 20
57.78482769971877
 30
0.0
 10
137.4709009907356
 20
57.39743532669378
 30
0.0
 10
137.5237728677292
 20
57.00494136097806
 30
0.0
 10
137.5283903793492
 20
56.97066329954919
 30
0.0
  0
SPLINE
  5
7B
330
1F
100
AcDbEntity
  8
0
  6
Continuous
 62
     7
370
    25
100
AcDbSpline
210
0.0
220
0.0
230
1.0
 70
     8
 71
     3
 72
     9
 73
     5
 74
     0
 42
0.00000001
 43
0.00000001
 40
0.0
 40
0.0
 40
0.0
 40
0.0
 40
0.4966838507693274
 40
1.0
 40
1.0
 40
1.0
 40
1.0
 10
138.3681619776603
 20
53.56898920507957
 30
0.0
 10
138.7012140306434
 20
52.87438058333937
 30
0.0
 10
139.3717654336477
 20
51.47588812044884
 30
0.0
 10
140.4080721203945
 20
50.32391325537672
 30
0.0
 10
140.9296620113898
 20
49.74410570227811
 30
0.0
  0
SPLINE
  5
7C
330
1F
100
AcDbEntity
  8
0
  6
Continuous
 62
     7
370
    25
100
AcDbSpline
210
0.0
220
0.0
230
1.0
 70
     8
 71
     3
 72
     9
 73
     5
 74
     0
 42
0.00000001
 43
0.00000001
 40
0.0
 40
0.0
 40
0.0
 40
0.0
 40
0.3424327546998382
 40
1.0
 40
1.0
 40
1.0
 40
1.0
 10
137.4869935512812
 20
434.3357977459038
 30
0.0
 10
137.4853121586279
 20
434.4471702627321
 30
0.0
 10
137.4804020189574
 20
434.7724093506982
 30
0.0
 10
137.5032363012927
 20
435.0983606956303
 30
0.0
 10
137.5182513774264
 20
435.3126956236193
 30
0.0
  0
LINE
  5
7D
330
1F
100
AcDbEntity
  8
0
  6
Continuous
 62
     7
370
    25
100
AcDbLine
 10
231.1734678036
 20
446.1400468418
 30
0.0
 11
232.3373047628
 21
446.1400564829
 31
0.0
  0
LINE
  5
7E
330
1F
100
AcDbEntity
  8
0
  6
Continuous
 62
     7
370
    25
100
AcDbLine
 10
232.5277970011
 20
446.1400580609
 30
0.0
 11
233.3359168553
 21
446.1400647553
 31
0.0
  0
LINE
  5
7F
330
1F
100
AcDbEntity
  8
0
  6
Continuous
 62
     7
370
    25
100
AcDbLine
 10
271.304078899
 20
446.1399262779
 30
0.0
 11
273.7734640275
 21
446.1381379484
 31
0.0
  0
ARC
  5
80
330
1F
100
AcDbEntity
  8
0
  6
Continuous
 62
     7
370
    25
100
AcDbCircle
 10
252.4734705427
 20
326.1369579537
 30
0.0
 40
36.31056399417611
100
AcDbArc
 50
51.2529978617
 51
231.2529978786
  0
ARC
  5
81
330
1F
100
AcDbEntity
  8
0
  6
Continuous
 62
     7
370
    25
100
AcDbCircle
 10
252.4734705427
 20
326.1369579537
 30
0.0
 40
36.31056399417611
100
AcDbArc
 50
231.2529978786
 51
51.2529978617
  0
ARC
  5
82
330
1F
100
AcDbEntity
  8
0
  6
Continuous
 62
     7
370
    25
100
AcDbCircle
 10
252.4734705427
 20
326.1369579537
 30
0.0
 40
38.29899805699993
100
AcDbArc
 50
206.4123021841
 51
26.4123021841
  0
ARC
  5
83
330
1F
100
AcDbEntity
  8
0
  6
Continuous
 62
     7
370
    25
100
AcDbCircle
 10
252.4734705427
 20
326.1369579537
 30
0.0
 40
39.50000000000001
100
AcDbArc
 50
206.4123021841
 51
26.4123022076
  0
ARC
  5
84
330
1F
100
AcDbEntity
  8
0
  6
Continuous
 62
     7
370
    25
100
AcDbCircle
 10
252.4734705427
 20
326.1369579537
 30
0.0
 40
38.29899805699993
100
AcDbArc
 50
26.4123021841
 51
206.4123021841
  0
ARC
  5
85
330
1F
100
AcDbEntity
  8
0
  6
Continuous
 62
     7
370
    25
100
AcDbCircle
 10
252.4734705427
 20
326.1369579537
 30
0.0
 40
39.50000000000001
100
AcDbArc
 50
26.4123022076
 51
206.4123021738
  0
SPLINE
  5
86
330
1F
100
AcDbEntity
  8
0
  6
Continuous
 62
     7
370
    25
100
AcDbSpline
210
0.0
220
0.0
230
1.0
 70
     8
 71
     3
 72
    15
 73
    11
 74
     0
 42
0.00000001
 43
0.00000001
 40
0.0
 40
0.0
 40
0.0
 40
0.0
 40
0.0613173512272597
 40
0.1950289070782633
 40
0.3289230539683576
 40
0.463828087757847
 40
0.5986930738484276
 40
0.7325016449870138
 40
0.8663948658349858
 40
1.0
 40
1.0
 40
1.0
 40
1.0
 10
355.4756327781568
 20
46.25690325420984
 30
0.0
 10
355.475632785499
 20
46.27672253294746
 30
0.0
 10
355.4756328088522
 20
46.33976068110452
 30
0.0
 10
355.4756329395159
 20
46.9808597918398
 30
0.0
 10
355.4756330637393
 20
48.10266943057279
 30
0.0
 10
355.4756330905928
 20
49.62886041152242
 30
0.0
 10
355.4756330672021
 20
51.45251690860631
 30
0.0
 10
355.4756330566026
 20
53.52723042451707
 30
0.0
 10
355.4756330574207
 20
55.78746533543477
 30
0.0
 10
355.475633073767
 20
57.35623443405363
 30
0.0
 10
355.4756330819313
 20
58.1397742277272
 30
0.0
  0
SPLINE
  5
87
330
1F
100
AcDbEntity
  8
0
  6
Continuous
 62
     7
370
    25
100
AcDbSpline
210
0.0
220
0.0
230
1.0
 70
     8
 71
     3
 72
    13
 73
     9
 74
     0
 42
0.00000001
 43
0.00000001
 40
0.0
 40
0.0
 40
0.0
 40
0.0
 40
0.1334449622536948
 40
0.2668594602271013
 40
0.5339044232136942
 40
0.8011342483199271
 40
0.934289335485055
 40
1.0
 40
1.0
 40
1.0
 40
1.0
 10
355.4736932681422
 20
58.13927144426179
 30
0.0
 10
356.2582590165536
 20
58.13927143486858
 30
0.0
 10
357.8272114040981
 20
58.13927141608405
 30
0.0
 10
360.8347084669115
 20
58.13927140089375
 30
0.0
 10
364.1576062578341
 20
58.13927150594428
 30
0.0
 10
366.3780446811969
 20
58.13927131086738
 30
0.0
 10
367.2792511776743
 20
58.13927099251487
 30
0.0
 10
367.3422138547452
 20
58.13927094795662
 30
0.0
 10
367.3630184393205
 20
58.13927093323357
 30
0.0
  0
LINE
  5
88
330
1F
100
AcDbEntity
  8
0
  6
Continuous
 62
     7
370
    25
100
AcDbLine
 10
356.5506709504
 20
46.1834401985
 30
0.0
 11
356.8572513739
 21
46.2446694333
 31
0.0
  0
SPLINE
  5
89
330
1F
100
AcDbEntity
  8
0
  6
Continuous
 62
     7
370
    25
100
AcDbSpline
210
0.0
220
0.0
230
1.0
 70
     8
 71
     3
 72
     9
 73
     5
 74
     0
 42
0.00000001
 43
0.00000001
 40
0.0
 40
0.0
 40
0.0
 40
0.0
 40
0.5601579360572877
 40
1.0
 40
1.0
 40
1.0
 40
1.0
 10
357.7156069003894
 20
46.41609737856655
 30
0.0
 10
357.8608205091693
 20
46.43962576916039
 30
0.0
 10
358.1200574126077
 20
46.48162890627472
 30
0.0
 10
358.365942407689
 20
46.57329428632306
 30
0.0
 10
358.474092971418
 20
46.61361257627572
 30
0.0
  0
LINE
  5
8A
330
1F
100
AcDbEntity
  8
0
  6
Continuous
 62
     7
370
    25
100
AcDbLine
 10
361.6332125056
 20
47.915306745
 30
0.0
 11
362.2301380474
 21
48.2322894614
 31
0.0
  0
LINE
  5
8B
330
1F
100
AcDbEntity
  8
0
  6
Continuous
 62
     7
370
    25
100
AcDbLine
 10
366.508042302
 20
53.5380388995
 30
0.0
 11
366.6176423789
 21
53.8941635581
 31
0.0
  0
SPLINE
  5
8C
330
1F
100
AcDbEntity
  8
0
  6
Continuous
 62
     7
370
    25
100
AcDbSpline
210
0.0
220
0.0
230
1.0
 70
     8
 71
     3
 72
     9
 73
     5
 74
     0
 42
0.00000001
 43
0.00000001
 40
0.0
 40
0.0
 40
0.0
 40
0.0
 40
0.568894338811816
 40
1.0
 40
1.0
 40
1.0
 40
1.0
 10
367.0335035589345
 20
55.24542557327228
 30
0.0
 10
367.1166342250254
 20
55.47165271731808
 30
0.0
 10
367.2627609491277
 20
55.8693138093907
 30
0.0
 10
367.2911454309083
 20
56.29123550764182
 30
0.0
 10
367.3033821416939
 20
56.47312834033591
 30
0.0
  0
SPLINE
  5
8D
330
1F
100
AcDbEntity
  8
0
  6
Continuous
 62
     7
370
    25
100
AcDbSpline
210
0.0
220
0.0
230
1.0
 70
     8
 71
     3
 72
    10
 73
     6
 74
     0
 42
0.00000001
 43
0.00000001
 40
0.0
 40
0.0
 40
0.0
 40
0.0
 40
0.09151505978971
 40
0.5726271893172549
 40
1.0
 40
1.0
 40
1.0
 40
1.0
 10
138.5375964819519
 20
53.55472972013398
 30
0.0
 10
138.5841630235303
 20
53.41800651534129
 30
0.0
 10
138.8755387586446
 20
52.56250333745049
 30
0.0
 10
139.6734047881526
 20
51.17268591141189
 30
0.0
 10
140.6195049099357
 20
50.09503240483271
 30
0.0
 10
141.0645727920077
 20
49.58807869799175
 30
0.0
  0
LINE
  5
8E
330
1F
100
AcDbEntity
  8
0
  6
Continuous
 62
     7
370
    25
100
AcDbLine
 10
144.8061638539
 20
47.094967014
 30
0.0
 11
146.8767430132
 21
46.4457534794
 31
0.0
  0
LINE
  5
8F
330
1F
100
AcDbEntity
  8
0
  6
Continuous
 62
     7
370
    25
100
AcDbLine
 10
147.6862030421
 20
46.3129524973
 30
0.0
 11
148.2151798933
 21
46.2347756111
 31
0.0
  0
SPLINE
  5
90
330
1F
100
AcDbEntity
  8
0
  6
Continuous
 62
     7
370
    25
100
AcDbSpline
210
0.0
220
0.0
230
1.0
 70
     8
 71
     3
 72
    18
 73
    14
 74
     0
 42
0.00000001
 43
0.00000001
 40
0.0
 40
0.0
 40
0.0
 40
0.0
 40
0.0487631471251507
 40
0.0849106534954238
 40
0.1293459328733237
 40
0.175347429901446
 40
0.2274308741914852
 40
0.2949761953703438
 40
0.3816092129474723
 40
0.4824442787302116
 40
0.6850094800157027
 40
0.8577278288781363
 40
1.0
 40
1.0
 40
1.0
 40
1.0
 10
149.4730862644195
 20
58.13102781564778
 30
0.0
 10
149.2061474392281
 20
58.13102333125853
 30
0.0
 10
148.7413302273257
 20
58.13101552264782
 30
0.0
 10
148.0247752285719
 20
58.13091689395328
 30
0.0
 10
147.324149214357
 20
58.13078631807117
 30
0.0
 10
146.5353661731885
 20
58.13056843510373
 30
0.0
 10
145.6285857164852
 20
58.13028823145316
 30
0.0
 10
144.5633071766449
 20
58.13005102928847
 30
0.0
 10
143.3346670690192
 20
58.12989623968012
 30
0.0
 10
141.5617991081741
 20
58.12984176710373
 30
0.0
 10
139.645494997422
 20
58.13023536185169
 30
0.0
 10
138.2837799801459
 20
58.1317560973823
 30
0.0
 10
137.858995217871
 20
58.13176325925773
 30
0.0
 10
137.6671321408763
 20
58.13176649407126
 30
0.0
  0
SPLINE
  5
91
330
1F
100
AcDbEntity
  8
0
  6
Continuous
 62
     7
370
    25
100
AcDbSpline
210
0.0
220
0.0
230
1.0
 70
     8
 71
     3
 72
    15
 73
    11
 74
     0
 42
0.00000001
 43
0.00000001
 40
0.0
 40
0.0
 40
0.0
 40
0.0
 40
0.0622405404203409
 40
0.1955322707386663
 40
0.3295287527407747
 40
0.4643449301364633
 40
0.5990384223457477
 40
0.7327591057469455
 40
0.8664330495652826
 40
1.0
 40
1.0
 40
1.0
 40
1.0
 10
149.4499223567936
 20
46.25781383737127
 30
0.0
 10
149.4504112178571
 20
46.2778223417174
 30
0.0
 10
149.451947003266
 20
46.34068021959625
 30
0.0
 10
149.4545521501158
 20
46.98757371370288
 30
0.0
 10
149.4577045290838
 20
48.10368733237746
 30
0.0
 10
149.4608445609071
 20
49.62870514209039
 30
0.0
 10
149.4639828457093
 20
51.45309365883632
 30
0.0
 10
149.4671486441716
 20
53.52728128886869
 30
0.0
 10
149.470296787583
 20
55.78692405250457
 30
0.0
 10
149.4723990121429
 20
57.35566507744472
 30
0.0
 10
149.4734497035963
 20
58.13972155693226
 30
0.0
  0
SPLINE
  5
92
330
1F
100
AcDbEntity
  8
0
  6
Continuous
 62
     7
370
    25
100
AcDbSpline
210
0.0
220
0.0
230
1.0
 70
     8
 71
     3
 72
    16
 73
    12
 74
     0
 42
0.00000001
 43
0.00000001
 40
0.0
 40
0.0
 40
0.0
 40
0.0
 40
0.0648656880567571
 40
0.206330792151395
 40
0.3662508940895033
 40
0.5370081399603407
 40
0.6896304774657336
 40
0.809560510962213
 40
0.8700310275288841
 40
0.926764954133733
 40
1.0
 40
1.0
 40
1.0
 40
1.0
 10
355.4703392373364
 20
446.0208678549236
 30
0.0
 10
355.4694157402956
 20
445.9933801036906
 30
0.0
 10
355.4664781953207
 20
445.9059445170766
 30
0.0
 10
355.4531759490172
 20
445.3017620193675
 30
0.0
 10
355.4465319548478
 20
443.7951790914515
 30
0.0
 10
355.4465673507048
 20
441.793673517941
 30
0.0
 10
355.4526872800705
 20
439.6412632254646
 30
0.0
 10
355.4617424516525
 20
437.811020550132
 30
0.0
 10
355.468935017901
 20
436.4341521268067
 30
0.0
 10
355.4728929750999
 20
435.3158214728076
 30
0.0
 10
355.4735755424877
 20
434.563732674333
 30
0.0
 10
355.4739601562382
 20
434.1399449301925
 30
0.0
  0
LINE
  5
93
330
1F
100
AcDbEntity
  8
0
  6
Continuous
 62
     7
370
    25
100
AcDbLine
 10
367.5193601444
 20
434.1514163127
 30
0.0
 11
367.4169247565
 21
434.7264875641
 31
0.0
  0
SPLINE
  5
94
330
1F
100
AcDbEntity
  8
0
  6
Continuous
 62
     7
370
    25
100
AcDbSpline
210
0.0
220
0.0
230
1.0
 70
     8
 71
     3
 72
     9
 73
     5
 74
     0
 42
0.00000001
 43
0.00000001
 40
0.0
 40
0.0
 40
0.0
 40
0.0
 40
0.4195885152404655
 40
0.9999999999999999
 40
0.9999999999999999
 40
0.9999999999999999
 40
0.9999999999999999
 10
358.8918040899474
 20
445.5854492241802
 30
0.0
 10
358.5005820896168
 20
445.7058380253988
 30
0.0
 10
357.5681876457262
 20
445.9927591322589
 30
0.0
 10
356.5927504337991
 20
446.0489583959818
 30
0.0
 10
356.0265954733348
 20
446.0815770940816
 30
0.0
  0
LINE
  5
95
330
1F
100
AcDbEntity
  8
0
  6
Continuous
 62
     7
370
    25
100
AcDbLine
 10
355.7068038248
 20
446.1149206463
 30
0.0
 11
355.4738039309
 21
446.139214727
 31
0.0
  0
SPLINE
  5
96
330
1F
100
AcDbEntity
  8
0
  6
Continuous
 62
     7
370
    25
100
AcDbSpline
210
0.0
220
0.0
230
1.0
 70
     8
 71
     3
 72
    15
 73
    11
 74
     0
 42
0.00000001
 43
0.00000001
 40
0.0
 40
0.0
 40
0.0
 40
0.0
 40
0.133127279070476
 40
0.2662073055477056
 40
0.3995476055730925
 40
0.5338241547188787
 40
0.6681077227623833
 40
0.8014568822592524
 40
0.9345301307823508
 40
1.0
 40
1.0
 40
1.0
 40
1.0
 10
355.4743095610982
 20
434.1405026370234
 30
0.0
 10
356.2585455719792
 20
434.1409573760707
 30
0.0
 10
357.8267392346739
 20
434.1418666927589
 30
0.0
 10
360.0855423392324
 20
434.1432323842285
 30
0.0
 10
362.160583585286
 20
434.144601277739
 30
0.0
 10
363.9844312522347
 20
434.1459601493855
 30
0.0
 10
365.5077759850486
 20
434.1473189675818
 30
0.0
 10
366.628813013846
 20
434.148687712632
 30
0.0
 10
367.2761962807294
 20
434.1498223558735
 30
0.0
 10
367.3397737394873
 20
434.1505005421063
 30
0.0
 10
367.3607384949391
 20
434.1507241749599
 30
0.0
  0
SPLINE
  5
97
330
1F
100
AcDbEntity
  8
0
  6
Continuous
 62
     7
370
    25
100
AcDbSpline
210
0.0
220
0.0
230
1.0
 70
     8
 71
     3
 72
    16
 73
    12
 74
     0
 42
0.00000001
 43
0.00000001
 40
0.0
 40
0.0
 40
0.0
 40
0.0
 40
0.0731182194980943
 40
0.1297046915981513
 40
0.1900043022732595
 40
0.3097765428831997
 40
0.4621839718920067
 40
0.6325295153512442
 40
0.7921256835795728
 40
0.9333889414294918
 40
1.0
 40
1.0
 40
1.0
 40
1.0
 10
149.4726939301687
 20
434.1389972759563
 30
0.0
 10
149.4725721198389
 20
434.5635474239111
 30
0.0
 10
149.4723560400251
 20
435.3166585689366
 30
0.0
 10
149.4718975316581
 20
436.4346569487026
 30
0.0
 10
149.4714007851977
 20
437.8108368170836
 30
0.0
 10
149.4708977548725
 20
439.6377710347476
 30
0.0
 10
149.4703453181085
 20
441.7885818729751
 30
0.0
 10
149.4698238268453
 20
443.7928521549395
 30
0.0
 10
149.469257740316
 20
445.3038313336057
 30
0.0
 10
149.4687117826129
 20
445.9175259198324
 30
0.0
 10
149.4683757007285
 20
446.0008564849709
 30
0.0
 10
149.4682680069523
 20
446.0275588561476
 30
0.0
  0
LINE
  5
98
330
1F
100
AcDbEntity
  8
0
  6
Continuous
 62
     7
370
    25
100
AcDbLine
 10
137.4762376916
 20
434.1431570044
 30
0.0
 11
137.5178047164
 21
434.143055979
 31
0.0
  0
SPLINE
  5
99
330
1F
100
AcDbEntity
  8
0
  6
Continuous
 62
     7
370
    25
100
AcDbSpline
210
0.0
220
0.0
230
1.0
 70
     8
 71
     3
 72
    18
 73
    14
 74
     0
 42
0.00000001
 43
0.00000001
 40
0.0
 40
0.0
 40
0.0
 40
0.0
 40
0.1446760629426088
 40
0.316749269262611
 40
0.5185741491307593
 40
0.6191993137382794
 40
0.7056926580044317
 40
0.7731467453088611
 40
0.8251286891135411
 40
0.8710085849939224
 40
0.9153229325792495
 40
0.9513633624482306
 40
1.0
 40
1.0
 40
1.0
 40
1.0
 10
137.6393175090908
 20
434.1427606516174
 30
0.0
 10
137.8372505094908
 20
434.1426617444482
 30
0.0
 10
138.2705988600367
 20
434.1424452001704
 30
0.0
 10
139.639882626287
 20
434.1421960990525
 30
0.0
 10
141.5518825908202
 20
434.1419646267597
 30
0.0
 10
143.3256128766402
 20
434.1417996132709
 30
0.0
 10
144.5560744808169
 20
434.1416664710662
 30
0.0
 10
145.6233608624695
 20
434.1415292788732
 30
0.0
 10
146.5320845184118
 20
434.1413802265905
 30
0.0
 10
147.3222632070666
 20
434.141221844735
 30
0.0
 10
148.0238976304295
 20
434.1411305438812
 30
0.0
 10
148.7415084396058
 20
434.14087843105
 30
0.0
 10
149.207016317775
 20
434.1408360869366
 30
0.0
 10
149.4743937629043
 20
434.140811765413
 30
0.0
  0
SPLINE
  5
9A
330
1F
100
AcDbEntity
  8
0
  6
Continuous
 62
     7
370
    25
100
AcDbSpline
210
0.0
220
0.0
230
1.0
 70
     8
 71
     3
 72
     9
 73
     5
 74
     0
 42
0.00000001
 43
0.00000001
 40
0.0
 40
0.0
 40
0.0
 40
0.0
 40
0.2579550528186851
 40
1.0
 40
1.0
 40
1.0
 40
1.0
 10
144.7533766199966
 20
445.0276121567542
 30
0.0
 10
144.5443436383234
 20
444.9578047670042
 30
0.0
 10
143.733997109387
 20
444.6871863434173
 30
0.0
 10
143.0182880815283
 20
444.2119408612459
 30
0.0
 10
142.4871998137537
 20
443.8592873525299
 30
0.0
  0
SPLINE
  5
9B
330
1F
100
AcDbEntity
  8
0
  6
Continuous
 62
     7
370
    25
100
AcDbSpline
210
0.0
220
0.0
230
1.0
 70
     8
 71
     3
 72
     9
 73
     5
 74
     0
 42
0.00000001
 43
0.00000001
 40
0.0
 40
0.0
 40
0.0
 40
0.0
 40
0.2559719907429135
 40
0.9999999999999999
 40
0.9999999999999999
 40
0.9999999999999999
 40
0.9999999999999999
 10
137.9159600915418
 20
437.0764578691997
 30
0.0
 10
137.8558760353847
 20
436.8813024422961
 30
0.0
 10
137.6211470090459
 20
436.1188931398675
 30
0.0
 10
137.5628005981493
 20
435.3199943699939
 30
0.0
 10
137.5193892342026
 20
434.725591308647
 30
0.0
  0
LINE
  5
9C
330
1F
100
AcDbEntity
  8
0
  6
Continuous
 62
     7
370
    25
100
AcDbLine
 10
367.4836725286
 20
58.1383111246
 30
0.0
 11
367.5193601444
 21
434.1514163127
 31
0.0
  0
LINE
  5
9D
330
1F
100
AcDbEntity
  8
0
  6
Continuous
 62
     7
370
    25
100
AcDbLine
 10
355.4738039309
 20
446.139214727
 30
0.0
 11
276.7157674146
 21
446.1454399565
 31
0.0
  0
LINE
  5
9E
330
1F
100
AcDbEntity
  8
0
  6
Continuous
 62
     7
370
    25
100
AcDbLine
 10
274.1414521698
 20
446.1456434367
 30
0.0
 11
273.7734606939
 21
446.1456725236
 31
0.0
  0
LINE
  5
9F
330
1F
100
AcDbEntity
  8
0
  6
Continuous
 62
     7
370
    25
100
AcDbLine
 10
231.1734678036
 20
446.1490397321
 30
0.0
 11
228.9081624131
 21
446.1492187875
 31
0.0
  0
LINE
  5
A0
330
1F
100
AcDbEntity
  8
0
  6
Continuous
 62
     7
370
    25
100
AcDbLine
 10
228.3407574916
 20
446.1492636366
 30
0.0
 11
149.467942584
 21
446.1554979384
 31
0.0
  0
LINE
  5
A1
330
1F
100
AcDbEntity
  8
0
  6
Continuous
 62
     7
370
    25
100
AcDbLine
 10
137.4441072765
 20
434.1431558989
 30
0.0
 11
137.4580302612
 21
60.8199976599
 31
0.0
  0
LINE
  5
A2
330
1F
100
AcDbEntity
  8
0
  6
Continuous
 62
     7
370
    25
100
AcDbLine
 10
149.4482243203
 20
46.1519489902
 30
0.0
 11
355.4798078133
 21
46.1267353979
 31
0.0
  0
LINE
  5
A3
330
1F
100
AcDbEntity
  8
0
  6
Continuous
 62
     7
370
    25
100
AcDbLine
 10
149.4734511058
 20
58.1366705723
 30
0.0
 11
355.4735724358
 21
58.1366705723
 31
0.0
  0
LINE
  5
A4
330
1F
100
AcDbEntity
  8
0
  6
Continuous
 62
     7
370
    25
100
AcDbLine
 10
355.4737662952
 20
58.1399434999
 30
0.0
 11
355.4737662952
 21
434.1405026438
 31
0.0
  0
LINE
  5
A5
330
1F
100
AcDbEntity
  8
0
  6
Continuous
 62
     7
370
    25
100
AcDbLine
 10
355.4739601546
 20
434.1400661783
 30
0.0
 11
149.472693933
 21
434.1400661783
 31
0.0
  0
LINE
  5
A6
330
1F
100
AcDbEntity
  8
0
  6
Continuous
 62
     7
370
    25
100
AcDbLine
 10
149.472693933
 20
434.1408117658
 30
0.0
 11
149.4734511058
 21
58.1399421117
 31
0.0
  0
SPLINE
  5
A7
330
1F
100
AcDbEntity
  8
0
  6
Continuous
 62
     7
370
    25
100
AcDbSpline
210
0.0
220
0.0
230
1.0
 70
     8
 71
     3
 72
    31
 73
    27
 74
     0
 42
0.00000001
 43
0.00000001
 40
0.0
 40
0.0
 40
0.0
 40
0.0
 40
0.0416432024875623
 40
0.0832984238367881
 40
0.1249733944397594
 40
0.1666443823230256
 40
0.2083110170519045
 40
0.2499802698978084
 40
0.2916491888659952
 40
0.3333182447733352
 40
0.374986578838815
 40
0.4166564006169838
 40
0.4583248969274612
 40
0.4999945342981186
 40
0.5416639054862799
 40
0.5833335782203934
 40
0.625004388891697
 40
0.6666747086545852
 40
0.7083455565411387
 40
0.7500173395198011
 40
0.7916880613625322
 40
0.8333573157355564
 40
0.8750296075595454
 40
0.9167044647950294
 40
0.9583579928488487
 40
1.0
 40
1.0
 40
1.0
 40
1.0
 10
203.6433907138924
 20
300.1277494129794
 30
0.0
 10
204.8585501174716
 20
298.0416291018673
 30
0.0
 10
207.2892196381175
 20
293.8687863935898
 30
0.0
 10
211.9299536181018
 20
288.2769762686362
 30
0.0
 10
217.2070042894297
 20
283.3003855686712
 30
0.0
 10
223.1053353954101
 20
279.0666960910443
 30
0.0
 10
229.5002702243681
 20
275.6339629086308
 30
0.0
 10
236.2905015473082
 20
273.068489864009
 30
0.0
 10
243.3568086448006
 20
271.4087650504635
 30
0.0
 10
250.5796052128501
 20
270.6878861402906
 30
0.0
 10
257.8347306949848
 20
270.9144920481891
 30
0.0
 10
264.9979901674481
 20
272.087538338699
 30
0.0
 10
271.9471212220842
 20
274.1848315794472
 30
0.0
 10
278.5626084503297
 20
277.1718736398752
 30
0.0
 10
284.7329029596135
 20
280.9950512621076
 30
0.0
 10
290.3483656403142
 20
285.5945076536493
 30
0.0
 10
295.3172427656185
 20
290.8853008061027
 30
0.0
 10
299.553815053075
 20
296.7789374070634
 30
0.0
 10
302.9808164455836
 20
303.1767837347541
 30
0.0
 10
305.5468020544583
 20
309.9652165646434
 30
0.0
 10
307.2048463719611
 20
317.0305604207366
 30
0.0
 10
307.9218429275397
 20
324.2510635927508
 30
0.0
 10
307.6990226597783
 20
331.5059638493898
 30
0.0
 10
306.5134866910109
 20
338.6597954755352
 30
0.0
 10
304.4628954300709
 20
345.6292058084276
 30
0.0
 10
302.3565682797802
 20
349.9740465825807
 30
0.0
 10
301.3035503714465
 20
352.1461664944424
 30
0.0
  0
SPLINE
  5
A8
330
1F
100
AcDbEntity
  8
0
  6
Continuous
 62
     7
370
    25
100
AcDbSpline
210
0.0
220
0.0
230
1.0
 70
     8
 71
     3
 72
    31
 73
    27
 74
     0
 42
0.00000001
 43
0.00000001
 40
0.0
 40
0.0
 40
0.0
 40
0.0
 40
0.0416644151013768
 40
0.083331182092319
 40
0.1249953156462778
 40
0.1666608696436671
 40
0.2083272978350031
 40
0.2499941320807616
 40
0.2916610345060139
 40
0.3333292755393477
 40
0.3749955953479167
 40
0.4166633510323658
 40
0.4583303041042316
 40
0.4999964712138769
 40
0.5416627052856462
 40
0.5833268277426462
 40
0.624991124377527
 40
0.6666587370519652
 40
0.7083249260533268
 40
0.7499924359251026
 40
0.791660046707807
 40
0.8333264824124182
 40
0.8749964070799074
 40
0.9166642503386326
 40
0.9583329029047638
 40
1.0
 40
1.0
 40
1.0
 40
1.0
 10
301.3035503714466
 20
352.1461664944422
 30
0.0
 10
300.0872242033266
 20
354.2328562807378
 30
0.0
 10
297.6545032074207
 20
358.4063536436284
 30
0.0
 10
293.0105324186134
 20
363.9963229565137
 30
0.0
 10
287.7363704548662
 20
368.9747966074677
 30
0.0
 10
281.8393762911102
 20
373.2085219211289
 30
0.0
 10
275.4450891146645
 20
376.6409028348322
 30
0.0
 10
268.6554178812075
 20
379.2073232404812
 30
0.0
 10
261.5884928471182
 20
380.8627027541154
 30
0.0
 10
254.3663327680855
 20
381.5856282798385
 30
0.0
 10
247.1114445419426
 20
381.3586273438904
 30
0.0
 10
239.9483573325598
 20
380.1868405342209
 30
0.0
 10
232.9997380477937
 20
378.0895236208155
 30
0.0
 10
226.3845807929785
 20
375.1027191927913
 30
0.0
 10
220.2178085754076
 20
371.2760185308507
 30
0.0
 10
214.6000927562838
 20
366.6812656514563
 30
0.0
 10
209.6351040207181
 20
361.3882739216547
 30
0.0
 10
205.3983906435186
 20
355.4969456098515
 30
0.0
 10
201.9657992885239
 20
349.1032088942875
 30
0.0
 10
199.4030651013989
 20
342.3145915660588
 30
0.0
 10
197.7451475548613
 20
335.2503865995354
 30
0.0
 10
197.0283747365406
 20
328.0303551002144
 30
0.0
 10
197.2529942849344
 20
320.7763642974243
 30
0.0
 10
198.4333580241806
 20
313.6212347124451
 30
0.0
 10
200.4827093642745
 20
306.648821359276
 30
0.0
 10
202.5898433739822
 20
302.3014130134606
 30
0.0
 10
203.6433907138925
 20
300.1277494129794
 30
0.0
  0
SPLINE
  5
A9
330
1F
100
AcDbEntity
  8
0
  6
Continuous
 62
     7
370
    25
100
AcDbSpline
210
0.0
220
0.0
230
1.0
 70
     8
 71
     3
 72
    23
 73
    19
 74
     0
 42
0.00000001
 43
0.00000001
 40
0.0
 40
0.0
 40
0.0
 40
0.0
 40
0.0625033642452204
 40
0.1250044934826927
 40
0.1875022150723276
 40
0.2500036486554515
 40
0.3125035176677521
 40
0.3750039490409738
 40
0.4375046385431971
 40
0.5000029926291281
 40
0.5625036719764045
 40
0.6250034189406147
 40
0.6875033231865361
 40
0.7500035394864956
 40
0.812503583513497
 40
0.8750017627582221
 40
0.937503620234252
 40
1.0
 40
1.0
 40
1.0
 40
1.0
 10
215.0341461964108
 20
347.75255075502
 30
0.0
 10
216.0573051004645
 20
349.3751430101066
 30
0.0
 10
218.1035863222519
 20
352.6202694993029
 30
0.0
 10
221.9528050765289
 20
356.9215141239376
 30
0.0
 10
226.2971414023182
 20
360.7035674370085
 30
0.0
 10
231.1152542378588
 20
363.8694947232301
 30
0.0
 10
236.308245048771
 20
366.3703032272151
 30
0.0
 10
241.788295846794
 20
368.1589144139716
 30
0.0
 10
247.4571321074546
 20
369.203887936786
 30
0.0
 10
253.2146230794168
 20
369.4889082453978
 30
0.0
 10
258.9587227530058
 20
369.0056982154478
 30
0.0
 10
264.5887906710637
 20
367.7689572052523
 30
0.0
 10
270.0044731250817
 20
365.793915308396
 30
0.0
 10
275.1085669816316
 20
363.1168400095996
 30
0.0
 10
279.8166707534591
 20
359.7893418741155
 30
0.0
 10
284.0261079521149
 20
355.8579305584506
 30
0.0
 10
287.7288012359055
 20
351.4303975174844
 30
0.0
 10
289.6627494756888
 20
348.1172569552838
 30
0.0
 10
290.6296812205502
 20
346.4607592689039
 30
0.0
  0
SPLINE
  5
AA
330
1F
100
AcDbEntity
  8
0
  6
Continuous
 62
     7
370
    25
100
AcDbSpline
210
0.0
220
0.0
230
1.0
 70
     8
 71
     3
 72
    15
 73
    11
 74
     0
 42
0.00000001
 43
0.00000001
 40
0.0
 40
0.0
 40
0.0
 40
0.0
 40
0.1249969084228035
 40
0.2499913055814748
 40
0.3749834230085023
 40
0.4999863886979422
 40
0.6249835132087354
 40
0.7499852039120474
 40
0.874992612982761
 40
1.0
 40
1.0
 40
1.0
 40
1.0
 10
214.317259864789
 20
305.8131566385178
 30
0.0
 10
213.5187091495147
 20
307.4554079373878
 30
0.0
 10
211.9216237623372
 20
310.7398775412976
 30
0.0
 10
210.3379098182985
 20
315.9994362450876
 30
0.0
 10
209.3877985593483
 20
321.3984977030656
 30
0.0
 10
209.1377242232934
 20
326.8782799201643
 30
0.0
 10
209.5716844962109
 20
332.3468306337647
 30
0.0
 10
210.708899442071
 20
337.7093086612536
 30
0.0
 10
212.4690593951578
 20
342.9121898919749
 30
0.0
 10
214.1791173129405
 20
346.1390972288852
 30
0.0
 10
215.0341461964108
 20
347.7525507550199
 30
0.0
  0
SPLINE
  5
AB
330
1F
100
AcDbEntity
  8
0
  6
Continuous
 62
     7
370
    25
100
AcDbSpline
210
0.0
220
0.0
230
1.0
 70
     8
 71
     3
 72
    15
 73
    11
 74
     0
 42
0.00000001
 43
0.00000001
 40
0.0
 40
0.0
 40
0.0
 40
0.0
 40
0.1249355058520512
 40
0.249904045463554
 40
0.3749320548718422
 40
0.4999526254346275
 40
0.6249603063559266
 40
0.749970877009869
 40
0.874985156585032
 40
1.0
 40
1.0
 40
1.0
 40
1.0
 10
290.6296812205501
 20
346.4607592689041
 30
0.0
 10
291.4277925801761
 20
344.8196171043559
 30
0.0
 10
293.0242263252568
 20
341.536898846609
 30
0.0
 10
294.6087641324398
 20
336.2792395503062
 30
0.0
 10
295.5626249733527
 20
330.8807771863472
 30
0.0
 10
295.8117378001355
 20
325.3998989753922
 30
0.0
 10
295.3764260476571
 20
319.9307395733879
 30
0.0
 10
294.239627872425
 20
314.5669962268797
 30
0.0
 10
292.4757683980902
 20
309.364181454687
 30
0.0
 10
290.7672008401989
 20
306.1355848748605
 30
0.0
 10
289.9129151347609
 20
304.5212829445488
 30
0.0
  0
SPLINE
  5
AC
330
1F
100
AcDbEntity
  8
0
  6
Continuous
 62
     7
370
    25
100
AcDbSpline
210
0.0
220
0.0
230
1.0
 70
     8
 71
     3
 72
    23
 73
    19
 74
     0
 42
0.00000001
 43
0.00000001
 40
0.0
 40
0.0
 40
0.0
 40
0.0
 40
0.0625024697161767
 40
0.1250064769151859
 40
0.1875102816280147
 40
0.2500140225699312
 40
0.3125186680911224
 40
0.375021640369515
 40
0.4375267865736334
 40
0.5000297479452979
 40
0.5625337685163931
 40
0.6250371982422129
 40
0.6875415662986883
 40
0.7500413092067674
 40
0.8125465460100902
 40
0.8750576656738441
 40
0.937537979420441
 40
0.9999999999999999
 40
0.9999999999999999
 40
0.9999999999999999
 40
0.9999999999999999
 10
289.9129151347609
 20
304.5212829445488
 30
0.0
 10
288.8905604855752
 20
302.8978981816687
 30
0.0
 10
286.8458260385542
 20
299.6510887226672
 30
0.0
 10
282.9925721840692
 20
295.352397834801
 30
0.0
 10
278.6499956355485
 20
291.567492144735
 30
0.0
 10
273.82980350457
 20
288.4033798905195
 30
0.0
 10
268.6360357894965
 20
285.904046842899
 30
0.0
 10
263.1559857190032
 20
284.1153104359639
 30
0.0
 10
257.4872223211135
 20
283.0698007750781
 30
0.0
 10
251.7298388537221
 20
282.7853221104339
 30
0.0
 10
245.9855712594856
 20
283.2668637406942
 30
0.0
 10
240.3561951061262
 20
284.5069443579774
 30
0.0
 10
234.9404805343185
 20
286.4814986688214
 30
0.0
 10
229.8361130948512
 20
289.1586949745043
 30
0.0
 10
225.1272432975693
 20
292.4861016517524
 30
0.0
 10
220.9156786674134
 20
296.4157815775383
 30
0.0
 10
217.2155209002345
 20
300.8445726386852
 30
0.0
 10
215.2832525736137
 20
304.1571236386179
 30
0.0
 10
214.3172598647889
 20
305.8131566385178
 30
0.0
  0
SPLINE
  5
AD
330
1F
100
AcDbEntity
  8
0
  6
Continuous
 62
     7
370
    25
100
AcDbSpline
210
0.0
220
0.0
230
1.0
 70
     8
 71
     3
 72
    15
 73
    11
 74
     0
 42
0.00000001
 43
0.00000001
 40
0.0
 40
0.0
 40
0.0
 40
0.0
 40
0.0904453764092303
 40
0.1907683828079129
 40
0.3009670109654558
 40
0.4210388815896176
 40
0.5509812821397088
 40
0.6907911913094029
 40
0.8404652954604719
 40
1.0
 40
1.0
 40
1.0
 40
1.0
 10
288.8248868665214
 20
305.1494579537107
 30
0.0
 10
289.4360946121002
 20
306.2764606342026
 30
0.0
 10
290.7252607122687
 20
308.6535470847567
 30
0.0
 10
292.2940211228878
 20
312.6289673573911
 30
0.0
 10
293.5726813728245
 20
317.1420283585533
 30
0.0
 10
294.3747168267489
 20
322.1936151887795
 30
0.0
 10
294.5517510356365
 20
327.7292979072721
 30
0.0
 10
293.9130424064115
 20
333.6501331695247
 30
0.0
 10
292.3721109194374
 20
339.859033771323
 30
0.0
 10
290.4912198442952
 20
343.8242664859277
 30
0.0
 10
289.5207837069338
 20
345.8701080395166
 30
0.0
  0
SPLINE
  5
AE
330
1F
100
AcDbEntity
  8
0
  6
Continuous
 62
     7
370
    25
100
AcDbSpline
210
0.0
220
0.0
230
1.0
 70
     8
 71
     3
 72
    27
 73
    23
 74
     0
 42
0.00000001
 43
0.00000001
 40
0.0
 40
0.0
 40
0.0
 40
0.0
 40
0.0685763417119911
 40
0.1330968147200891
 40
0.1638522523329451
 40
0.1935918190024531
 40
0.2223155276201879
 40
0.2500233974944426
 40
0.3131563091133123
 40
0.3758617518707976
 40
0.4381403781380059
 40
0.4999928541446957
 40
0.5619526223209785
 40
0.6242670025619713
 40
0.6555747593323549
 40
0.6869715694126732
 40
0.718457516299883
 40
0.7500326827806609
 40
0.8071358713404005
 40
0.8678318333920683
 40
0.9321200783323997
 40
1.0
 40
1.0
 40
1.0
 40
1.0
 10
289.5207837069338
 20
345.8701080395166
 30
0.0
 10
288.4850697535208
 20
347.6326671819821
 30
0.0
 10
286.4748979549234
 20
351.0535409375868
 30
0.0
 10
283.2696002438194
 20
354.762780011711
 30
0.0
 10
280.5893039625982
 20
357.3442359207385
 30
0.0
 10
278.5577709563356
 20
359.0576037225313
 30
0.0
 10
276.497595102022
 20
360.5878237946926
 30
0.0
 10
273.5170849838124
 20
362.5352559567202
 30
0.0
 10
269.4543065258586
 20
364.6613474989277
 30
0.0
 10
264.1754225595737
 20
366.5768937179339
 30
0.0
 10
258.7260523055914
 20
367.7673821038796
 30
0.0
 10
253.189699639391
 20
368.2275322804993
 30
0.0
 10
247.6401855415638
 20
367.956260200167
 30
0.0
 10
243.0702459485915
 20
367.1190293635814
 30
0.0
 10
239.4924998075556
 20
366.0870440047206
 30
0.0
 10
236.85440366929
 20
365.1315179907166
 30
0.0
 10
234.2787870531403
 20
363.9985807939892
 30
0.0
 10
231.107006170386
 20
362.3409944017827
 30
0.0
 10
227.3659342324049
 20
359.9149044994936
 30
0.0
 10
223.2238103474512
 20
356.4031932034994
 30
0.0
 10
219.3161185357638
 20
352.1608265459113
 30
0.0
 10
217.2058578057681
 20
348.8333885837145
 30
0.0
 10
216.1220542188177
 20
347.1244579537108
 30
0.0
  0
SPLINE
  5
AF
330
1F
100
AcDbEntity
  8
0
  6
Continuous
 62
     7
370
    25
100
AcDbSpline
210
0.0
220
0.0
230
1.0
 70
     8
 71
     3
 72
    16
 73
    12
 74
     0
 42
0.00000001
 43
0.00000001
 40
0.0
 40
0.0
 40
0.0
 40
0.0
 40
0.1249844241374602
 40
0.2499716077949984
 40
0.3333288625679967
 40
0.416687362931083
 40
0.5000471163317117
 40
0.6176216903415268
 40
0.7401385115836334
 40
0.8675978943509876
 40
1.0
 40
1.0
 40
1.0
 40
1.0
 10
216.1220542188177
 20
347.1244579537108
 30
0.0
 10
215.2923001734858
 20
345.557902330565
 30
0.0
 10
213.6327737627553
 20
342.4247564964296
 30
0.0
 10
212.1130318407785
 20
337.9330156773942
 30
0.0
 10
211.1720692363203
 20
333.9069983749562
 30
0.0
 10
210.6651935376214
 20
330.3961327606768
 30
0.0
 10
210.4261740220538
 20
326.3723554073008
 30
0.0
 10
210.6188678101895
 20
321.7821715332087
 30
0.0
 10
211.4804181223386
 20
316.6370884964734
 30
0.0
 10
213.001399272582
 20
311.4136471076673
 30
0.0
 10
214.6077202770336
 20
308.0947964642035
 30
0.0
 10
215.4261573784053
 20
306.4038078679052
 30
0.0
  0
SPLINE
  5
B0
330
1F
100
AcDbEntity
  8
0
  6
Continuous
 62
     7
370
    25
100
AcDbSpline
210
0.0
220
0.0
230
1.0
 70
     8
 71
     3
 72
    25
 73
    21
 74
     0
 42
0.00000001
 43
0.00000001
 40
0.0
 40
0.0
 40
0.0
 40
0.0
 40
0.0425504237618068
 40
0.0908006619607644
 40
0.1447492010131617
 40
0.2043942414698517
 40
0.2697337245702727
 40
0.3407653481777873
 40
0.3913112460808352
 40
0.4443898690405023
 40
0.5000008479167459
 40
0.5564237314685866
 40
0.6101667617439738
 40
0.6612295147721273
 40
0.7327588539469154
 40
0.7982643556445121
 40
0.8577434059186352
 40
0.911193669928166
 40
0.9586131075062376
 40
1.0
 40
1.0
 40
1.0
 40
1.0
 10
215.4261573784053
 20
306.4038078679052
 30
0.0
 10
216.0512208332628
 20
305.3014539358821
 30
0.0
 10
217.385077712956
 20
302.9490809653318
 30
0.0
 10
219.952715511388
 20
299.4760180408936
 30
0.0
 10
223.201579648755
 20
295.907675120752
 30
0.0
 10
227.2538759854557
 20
292.4284870743723
 30
0.0
 10
232.1589000247698
 20
289.2361965948975
 30
0.0
 10
237.2328675920291
 20
286.8995158181471
 30
0.0
 10
242.2045269397467
 20
285.3496619214159
 30
0.0
 10
246.8670711597345
 20
284.443464169985
 30
0.0
 10
251.7786385700276
 20
284.0681235545135
 30
0.0
 10
256.7201936042069
 20
284.2805228522168
 30
0.0
 10
261.4680800289772
 20
285.0478325775083
 30
0.0
 10
266.533083535913
 20
286.4589285144327
 30
0.0
 10
271.7063154446581
 20
288.6593846688224
 30
0.0
 10
276.713673748738
 20
291.7174465208751
 30
0.0
 10
280.8524628050923
 20
295.0695571395628
 30
0.0
 10
284.1738627782477
 20
298.5086231442094
 30
0.0
 10
286.8006035747319
 20
301.8425318491991
 30
0.0
 10
288.1813910429811
 20
304.0982250824813
 30
0.0
 10
288.8248868665214
 20
305.1494579537107
 30
0.0
  0
SPLINE
  5
B1
330
1F
100
AcDbEntity
  8
0
  6
Continuous
 62
     7
370
    25
100
AcDbSpline
210
0.0
220
0.0
230
1.0
 70
     8
 71
     3
 72
    31
 73
    27
 74
     0
 42
0.00000001
 43
0.00000001
 40
0.0
 40
0.0
 40
0.0
 40
0.0
 40
0.0415515603009014
 40
0.0831387583681386
 40
0.1247317279387743
 40
0.1663139242250225
 40
0.2078867260712388
 40
0.2495236790998459
 40
0.2912709135793773
 40
0.3330522603685834
 40
0.3748043954331573
 40
0.4165363266112008
 40
0.4582636477730824
 40
0.5000025773443681
 40
0.5417414199446347
 40
0.5834686467834431
 40
0.6252003834465191
 40
0.6669520658970878
 40
0.708732865648589
 40
0.7504794199421106
 40
0.7921154128800767
 40
0.8336872196667129
 40
0.875268614530551
 40
0.9168611272919711
 40
0.958448286603328
 40
1.0
 40
1.0
 40
1.0
 40
1.0
 10
288.7140190328066
 20
305.2134675273506
 30
0.0
 10
289.564124824285
 20
306.8252335389543
 30
0.0
 10
291.2650655223783
 20
310.0501479348111
 30
0.0
 10
292.9927496053709
 20
315.2563470208851
 30
0.0
 10
294.0778783144743
 20
320.6229623004099
 30
0.0
 10
294.4389437517718
 20
326.0901916741741
 30
0.0
 10
294.0886620197352
 20
331.5580176309625
 30
0.0
 10
293.0248524592305
 20
336.9408773202516
 30
0.0
 10
291.263239773296
 20
342.1465120178837
 30
0.0
 10
288.8398952412276
 20
347.0850608543325
 30
0.0
 10
285.7858865522075
 20
351.6600826983056
 30
0.0
 10
282.1638407957151
 20
355.7966391998316
 30
0.0
 10
278.0316662268468
 20
359.4237878870532
 30
0.0
 10
273.4584400045898
 20
362.4764883678308
 30
0.0
 10
268.5283572394361
 20
364.9116489373333
 30
0.0
 10
263.3207648360144
 20
366.677720170515
 30
0.0
 10
257.9265661024173
 20
367.7472188405039
 30
0.0
 10
252.4362661617556
 20
368.1053284856736
 30
0.0
 10
246.946242649197
 20
367.7351054721339
 30
0.0
 10
241.5557795060867
 20
366.6579156816632
 30
0.0
 10
236.3609562743979
 20
364.8874805220956
 30
0.0
 10
231.4496972249986
 20
362.4564697090735
 30
0.0
 10
226.8950835226868
 20
359.4097388928549
 30
0.0
 10
222.790067826691
 20
355.7864995133625
 30
0.0
 10
219.1455785344823
 20
351.6873338193053
 30
0.0
 10
217.2035315519482
 20
348.6023050967351
 30
0.0
 10
216.2329220525325
 20
347.0604483800711
 30
0.0
  0
SPLINE
  5
B2
330
1F
100
AcDbEntity
  8
0
  6
Continuous
 62
     7
370
    25
100
AcDbSpline
210
0.0
220
0.0
230
1.0
 70
     8
 71
     3
 72
    31
 73
    27
 74
     0
 42
0.00000001
 43
0.00000001
 40
0.0
 40
0.0
 40
0.0
 40
0.0
 40
0.0415518904369689
 40
0.0831397911813019
 40
0.1247334351435369
 40
0.1663159413993083
 40
0.2078887177654554
 40
0.2495253781861144
 40
0.2912723375104154
 40
0.3330533750070858
 40
0.3748051915992151
 40
0.4165369739089115
 40
0.4582642177240259
 40
0.5000030752964597
 40
0.541741983686462
 40
0.5834692635077785
 40
0.6252009823626914
 40
0.6669526448026617
 40
0.7087334129950309
 40
0.7504799696884543
 40
0.7921160720350171
 40
0.8336879545745224
 40
0.8752693254010074
 40
0.9168616624942075
 40
0.9584485140790271
 40
1.0
 40
1.0
 40
1.0
 40
1.0
 10
216.2329220525325
 20
347.0604483800711
 30
0.0
 10
215.3829643152561
 20
345.4490831091421
 30
0.0
 10
213.6823122378907
 20
342.2249561023321
 30
0.0
 10
211.9547835739026
 20
337.0198518192958
 30
0.0
 10
210.8695078436896
 20
331.6541024111434
 30
0.0
 10
210.5080154171088
 20
326.1873842558733
 30
0.0
 10
210.8577884940903
 20
320.7196489708254
 30
0.0
 10
211.921154883523
 20
315.3364792074487
 30
0.0
 10
213.6825156164071
 20
310.1302418781055
 30
0.0
 10
216.1058011647854
 20
305.1909476019072
 30
0.0
 10
219.1599682645788
 20
300.6152214682795
 30
0.0
 10
222.782263499353
 20
296.4780988468326
 30
0.0
 10
226.9146712246812
 20
292.8505645157735
 30
0.0
 10
231.4880471298737
 20
289.7976774837079
 30
0.0
 10
236.4181361243836
 20
287.3624589166399
 30
0.0
 10
241.6255730029474
 20
285.5963607356583
 30
0.0
 10
247.0194968734065
 20
284.5268185882863
 30
0.0
 10
252.5094621590099
 20
284.1686038243392
 30
0.0
 10
257.9991739043207
 20
284.5386153710642
 30
0.0
 10
263.3894269471489
 20
285.6155422575872
 30
0.0
 10
268.5842052590871
 20
287.3856979435139
 30
0.0
 10
273.4956113394103
 20
289.8164949740691
 30
0.0
 10
278.0505499564061
 20
292.8631511816313
 30
0.0
 10
282.1560053142132
 20
296.4865254809757
 30
0.0
 10
285.8009835154921
 20
300.5860380913738
 30
0.0
 10
287.7432826009271
 20
303.6714285399249
 30
0.0
 10
288.7140190328066
 20
305.2134675273506
 30
0.0
  0
SPLINE
  5
B3
330
1F
100
AcDbEntity
  8
0
  6
Continuous
 62
     7
370
    25
100
AcDbSpline
210
0.0
220
0.0
230
1.0
 70
     8
 71
     3
 72
    14
 73
    10
 74
     0
 42
0.00000001
 43
0.00000001
 40
0.0
 40
0.0
 40
0.0
 40
0.0
 40
0.2500000000000001
 40
0.2500000000000001
 40
0.5000000000000001
 40
0.5000000000000001
 40
0.7500000000000001
 40
0.7500000000000001
 40
1.0
 40
1.0
 40
1.0
 40
1.0
 10
355.4736697432987
 20
446.1430843273674
 30
0.0
 10
357.0351506377156
 20
446.1470317157447
 30
0.0
 10
358.6132443647861
 20
445.8313661013528
 30
0.0
 10
361.5208556856714
 20
444.626423619399
 30
0.0
 10
362.850398628692
 20
443.7371265735075
 30
0.0
 10
365.0715708730747
 20
441.5180335129409
 30
0.0
 10
365.9629758317049
 20
440.1878878123038
 30
0.0
 10
367.1618137995982
 20
437.2799182732543
 30
0.0
 10
367.4690829964308
 20
435.7019483794496
 30
0.0
 10
367.4756844668289
 20
434.1403170617209
 30
0.0
  0
SPLINE
  5
B4
330
1F
100
AcDbEntity
  8
0
  6
Continuous
 62
     7
370
    25
100
AcDbSpline
210
0.0
220
0.0
230
1.0
 70
     8
 71
     3
 72
     8
 73
     4
 74
     0
 42
0.00000001
 43
0.00000001
 40
0.0
 40
0.0
 40
0.0
 40
0.0
 40
1.0
 40
1.0
 40
1.0
 40
1.0
 10
355.4734561858054
 20
448.1399388587988
 30
0.0
 10
355.4735159995709
 20
447.0940248364956
 30
0.0
 10
355.4734775158376
 20
446.109813920764
 30
0.0
 10
355.4736697423144
 20
446.1430830271579
 30
0.0
  0
SPLINE
  5
B5
330
1F
100
AcDbEntity
  8
0
  6
Continuous
 62
     7
370
    25
100
AcDbSpline
210
0.0
220
0.0
230
1.0
 70
     8
 71
     3
 72
    14
 73
    10
 74
     0
 42
0.00000001
 43
0.00000001
 40
0.0
 40
0.0
 40
0.0
 40
0.0
 40
0.2500000000000001
 40
0.2500000000000001
 40
0.5000000000000001
 40
0.5000000000000001
 40
0.7500000000000001
 40
0.7500000000000001
 40
1.0
 40
1.0
 40
1.0
 40
1.0
 10
369.4733422463667
 20
434.1400658507355
 30
0.0
 10
369.4676108430407
 20
435.9615957477284
 30
0.0
 10
369.1078676674474
 20
437.8023631869489
 30
0.0
 10
367.7078404822292
 20
441.1938727468173
 30
0.0
 10
366.6677357220358
 20
442.7447756001448
 30
0.0
 10
364.0773749343124
 20
445.3336392467265
 30
0.0
 10
362.5273734594286
 20
446.3719715940935
 30
0.0
 10
359.1361090962785
 20
447.7762279581154
 30
0.0
 10
357.2948108874377
 20
448.142147504078
 30
0.0
 10
355.4734561858054
 20
448.1399388587988
 30
0.0
  0
SPLINE
  5
B6
330
1F
100
AcDbEntity
  8
0
  6
Continuous
 62
     7
370
    25
100
AcDbSpline
210
0.0
220
0.0
230
1.0
 70
     8
 71
     3
 72
     9
 73
     5
 74
     0
 42
0.00000001
 43
0.00000001
 40
0.0
 40
0.0
 40
0.0
 40
0.0
 40
0.0148695423190795
 40
1.0
 40
1.0
 40
1.0
 40
1.0
 10
367.5108944587872
 20
434.1400852640386
 30
0.0
 10
367.5103105796749
 20
434.1400854247732
 30
0.0
 10
367.4710437952822
 20
434.1400962344307
 30
0.0
 10
367.471022466521
 20
434.1401414954865
 30
0.0
 10
367.4710014549087
 20
434.1401860835311
 30
0.0
  0
SPLINE
  5
B7
330
1F
100
AcDbEntity
  8
0
  6
Continuous
 62
     7
370
    25
100
AcDbSpline
210
0.0
220
0.0
230
1.0
 70
     8
 71
     3
 72
    14
 73
    10
 74
     0
 42
0.00000001
 43
0.00000001
 40
0.0
 40
0.0
 40
0.0
 40
0.0
 40
0.25
 40
0.25
 40
0.5
 40
0.5
 40
0.75
 40
0.75
 40
1.0
 40
1.0
 40
1.0
 40
1.0
 10
149.473268559043
 20
46.13710266995042
 30
0.0
 10
147.9117924799023
 20
46.13384649715413
 30
0.0
 10
146.3338850922567
 20
46.44896006056248
 30
0.0
 10
143.4258576899312
 20
47.65351667157519
 30
0.0
 10
142.0957374146731
 20
48.54297362963806
 30
0.0
 10
139.8761420504873
 20
50.76216401784167
 30
0.0
 10
138.9870541410274
 20
52.09224033036553
 30
0.0
 10
137.7822201830883
 20
55.00026987812867
 30
0.0
 10
137.4665997160519
 20
56.57836837438484
 30
0.0
 10
137.4704600128901
 20
58.13986044501074
 30
0.0
  0
SPLINE
  5
B8
330
1F
100
AcDbEntity
  8
0
  6
Continuous
 62
     7
370
    25
100
AcDbSpline
210
0.0
220
0.0
230
1.0
 70
     8
 71
     3
 72
     8
 73
     4
 74
     0
 42
0.00000001
 43
0.00000001
 40
0.0
 40
0.0
 40
0.0
 40
0.0
 40
1.0
 40
1.0
 40
1.0
 40
1.0
 10
149.4734827149906
 20
44.14019217158688
 30
0.0
 10
149.4734555035284
 20
45.18182648996061
 30
0.0
 10
149.4734262055044
 20
46.17460733712275
 30
0.0
 10
149.4732685587014
 20
46.1371040386952
 30
0.0
  0
SPLINE
  5
B9
330
1F
100
AcDbEntity
  8
0
  6
Continuous
 62
     7
370
    25
100
AcDbSpline
210
0.0
220
0.0
230
1.0
 70
     8
 71
     3
 72
    14
 73
    10
 74
     0
 42
0.00000001
 43
0.00000001
 40
0.0
 40
0.0
 40
0.0
 40
0.0
 40
0.25
 40
0.25
 40
0.5
 40
0.5
 40
0.75
 40
0.75
 40
1.0
 40
1.0
 40
1.0
 40
1.0
 10
135.473594717522
 20
58.14006621479012
 30
0.0
 10
135.4715321317143
 20
56.31872754315037
 30
0.0
 10
135.8374155694604
 20
54.4779626151532
 30
0.0
 10
137.2417737905773
 20
51.08641193558616
 30
0.0
 10
138.2800994645314
 20
49.53546132741271
 30
0.0
 10
140.8691670117394
 20
46.94688379238804
 30
0.0
 10
142.4195330202958
 20
45.90887802079785
 30
0.0
 10
145.8110289442679
 20
44.50365721199795
 30
0.0
 10
147.652176520806
 20
44.13643064666284
 30
0.0
 10
149.4734827149906
 20
44.14019217158688
 30
0.0
  0
SPLINE
  5
BA
330
1F
100
AcDbEntity
  8
0
  6
Continuous
 62
     7
370
    25
100
AcDbSpline
210
0.0
220
0.0
230
1.0
 70
     8
 71
     3
 72
    12
 73
     8
 74
     0
 42
0.00000001
 43
0.00000001
 40
0.0
 40
0.0
 40
0.0
 40
0.0
 40
0.25
 40
0.25
 40
0.5
 40
0.5
 40
1.0
 40
1.0
 40
1.0
 40
1.0
 10
135.473544882003
 20
58.14001686179449
 30
0.0
 10
135.8307466801758
 20
58.14001344240987
 30
0.0
 10
136.1604845439907
 20
58.14001410569608
 30
0.0
 10
136.7867440704531
 20
58.14000248200546
 30
0.0
 10
137.0356474047458
 20
58.14000328271424
 30
0.0
 10
137.4830574988115
 20
58.1400137857101
 30
0.0
 10
137.3822952173627
 20
58.14003157786218
 30
0.0
 10
137.4759446696731
 20
58.13989688824511
 30
0.0
  0
SPLINE
  5
BB
330
1F
100
AcDbEntity
  8
0
  6
Continuous
 62
     7
370
    25
100
AcDbSpline
210
0.0
220
0.0
230
1.0
 70
     8
 71
     3
 72
    14
 73
    10
 74
     0
 42
0.00000001
 43
0.00000001
 40
0.0
 40
0.0
 40
0.0
 40
0.0
 40
0.25
 40
0.25
 40
0.5
 40
0.5
 40
0.75
 40
0.75
 40
1.0
 40
1.0
 40
1.0
 40
1.0
 10
355.4734694026834
 20
44.14018841595679
 30
0.0
 10
357.2948834155569
 20
44.14062995409207
 30
0.0
 10
359.1357873779676
 20
44.5045459584959
 30
0.0
 10
362.5272914083009
 20
45.90741557985118
 30
0.0
 10
364.0780498721712
 20
46.94620942964861
 30
0.0
 10
366.6671579125207
 20
49.53585663827026
 30
0.0
 10
367.7058648463809
 20
51.0863653211685
 30
0.0
 10
369.1092001315706
 20
54.4777655511422
 30
0.0
 10
369.4738139094835
 20
56.31867647824551
 30
0.0
 10
369.4733473806043
 20
58.14006273557659
 30
0.0
  0
SPLINE
  5
BC
330
1F
100
AcDbEntity
  8
0
  6
Continuous
 62
     7
370
    25
100
AcDbSpline
210
0.0
220
0.0
230
1.0
 70
     8
 71
     3
 72
    12
 73
     8
 74
     0
 42
0.00000001
 43
0.00000001
 40
0.0
 40
0.0
 40
0.0
 40
0.0
 40
0.2500000000000072
 40
0.2500000000000072
 40
0.5000000000000143
 40
0.5000000000000143
 40
1.0
 40
1.0
 40
1.0
 40
1.0
 10
355.4735251440619
 20
44.14014628769119
 30
0.0
 10
355.4735003552468
 20
44.48527116096146
 30
0.0
 10
355.4734729905175
 20
44.83836654360069
 30
0.0
 10
355.4734591825836
 20
45.44780071070703
 30
0.0
 10
355.4734726754517
 20
45.70414088739333
 30
0.0
 10
355.4734668588927
 20
46.16283069068511
 30
0.0
 10
355.4734012806856
 20
46.05487786133583
 30
0.0
 10
355.4736450531261
 20
46.14253663996043
 30
0.0
  0
SPLINE
  5
BD
330
1F
100
AcDbEntity
  8
0
  6
Continuous
 62
     7
370
    25
100
AcDbSpline
210
0.0
220
0.0
230
1.0
 70
     8
 71
     3
 72
    14
 73
    10
 74
     0
 42
0.00000001
 43
0.00000001
 40
0.0
 40
0.0
 40
0.0
 40
0.0
 40
0.25
 40
0.25
 40
0.5
 40
0.5
 40
0.75
 40
0.75
 40
1.0
 40
1.0
 40
1.0
 40
1.0
 10
367.4764918085899
 20
58.13983979656806
 30
0.0
 10
367.4770676754486
 20
56.57827152537298
 30
0.0
 10
367.1641143236451
 20
55.00011444101366
 30
0.0
 10
365.961043619114
 20
52.09223675161745
 30
0.0
 10
365.0709341982259
 20
50.76250320466175
 30
0.0
 10
362.8512081510512
 20
48.54231164345912
 30
0.0
 10
361.5212660402897
 20
47.65216785823412
 30
0.0
 10
358.6133752970866
 20
46.44973767403848
 30
0.0
 10
357.035287248883
 20
46.13759196234207
 30
0.0
 10
355.4737063056812
 20
46.13712549317017
 30
0.0
  0
SPLINE
  5
BE
330
1F
100
AcDbEntity
  8
0
  6
Continuous
 62
     7
370
    25
100
AcDbSpline
210
0.0
220
0.0
230
1.0
 70
     8
 71
     3
 72
     9
 73
     5
 74
     0
 42
0.00000001
 43
0.00000001
 40
0.0
 40
0.0
 40
0.0
 40
0.0
 40
0.0085154514824129
 40
0.9999999999999999
 40
0.9999999999999999
 40
0.9999999999999999
 40
0.9999999999999999
 10
367.5093830417924
 20
58.13990553710651
 30
0.0
 10
367.5090483371091
 20
58.13990539550379
 30
0.0
 10
367.4697427660536
 20
58.13988876658349
 30
0.0
 10
367.4731313111131
 20
58.13986417720108
 30
0.0
 10
367.4764910011817
 20
58.13983979720822
 30
0.0
  0
SPLINE
  5
BF
330
1F
100
AcDbEntity
  8
0
  6
Continuous
 62
     7
370
    25
100
AcDbSpline
210
0.0
220
0.0
230
1.0
 70
     8
 71
     3
 72
    14
 73
    10
 74
     0
 42
0.00000001
 43
0.00000001
 40
0.0
 40
0.0
 40
0.0
 40
0.0
 40
0.25
 40
0.25
 40
0.5
 40
0.5
 40
0.75
 40
0.75
 40
1.0
 40
1.0
 40
1.0
 40
1.0
 10
137.4708960566096
 20
434.1402892655665
 30
0.0
 10
137.4728069516702
 20
435.7020222016469
 30
0.0
 10
137.783768781759
 20
437.2799956439676
 30
0.0
 10
138.985552372405
 20
440.1876759471634
 30
0.0
 10
139.8760665330241
 20
441.5176376875098
 30
0.0
 10
142.096302668359
 20
443.7379969394656
 30
0.0
 10
143.4261068887085
 20
444.6283218151045
 30
0.0
 10
146.3344055683291
 20
445.8300354885874
 30
0.0
 10
147.9123083539836
 20
446.1420377951573
 30
0.0
 10
149.4732396420905
 20
446.1427274795835
 30
0.0
  0
SPLINE
  5
C0
330
1F
100
AcDbEntity
  8
0
  6
Continuous
 62
     7
370
    25
100
AcDbSpline
210
0.0
220
0.0
230
1.0
 70
     8
 71
     3
 72
     8
 73
     4
 74
     0
 42
0.00000001
 43
0.00000001
 40
0.0
 40
0.0
 40
0.0
 40
0.0
 40
1.0
 40
1.0
 40
1.0
 40
1.0
 10
135.4735838708512
 20
434.1400526946674
 30
0.0
 10
136.5183329106196
 20
434.1401206440423
 30
0.0
 10
137.5026616401624
 20
434.1400786521932
 30
0.0
 10
137.4708962993045
 20
434.1402892652908
 30
0.0
  0
SPLINE
  5
C1
330
1F
100
AcDbEntity
  8
0
  6
Continuous
 62
     7
370
    25
100
AcDbSpline
210
0.0
220
0.0
230
1.0
 70
     8
 71
     3
 72
    14
 73
    10
 74
     0
 42
0.00000001
 43
0.00000001
 40
0.0
 40
0.0
 40
0.0
 40
0.0
 40
0.25
 40
0.25
 40
0.5
 40
0.5
 40
0.75
 40
0.75
 40
1.0
 40
1.0
 40
1.0
 40
1.0
 10
149.4734696590316
 20
448.1399393343263
 30
0.0
 10
147.6527858892223
 20
448.1392040565228
 30
0.0
 10
145.8121800217847
 20
447.7755635639066
 30
0.0
 10
142.4202028808645
 20
446.3734592905518
 30
0.0
 10
140.8695488912973
 20
445.3342383162996
 30
0.0
 10
138.2795989574988
 20
442.7445883886026
 30
0.0
 10
137.2402091974829
 20
441.1942388937923
 30
0.0
 10
135.8383677680122
 20
437.8029732999349
 30
0.0
 10
135.4763009863638
 20
435.9617300261519
 30
0.0
 10
135.4735838708512
 20
434.1400526946674
 30
0.0
  0
SPLINE
  5
C2
330
1F
100
AcDbEntity
  8
0
  6
Continuous
 62
     7
370
    25
100
AcDbSpline
210
0.0
220
0.0
230
1.0
 70
     8
 71
     3
 72
     8
 73
     4
 74
     0
 42
0.00000001
 43
0.00000001
 40
0.0
 40
0.0
 40
0.0
 40
0.0
 40
1.0
 40
1.0
 40
1.0
 40
1.0
 10
149.473356531107
 20
448.1399877370364
 30
0.0
 10
149.4733565310088
 20
447.0713802298583
 30
0.0
 10
149.4733565311609
 20
446.110952634847
 30
0.0
 10
149.4733565311624
 20
446.1409239181751
 30
0.0
  0
LINE
  5
C3
330
1F
100
AcDbEntity
  8
0
  6
Continuous
 62
     7
370
    25
100
AcDbLine
 10
355.4734561254
 20
448.1399867045
 30
0.0
 11
149.4734696415
 21
448.1399889793
 31
0.0
  0
LINE
  5
C4
330
1F
100
AcDbEntity
  8
0
  6
Continuous
 62
     7
370
    25
100
AcDbLine
 10
355.4736816273
 20
446.1400662408
 30
0.0
 11
149.4732417446
 21
446.1400662408
 31
0.0
  0
LINE
  5
C5
330
1F
100
AcDbEntity
  8
0
  6
Continuous
 62
     7
370
    25
100
AcDbLine
 10
367.4734695051
 20
63.7220114383
 30
0.0
 11
367.4734695051
 21
430.9008065515
 31
0.0
  0
LINE
  5
C6
330
1F
100
AcDbEntity
  8
0
  6
Continuous
 62
     7
370
    25
100
AcDbLine
 10
369.473404084
 20
58.1400627528
 30
0.0
 11
369.4734020303
 21
434.1400660335
 31
0.0
  0
SPLINE
  5
C7
330
1F
100
AcDbEntity
  8
0
  6
Continuous
 62
     7
370
    25
100
AcDbSpline
210
0.0
220
0.0
230
1.0
 70
     8
 71
     3
 72
    26
 73
    22
 74
     0
 42
0.00000001
 43
0.00000001
 40
0.0
 40
0.0
 40
0.0
 40
0.0
 40
0.0002441836461953
 40
0.0004883655576502
 40
0.0009767166315365
 40
0.0019533768350022
 40
0.0039065877890553
 40
0.0078128540190884
 40
0.0156253511137495
 40
0.0312503452955662
 40
0.0625003336406623
 40
0.1250003103802366
 40
0.2500002638974452
 40
0.5000001709098597
 40
0.5773208708093368
 40
0.6596588559180581
 40
0.7471687561136895
 40
0.9044071239741998
 40
0.9604529303464023
 40
0.9811099197996109
 40
1.0
 40
1.0
 40
1.0
 40
1.0
 10
355.4737045546789
 20
46.14253053567591
 30
0.0
 10
355.4569402470564
 20
46.14246799542065
 30
0.0
 10
355.4234117509093
 20
46.1423429153544
 30
0.0
 10
355.3563553305681
 20
46.14209798863572
 30
0.0
 10
355.239007207568
 20
46.1417094742061
 30
0.0
 10
355.0043118824156
 20
46.14106442759069
 30
0.0
 10
354.5349126604997
 20
46.14023624306196
 30
0.0
 10
353.5960966667295
 20
46.13996383639718
 30
0.0
 10
351.7184905371745
 20
46.14013828323088
 30
0.0
 10
347.9632716399291
 20
46.14001519064026
 30
0.0
 10
340.4528403953163
 20
46.1401025012192
 30
0.0
 10
325.4319731154766
 20
46.14003946721051
 30
0.0
 10
295.390241815287
 20
46.14009822918225
 30
0.0
 10
264.3308169730245
 20
46.13999398313823
 30
0.0
 10
236.2008552263455
 20
46.14013998715261
 30
0.0
 10
219.2285690609858
 20
46.14034228627312
 30
0.0
 10
196.7685889230384
 20
46.14060933564728
 30
0.0
 10
176.1140103632937
 20
46.14081746575454
 30
0.0
 10
160.0500085205365
 20
46.14083300637034
 30
0.0
 10
153.4859490587203
 20
46.14170881374569
 30
0.0
 10
150.7703781706861
 20
46.14226654295894
 30
0.0
 10
149.4732567325079
 20
46.14253294827441
 30
0.0
  0
LINE
  5
C8
330
1F
100
AcDbEntity
  8
0
  6
Continuous
 62
     7
370
    25
100
AcDbLine
 10
149.4734828402
 20
44.1401336486
 30
0.0
 11
355.4734694133
 21
44.1401317254
 31
0.0
  0
SPLINE
  5
C9
330
1F
100
AcDbEntity
  8
0
  6
Continuous
 62
     7
370
    25
100
AcDbSpline
210
0.0
220
0.0
230
1.0
 70
    24
 71
     3
 72
    23
 73
    19
 74
     0
 42
0.00000001
 43
0.00000001
 40
0.0
 40
0.0
 40
0.0
 40
0.0
 40
0.0043948194594008
 40
0.0170015820893163
 40
0.0378202900526871
 40
0.0668509436769508
 40
0.1040935430729464
 40
0.1495480882914392
 40
0.2032145793598909
 40
0.2650930162948295
 40
0.3351833991069735
 40
0.4134857278036693
 40
0.5000000023901714
 40
0.6753349312724405
 40
0.8130023953535622
 40
0.9130023946736833
 40
0.97533492934573
 40
1.0
 40
1.0
 40
1.0
 40
1.0
 10
137.4734695051138
 20
434.1402825056875
 30
0.0
 10
137.4734695051138
 20
433.5894650161851
 30
0.0
 10
137.4734695051138
 20
431.4585996073744
 30
0.0
 10
137.4734695051138
 20
426.7184497539502
 30
0.0
 10
137.4734695051138
 20
418.8906073671873
 30
0.0
 10
137.4734695051138
 20
407.9750685339969
 30
0.0
 10
137.4734695051139
 20
393.9718349814967
 30
0.0
 10
137.4734695051138
 20
376.8809059744916
 30
0.0
 10
137.4734695051139
 20
356.7022817810384
 30
0.0
 10
137.4734695051139
 20
333.4359623041428
 30
0.0
 10
137.4734695051139
 20
307.0819475751932
 30
0.0
 10
137.473469505114
 20
277.6402375842814
 30
0.0
 10
137.473469505114
 20
235.0078624055918
 30
0.0
 10
137.4734695051141
 20
184.9350482689317
 30
0.0
 10
137.4734695051141
 20
133.1720212191405
 30
0.0
 10
137.4734695051143
 20
95.57197777257103
 30
0.0
 10
137.4734695051142
 20
72.13491697104845
 30
0.0
 10
137.4734695051143
 20
61.2312049410429
 30
0.0
 10
137.4734695051143
 20
58.13984597081451
 30
0.0
  0
LINE
  5
CA
330
1F
100
AcDbEntity
  8
0
  6
Continuous
 62
     7
370
    25
100
AcDbLine
 10
135.4735246166
 20
434.140052779
 30
0.0
 11
135.4735361873
 21
58.140066285
 31
0.0
  0
SPLINE
  5
CB
330
1F
100
AcDbEntity
  8
0
  6
Continuous
 62
     7
370
    25
100
AcDbSpline
210
0.0
220
0.0
230
1.0
 70
     8
 71
     3
 72
    23
 73
    19
 74
     0
 42
0.00000001
 43
0.00000001
 40
0.0
 40
0.0
 40
0.0
 40
0.0
 40
0.036463691147422
 40
0.0625452111616163
 40
0.0934941541470514
 40
0.1250637874439011
 40
0.1875899157289449
 40
0.2501472943256001
 40
0.3746182525812492
 40
0.5000029290506073
 40
0.6251364489117738
 40
0.7498511000926205
 40
0.8121459075661844
 40
0.8749362394504164
 40
0.9064366608183183
 40
0.9374548337315237
 40
0.9634661901326832
 40
1.0
 40
1.0
 40
1.0
 40
1.0
 10
127.4734696339007
 20
465.6400732851216
 30
0.0
 10
127.2923927378384
 20
465.6334508745252
 30
0.0
 10
126.9817962967124
 20
465.6220916276658
 30
0.0
 10
126.5179073603092
 20
465.5946659370422
 30
0.0
 10
126.0802299449546
 20
465.5440918269566
 30
0.0
 10
125.4679353699702
 20
465.4367783869897
 30
0.0
 10
124.7120486400899
 20
465.2449820111671
 30
0.0
 10
123.5427926796514
 20
464.827653422426
 30
0.0
 10
122.1615178528636
 20
464.0943914796388
 30
0.0
 10
120.7168043676237
 20
462.8990440172355
 30
0.0
 10
119.5208928151157
 20
461.4533999066477
 30
0.0
 10
118.7873051541094
 20
460.0738319016633
 30
0.0
 10
118.3687648112763
 20
458.9036967095643
 30
0.0
 10
118.1773304123532
 20
458.1480477209342
 30
0.0
 10
118.069654845567
 20
457.5344908774849
 30
0.0
 10
118.0190655744047
 20
457.0971635092481
 30
0.0
 10
117.9915211184599
 20
456.6329384456474
 30
0.0
 10
117.9801215468457
 20
456.3223433893899
 30
0.0
 10
117.9734628423162
 20
456.1409189659207
 30
0.0
  0
LINE
  5
CC
330
1F
100
AcDbEntity
  8
0
  6
Continuous
 62
     7
370
    25
100
AcDbLine
 10
377.4743261215
 20
465.6400739684
 30
0.0
 11
127.4734696339
 21
465.6400732851
 31
0.0
  0
SPLINE
  5
CD
330
1F
100
AcDbEntity
  8
0
  6
Continuous
 62
     7
370
    25
100
AcDbSpline
210
0.0
220
0.0
230
1.0
 70
     8
 71
     3
 72
    23
 73
    19
 74
     0
 42
0.00000001
 43
0.00000001
 40
0.0
 40
0.0
 40
0.0
 40
0.0
 40
0.0364638135845673
 40
0.0625452115186613
 40
0.0934938010970718
 40
0.1250637901034715
 40
0.1875893245227995
 40
0.2501472975124517
 40
0.3746172381272084
 40
0.5000029025777597
 40
0.6251354573367125
 40
0.7498510926944704
 40
0.8121455762460275
 40
0.8749362218750716
 40
0.9064358572764171
 40
0.9374548186155233
 40
0.9634675561624435
 40
1.0
 40
1.0
 40
1.0
 40
1.0
 10
386.9734765710233
 20
456.1400661048182
 30
0.0
 10
386.966854245178
 20
456.3211435728159
 30
0.0
 10
386.9554951817662
 20
456.6317399538256
 30
0.0
 10
386.9280702794911
 20
457.0956270900757
 30
0.0
 10
386.877495960036
 20
457.5333037865739
 30
0.0
 10
386.7701834889031
 20
458.145595415791
 30
0.0
 10
386.578386574979
 20
458.9014836378878
 30
0.0
 10
386.1610603088454
 20
460.0707348679386
 30
0.0
 10
385.4277962765274
 20
461.4520110458189
 30
0.0
 10
384.2324561628645
 20
462.8967234480689
 30
0.0
 10
382.786811517118
 20
464.0926419903367
 30
0.0
 10
381.4072434550757
 20
464.826226299034
 30
0.0
 10
380.2371043162099
 20
465.2447686898689
 30
0.0
 10
379.4814596536852
 20
465.4362035458786
 30
0.0
 10
378.8679015711348
 20
465.5438801722084
 30
0.0
 10
378.4305678023701
 20
465.594472870578
 30
0.0
 10
377.9663389763449
 20
465.622020463342
 30
0.0
 10
377.6557437922086
 20
465.6334171812711
 30
0.0
 10
377.4743261215024
 20
465.6400739683882
 30
0.0
  0
LINE
  5
CE
330
1F
100
AcDbEntity
  8
0
  6
Continuous
 62
     7
370
    25
100
AcDbLine
 10
386.9734772117
 20
36.1392135133
 30
0.0
 11
386.973476571
 21
456.1400661048
 31
0.0
  0
SPLINE
  5
CF
330
1F
100
AcDbEntity
  8
0
  6
Continuous
 62
     7
370
    25
100
AcDbSpline
210
0.0
220
0.0
230
1.0
 70
     8
 71
     3
 72
    23
 73
    19
 74
     0
 42
0.00000001
 43
0.00000001
 40
0.0
 40
0.0
 40
0.0
 40
0.0
 40
0.0345532283921534
 40
0.0585482673506212
 40
0.0917397729343297
 40
0.1250744125694068
 40
0.188872082472508
 40
0.2524887329839566
 40
0.3762103810523722
 40
0.5000136151710585
 40
0.6253849549639966
 40
0.7498516509042046
 40
0.8121464364321156
 40
0.8749364995191796
 40
0.9064363760308412
 40
0.9374549580745981
 40
0.9634683134602523
 40
0.9999999999999999
 40
0.9999999999999999
 40
0.9999999999999999
 40
0.9999999999999999
 10
377.474326062048
 20
26.64005957861709
 30
0.0
 10
377.6459091594857
 20
26.64625758856243
 30
0.0
 10
377.936645901871
 20
26.65675972570564
 30
0.0
 10
378.3918650530532
 20
26.68219549290029
 30
0.0
 10
378.839260659104
 20
26.73188048204495
 30
0.0
 10
379.4776574100712
 20
26.84219927890191
 30
0.0
 10
380.2532115564963
 20
27.03959317312848
 30
0.0
 10
381.4283375971563
 20
27.46382886151638
 30
0.0
 10
382.8016915451644
 20
28.19776438237598
 30
0.0
 10
384.2365776776808
 20
29.38812344841607
 30
0.0
 10
385.4258754757067
 20
30.82873879038545
 30
0.0
 10
386.1602744471237
 20
32.20759790304523
 30
0.0
 10
386.5781926744975
 20
33.37660831270428
 30
0.0
 10
386.7696344119005
 20
34.13219613296631
 30
0.0
 10
386.8772940595275
 20
34.74572003322285
 30
0.0
 10
386.9278813339557
 20
35.18303180524379
 30
0.0
 10
386.9554255525965
 20
35.6472324454965
 30
0.0
 10
386.9668211829776
 20
35.9578096818538
 30
0.0
 10
386.9734772117242
 20
36.13921351332811
 30
0.0
  0
LINE
  5
D0
330
1F
100
AcDbEntity
  8
0
  6
Continuous
 62
     7
370
    25
100
AcDbLine
 10
127.47261678
 20
26.6400662408
 30
0.0
 11
377.474326062
 21
26.6400662408
 31
0.0
  0
SPLINE
  5
D1
330
1F
100
AcDbEntity
  8
0
  6
Continuous
 62
     7
370
    25
100
AcDbSpline
210
0.0
220
0.0
230
1.0
 70
     8
 71
     3
 72
    23
 73
    19
 74
     0
 42
0.00000001
 43
0.00000001
 40
0.0
 40
0.0
 40
0.0
 40
0.0
 40
0.0364636909656762
 40
0.0625452114689084
 40
0.0934941544291689
 40
0.1250637877295739
 40
0.1875899156826995
 40
0.2501472945683196
 40
0.3746182528090696
 40
0.5000029292255854
 40
0.6251364492824611
 40
0.7498511001760996
 40
0.8121459078178374
 40
0.8749362394929863
 40
0.9064366611444455
 40
0.9374548337531595
 40
0.9634661908111466
 40
1.0
 40
1.0
 40
1.0
 40
1.0
 10
117.9734624607477
 20
36.14006637443607
 30
0.0
 10
117.9800848710833
 20
35.95898947920561
 30
0.0
 10
117.9914441176078
 20
35.6483930364323
 30
0.0
 10
118.0188698086115
 20
35.18450409848145
 30
0.0
 10
118.0694439191149
 20
34.7468266806974
 30
0.0
 10
118.1767573584542
 20
34.13453210717038
 30
0.0
 10
118.368553734467
 20
33.37864537726148
 30
0.0
 10
118.7858823228489
 20
32.20938941660728
 30
0.0
 10
119.5191442645767
 20
30.82811458727547
 30
0.0
 10
120.7144917297305
 20
29.38340110244431
 30
0.0
 10
122.160135840677
 20
28.18748955070405
 30
0.0
 10
123.5397038462268
 20
27.45390188897778
 30
0.0
 10
124.7098390371542
 20
27.03536154633024
 30
0.0
 10
125.4654880273183
 20
26.84392714752598
 30
0.0
 10
126.0790448698635
 20
26.73625158093407
 30
0.0
 10
126.5163722414103
 20
26.6856623096452
 30
0.0
 10
126.9805973035553
 20
26.65811785379313
 30
0.0
 10
127.2911923598236
 20
26.64671828250409
 30
0.0
 10
127.4726167799927
 20
26.64005957828608
 30
0.0
  0
LINE
  5
D2
330
1F
100
AcDbEntity
  8
0
  6
Continuous
 62
     7
370
    25
100
AcDbLine
 10
117.9734628423
 20
456.1409189659
 30
0.0
 11
117.9734624607
 21
36.1400663744
 31
0.0
  0
SPLINE
  5
D3
330
1F
100
AcDbEntity
  8
0
  6
Continuous
 62
     7
370
    25
100
AcDbSpline
210
0.0
220
0.0
230
1.0
 70
     8
 71
     3
 72
     8
 73
     4
 74
     0
 42
0.00000001
 43
0.00000001
 40
0.0
 40
0.0
 40
0.0
 40
0.0
 40
1.0
 40
1.0
 40
1.0
 40
1.0
 10
387.4724489915441
 20
36.14007415902976
 30
0.0
 10
387.4795829722505
 20
36.13830651198058
 30
0.0
 10
387.2373178436658
 20
36.14022433212882
 30
0.0
 10
386.9734875816151
 20
36.13921359810468
 30
0.0
  0
SPLINE
  5
D4
330
1F
100
AcDbEntity
  8
0
  6
Continuous
 62
     7
370
    25
100
AcDbSpline
210
0.0
220
0.0
230
1.0
 70
    24
 71
     3
 72
     8
 73
     4
 74
     0
 42
0.00000001
 43
0.00000001
 40
0.0
 40
0.0
 40
0.0
 40
0.0
 40
1.0
 40
1.0
 40
1.0
 40
1.0
 10
387.4734695203604
 20
456.1400625467471
 30
0.0
 10
387.4737665141621
 20
456.1400625467473
 30
0.0
 10
387.2351073656624
 20
456.140062546747
 30
0.0
 10
386.9734766409807
 20
456.1400625467472
 30
0.0
  0
LINE
  5
D5
330
1F
100
AcDbEntity
  8
0
  6
Continuous
 62
     7
370
    25
100
AcDbLine
 10
387.4734695051
 20
456.1400622047
 30
0.0
 11
387.4734695051
 21
36.1400702088
 31
0.0
  0
SPLINE
  5
D6
330
1F
100
AcDbEntity
  8
0
  6
Continuous
 62
     7
370
    25
100
AcDbSpline
210
0.0
220
0.0
230
1.0
 70
     8
 71
     3
 72
     8
 73
     4
 74
     0
 42
0.00000001
 43
0.00000001
 40
0.0
 40
0.0
 40
0.0
 40
0.0
 40
1.0
 40
1.0
 40
1.0
 40
1.0
 10
377.4734615668994
 20
466.1390441988859
 30
0.0
 10
377.4752196110178
 20
466.1461885569161
 30
0.0
 10
377.4733130086289
 20
465.903880100317
 30
0.0
 10
377.4743260342735
 20
465.6400843663237
 30
0.0
  0
SPLINE
  5
D7
330
1F
100
AcDbEntity
  8
0
  6
Continuous
 62
     7
370
    25
100
AcDbSpline
210
0.0
220
0.0
230
1.0
 70
     8
 71
     3
 72
    14
 73
    10
 74
     0
 42
0.00000001
 43
0.00000001
 40
0.0
 40
0.0
 40
0.0
 40
0.0
 40
0.2499999999999991
 40
0.2499999999999991
 40
0.4999999999999982
 40
0.4999999999999982
 40
0.7499999999999991
 40
0.7499999999999991
 40
1.0
 40
1.0
 40
1.0
 40
1.0
 10
377.4734647445833
 20
466.1400653689989
 30
0.0
 10
378.7737833285884
 20
466.1420629519938
 30
0.0
 10
380.0882821953355
 20
465.8806020091523
 30
0.0
 10
382.5106720931975
 20
464.8770915381816
 30
0.0
 10
383.6181798414232
 20
464.1346893902643
 30
0.0
 10
385.4681811876189
 20
462.2848650606614
 30
0.0
 10
386.2104205481754
 20
461.1771992345604
 30
0.0
 10
387.2140711500325
 20
458.7549404202878
 30
0.0
 10
387.4757278743011
 20
457.4406239779238
 30
0.0
 10
387.4734684099134
 20
456.140061311013
 30
0.0
  0
SPLINE
  5
D8
330
1F
100
AcDbEntity
  8
0
  6
Continuous
 62
     7
370
    25
100
AcDbSpline
210
0.0
220
0.0
230
1.0
 70
    24
 71
     3
 72
     8
 73
     4
 74
     0
 42
0.00000001
 43
0.00000001
 40
0.0
 40
0.0
 40
0.0
 40
0.0
 40
1.0
 40
1.0
 40
1.0
 40
1.0
 10
127.4734731852553
 20
466.1400662559552
 30
0.0
 10
127.4734731852555
 20
466.1403632735478
 30
0.0
 10
127.4734731852551
 20
465.9017041011697
 30
0.0
 10
127.4734731852555
 20
465.640073355007
 30
0.0
  0
SPLINE
  5
D9
330
1F
100
AcDbEntity
  8
0
  6
Continuous
 62
     7
370
    25
100
AcDbSpline
210
0.0
220
0.0
230
1.0
 70
    24
 71
     3
 72
     8
 73
     4
 74
     0
 42
0.00000001
 43
0.00000001
 40
0.0
 40
0.0
 40
0.0
 40
0.0
 40
1.0
 40
1.0
 40
1.0
 40
1.0
 10
117.9734627757775
 20
456.1404927744393
 30
0.0
 10
117.7118295879004
 20
456.1404927744392
 30
0.0
 10
117.473168292705
 20
456.1404927744393
 30
0.0
 10
117.4734694977703
 20
456.1404927744393
 30
0.0
  0
SPLINE
  5
DA
330
1F
100
AcDbEntity
  8
0
  6
Continuous
 62
     7
370
    25
100
AcDbSpline
210
0.0
220
0.0
230
1.0
 70
     8
 71
     3
 72
    14
 73
    10
 74
     0
 42
0.00000001
 43
0.00000001
 40
0.0
 40
0.0
 40
0.0
 40
0.0
 40
0.25
 40
0.25
 40
0.5
 40
0.5
 40
0.75
 40
0.75
 40
1.0
 40
1.0
 40
1.0
 40
1.0
 10
117.4734704617965
 20
456.1400663806638
 30
0.0
 10
117.4725225172286
 20
457.4391939989462
 30
0.0
 10
117.7332190834812
 20
458.7545590438541
 30
0.0
 10
118.7361553486203
 20
461.1776005018839
 30
0.0
 10
119.4787699411966
 20
462.2848684410054
 30
0.0
 10
121.3287524739146
 20
464.1346897318932
 30
0.0
 10
122.4363569803566
 20
464.876996812743
 30
0.0
 10
124.8585772855529
 20
465.8806890457581
 30
0.0
 10
126.1729121425439
 20
466.1423246252935
 30
0.0
 10
127.4734744175784
 20
466.1400651452738
 30
0.0
  0
SPLINE
  5
DB
330
1F
100
AcDbEntity
  8
0
  6
Continuous
 62
     7
370
    25
100
AcDbSpline
210
0.0
220
0.0
230
1.0
 70
     8
 71
     3
 72
     8
 73
     4
 74
     0
 42
0.00000001
 43
0.00000001
 40
0.0
 40
0.0
 40
0.0
 40
0.0
 40
1.0
 40
1.0
 40
1.0
 40
1.0
 10
117.9734520772089
 20
36.1400664605655
 30
0.0
 10
117.709637563951
 20
36.1408193492822
 30
0.0
 10
117.4673504057749
 20
36.13858572556655
 30
0.0
 10
117.474498637906
 20
36.14007428246418
 30
0.0
  0
SPLINE
  5
DC
330
1F
100
AcDbEntity
  8
0
  6
Continuous
 62
     7
370
    25
100
AcDbSpline
210
0.0
220
0.0
230
1.0
 70
    24
 71
     3
 72
     8
 73
     4
 74
     0
 42
0.00000001
 43
0.00000001
 40
0.0
 40
0.0
 40
0.0
 40
0.0
 40
1.0
 40
1.0
 40
1.0
 40
1.0
 10
127.4730429709173
 20
26.64005978720801
 30
0.0
 10
127.4730429709179
 20
26.37814523895554
 30
0.0
 10
127.4730429709171
 20
26.13977068340112
 30
0.0
 10
127.4730429709176
 20
26.14006623354121
 30
0.0
  0
SPLINE
  5
DD
330
1F
100
AcDbEntity
  8
0
  6
Continuous
 62
     7
370
    25
100
AcDbSpline
210
0.0
220
0.0
230
1.0
 70
     8
 71
     3
 72
    12
 73
     8
 74
     0
 42
0.00000001
 43
0.00000001
 40
0.0
 40
0.0
 40
0.0
 40
0.0
 40
0.5000000000000057
 40
0.5000000000000057
 40
0.7500000000000029
 40
0.7500000000000029
 40
1.0
 40
1.0
 40
1.0
 40
1.0
 10
127.4734722191651
 20
26.14006605440861
 30
0.0
 10
124.8453050318183
 20
26.11118371852211
 30
0.0
 10
122.2558296510191
 20
27.22240314153945
 30
0.0
 10
119.477723538858
 20
29.99433420334513
 30
0.0
 10
118.7362724664494
 20
31.10271152553212
 30
0.0
 10
117.7331106194636
 20
33.52541127974645
 30
0.0
 10
117.4712114263959
 20
34.83950871781965
 30
0.0
 10
117.4734705967124
 20
36.14007115310452
 30
0.0
  0
SPLINE
  5
DE
330
1F
100
AcDbEntity
  8
0
  6
Continuous
 62
     7
370
    25
100
AcDbSpline
210
0.0
220
0.0
230
1.0
 70
     8
 71
     3
 72
     8
 73
     4
 74
     0
 42
0.00000001
 43
0.00000001
 40
0.0
 40
0.0
 40
0.0
 40
0.0
 40
1.0
 40
1.0
 40
1.0
 40
1.0
 10
377.4743263843262
 20
26.64005069486175
 30
0.0
 10
377.4738681454469
 20
26.37360350626306
 30
0.0
 10
377.4734592346259
 20
26.13423527784342
 30
0.0
 10
377.4734697360821
 20
26.14062250833443
 30
0.0
  0
SPLINE
  5
DF
330
1F
100
AcDbEntity
  8
0
  6
Continuous
 62
     7
370
    25
100
AcDbSpline
210
0.0
220
0.0
230
1.0
 70
     8
 71
     3
 72
    10
 73
     6
 74
     0
 42
0.00000001
 43
0.00000001
 40
0.0
 40
0.0
 40
0.0
 40
0.0
 40
0.5
 40
0.5
 40
1.0
 40
1.0
 40
1.0
 40
1.0
 10
387.4734696625905
 20
36.14007544044995
 30
0.0
 10
387.500392310969
 20
33.51364391249317
 30
0.0
 10
386.3930562147652
 20
30.92073009104118
 30
0.0
 10
382.6933064369264
 20
27.21998694814604
 30
0.0
 10
380.0999364827546
 20
26.1131136980563
 30
0.0
 10
377.473467016996
 20
26.1400664921802
 30
0.0
  0
LINE
  5
E0
330
1F
100
AcDbEntity
  8
0
  6
Continuous
 62
     7
370
    25
100
AcDbLine
 10
117.4734695051
 20
36.1400702609
 30
0.0
 11
117.4734695051
 21
456.140066583
 31
0.0
  0
LINE
  5
E1
330
1F
100
AcDbEntity
  8
0
  6
Continuous
 62
     7
370
    25
100
AcDbLine
 10
127.4734735252
 20
466.1400662408
 30
0.0
 11
377.4734655285
 21
466.1400662408
 31
0.0
  0
LINE
  5
E2
330
1F
100
AcDbEntity
  8
0
  6
Continuous
 62
     7
370
    25
100
AcDbLine
 10
377.473469869
 20
26.1400662408
 30
0.0
 11
127.473469162
 21
26.1400662408
 31
0.0
  0
SPLINE
  5
E3
330
1F
100
AcDbEntity
  8
0
  6
Continuous
 62
     7
370
    25
100
AcDbSpline
210
0.0
220
0.0
230
1.0
 70
     8
 71
     3
 72
    10
 73
     6
 74
     0
 42
0.00000001
 43
0.00000001
 40
0.0
 40
0.0
 40
0.0
 40
0.0
 40
0.2561956854031518
 40
0.6285898775941029
 40
1.0
 40
1.0
 40
1.0
 40
1.0
 10
382.4916692213211
 20
464.7412666890194
 30
0.0
 10
382.1013979860573
 20
464.9672640486964
 30
0.0
 10
381.1438465440145
 20
465.5217607117937
 30
0.0
 10
379.4317016560184
 20
466.0184530073026
 30
0.0
 10
378.1256375719149
 20
466.0995639662765
 30
0.0
 10
377.4734695058963
 20
466.1400657899547
 30
0.0
  0
LINE
  5
E4
330
1F
100
AcDbEntity
  8
0
  6
Continuous
 62
     7
370
    25
100
AcDbLine
 10
377.4734695059
 20
466.1400662408
 30
0.0
 11
377.4734655285
 21
466.1400662408
 31
0.0
  0
SPLINE
  5
E5
330
1F
100
AcDbEntity
  8
0
  6
Continuous
 62
     7
370
    25
100
AcDbSpline
210
0.0
220
0.0
230
1.0
 70
     8
 71
     3
 72
     9
 73
     5
 74
     0
 42
0.00000001
 43
0.00000001
 40
0.0
 40
0.0
 40
0.0
 40
0.0
 40
0.0434055587597564
 40
1.0
 40
1.0
 40
1.0
 40
1.0
 10
123.6921510458502
 20
465.3922459749498
 30
0.0
 10
123.674176342019
 20
465.3868739625673
 30
0.0
 10
123.2600656994004
 20
465.2631107272585
 30
0.0
 10
122.8951554345162
 20
465.0209317937951
 30
0.0
 10
122.5460843035764
 20
464.7892647722584
 30
0.0
  0
SPLINE
  5
E6
330
1F
100
AcDbEntity
  8
0
  6
Continuous
 62
     7
370
    25
100
AcDbSpline
210
0.0
220
0.0
230
1.0
 70
     8
 71
     3
 72
    10
 73
     6
 74
     0
 42
0.00000001
 43
0.00000001
 40
0.0
 40
0.0
 40
0.0
 40
0.0
 40
0.0767017910244078
 40
0.5390372753698467
 40
1.0
 40
1.0
 40
1.0
 40
1.0
 10
118.3867505513951
 20
460.2501463094322
 30
0.0
 10
118.3342906836247
 20
460.1551232572531
 30
0.0
 10
117.9656184034663
 20
459.4873296313181
 30
0.0
 10
117.5913411996039
 20
458.0934401908522
 30
0.0
 10
117.5127211058271
 20
456.7905451762801
 30
0.0
 10
117.4734695051137
 20
456.1400662411043
 30
0.0
  0
LINE
  5
E7
330
1F
100
AcDbEntity
  8
0
  6
Continuous
 62
     7
370
    25
100
AcDbLine
 10
127.4734695051
 20
466.1400662408
 30
0.0
 11
127.4734735252
 21
466.1400662408
 31
0.0
  0
LINE
  5
E8
330
1F
100
AcDbEntity
  8
0
  6
Continuous
 62
     7
370
    25
100
AcDbLine
 10
367.4734695051
 20
434.1469801953
 30
0.0
 11
367.4734695051
 21
434.1402948378
 31
0.0
  0
LINE
  5
E9
330
1F
100
AcDbEntity
  8
0
  6
Continuous
 62
     7
370
    25
100
AcDbLine
 10
358.1310277607
 20
46.4655096513
 30
0.0
 11
356.702126305
 21
46.2955488351
 31
0.0
  0
LINE
  5
EA
330
1F
100
AcDbEntity
  8
0
  6
Continuous
 62
     7
370
    25
100
AcDbLine
 10
367.4734695051
 20
58.1394587757
 30
0.0
 11
367.4734695051
 21
58.1398376317
 31
0.0
  0
LINE
  5
EB
330
1F
100
AcDbEntity
  8
0
  6
Continuous
 62
     7
370
    25
100
AcDbLine
 10
149.4552107249
 20
46.1508944947
 30
0.0
 11
148.354053677
 21
46.3074699986
 31
0.0
  0
LINE
  5
EC
330
1F
100
AcDbEntity
  8
0
  6
Continuous
 62
     7
370
    25
100
AcDbLine
 10
137.4852642314
 20
434.144557349
 30
0.0
 11
137.6539351505
 21
435.2927605274
 31
0.0
  0
LINE
  5
ED
330
1F
100
AcDbEntity
  8
0
  6
Continuous
 62
     7
370
    25
100
AcDbLine
 10
148.2121529725
 20
445.9775841993
 30
0.0
 11
149.4683231128
 21
446.1282552905
 31
0.0
  0
SPLINE
  5
EE
330
1F
100
AcDbEntity
  8
0
  6
Continuous
 62
     7
370
    25
100
AcDbSpline
210
0.0
220
0.0
230
1.0
 70
     8
 71
     3
 72
    12
 73
     8
 74
     0
 42
0.00000001
 43
0.00000001
 40
0.0
 40
0.0
 40
0.0
 40
0.0
 40
0.1430513953184103
 40
0.2863945192611007
 40
0.5726814828373119
 40
0.858811811731924
 40
0.9999999999999999
 40
0.9999999999999999
 40
0.9999999999999999
 40
0.9999999999999999
 10
369.4734100664491
 20
434.1400661498304
 30
0.0
 10
369.3427563916282
 20
434.1400624066198
 30
0.0
 10
369.0811825963727
 20
434.1400549125649
 30
0.0
 10
368.5795707596155
 20
434.1400675144236
 30
0.0
 10
368.025293672464
 20
434.1400894126876
 30
0.0
 10
367.6452377640286
 20
434.1400312430366
 30
0.0
 10
367.5442585118262
 20
434.1400718479657
 30
0.0
 10
367.5108944587872
 20
434.1400852640386
 30
0.0
  0
SPLINE
  5
EF
330
1F
100
AcDbEntity
  8
0
  6
Continuous
 62
     7
370
    25
100
AcDbSpline
210
0.0
220
0.0
230
1.0
 70
     8
 71
     3
 72
    12
 73
     8
 74
     0
 42
0.00000001
 43
0.00000001
 40
0.0
 40
0.0
 40
0.0
 40
0.0
 40
0.1442026700955904
 40
0.287109911936686
 40
0.5724789201717307
 40
0.8580603695541115
 40
1.0
 40
1.0
 40
1.0
 40
1.0
 10
369.4733473806043
 20
58.14006273557626
 30
0.0
 10
369.3415305421245
 20
58.14006015155826
 30
0.0
 10
369.0790810267125
 20
58.14005500673564
 30
0.0
 10
368.577331204972
 20
58.14004324249611
 30
0.0
 10
368.0307908188652
 20
58.14002002452767
 30
0.0
 10
367.6428639761406
 20
58.13997407990157
 30
0.0
 10
367.5426535276243
 20
58.13992262158457
 30
0.0
 10
367.5093830417924
 20
58.13990553710651
 30
0.0
  0
ENDSEC
  0
SECTION
  2
OBJECTS
  0
DICTIONARY
  5
C
330
0
100
AcDbDictionary
281
     1
  3
ACAD_GROUP
350
D
  3
ACAD_LAYOUT
350
1A
  3
ACAD_MLINESTYLE
350
17
  3
ACAD_PLOTSETTINGS
350
19
  3
ACAD_PLOTSTYLENAME
350
E
  3
ACAD_SCALELIST
350
47
  3
DWGPROPS
350
F0
  0
DICTIONARY
  5
D
102
{ACAD_REACTORS
330
C
102
}
330
C
100
AcDbDictionary
281
     1
  0
DICTIONARY
  5
1A
102
{ACAD_REACTORS
330
C
102
}
330
C
100
AcDbDictionary
281
     1
  3
Layout1
350
1E
  3
Layout2
350
26
  3
Model
350
22
  0
DICTIONARY
  5
17
102
{ACAD_REACTORS
330
C
102
}
330
C
100
AcDbDictionary
281
     1
  3
Standard
350
18
  0
DICTIONARY
  5
19
102
{ACAD_REACTORS
330
C
102
}
330
C
100
AcDbDictionary
281
     1
  0
ACDBDICTIONARYWDFLT
  5
E
102
{ACAD_REACTORS
330
C
102
}
330
C
100
AcDbDictionary
281
     1
  3
Normal
350
F
100
AcDbDictionaryWithDefault
340
F
  0
DICTIONARY
  5
47
102
{ACAD_REACTORS
330
C
102
}
330
C
100
AcDbDictionary
281
     1
  3
A0
350
48
  3
A1
350
49
  3
A2
350
4A
  3
A3
350
4B
  3
A4
350
4C
  3
A5
350
4D
  3
A6
350
4E
  3
A7
350
4F
  3
A8
350
50
  3
A9
350
51
  3
B0
350
52
  3
B1
350
53
  3
B2
350
54
  3
B3
350
55
  3
B4
350
56
  3
B5
350
57
  3
B6
350
58
  0
XRECORD
  5
F0
102
{ACAD_REACTORS
330
C
102
}
330
C
100
AcDbXrecord
280
     1
  1
DWGPROPS COOKIE
  2

  3

  4

  6

  7

  8
villesi
  9

300
=
301
=
302
=
303
=
304
=
305
=
306
=
307
=
308
=
309
=
 40
0.0
 41
2460556.254501563
 42
2460556.254502245
  1

 90
        0
  0
LAYOUT
  5
1E
102
{ACAD_REACTORS
330
1A
102
}
330
1A
100
AcDbPlotSettings
  1

  2
none_device
  4

  6

 40
0.0
 41
0.0
 42
0.0
 43
0.0
 44
0.0
 45
0.0
 46
0.0
 47
0.0
 48
0.0
 49
0.0
140
0.0
141
0.0
142
1.0
143
1.0
 70
   688
 72
     1
 73
     0
 74
     5
  7

 75
    16
147
1.0
148
0.0
149
0.0
100
AcDbLayout
  1
Layout1
 70
     1
 71
     1
 10
0.0
 20
0.0
 11
420.0
 21
297.0
 12
0.0
 22
0.0
 32
0.0
 14
1.0000000000E+20
 24
1.0000000000E+20
 34
1.0000000000E+20
 15
-1.0000000000E+20
 25
-1.0000000000E+20
 35
-1.0000000000E+20
146
0.0
 13
0.0
 23
0.0
 33
0.0
 16
1.0
 26
0.0
 36
0.0
 17
0.0
 27
1.0
 37
0.0
 76
     0
330
1B
  0
LAYOUT
  5
26
102
{ACAD_REACTORS
330
1A
102
}
330
1A
100
AcDbPlotSettings
  1

  2
none_device
  4

  6

 40
0.0
 41
0.0
 42
0.0
 43
0.0
 44
0.0
 45
0.0
 46
0.0
 47
0.0
 48
0.0
 49
0.0
140
0.0
141
0.0
142
1.0
143
1.0
 70
   688
 72
     1
 73
     0
 74
     5
  7

 75
    16
147
1.0
148
0.0
149
0.0
100
AcDbLayout
  1
Layout2
 70
     1
 71
     2
 10
0.0
 20
0.0
 11
0.0
 21
0.0
 12
0.0
 22
0.0
 32
0.0
 14
0.0
 24
0.0
 34
0.0
 15
0.0
 25
0.0
 35
0.0
146
0.0
 13
0.0
 23
0.0
 33
0.0
 16
1.0
 26
0.0
 36
0.0
 17
0.0
 27
1.0
 37
0.0
 76
     0
330
23
  0
LAYOUT
  5
22
102
{ACAD_REACTORS
330
1A
102
}
330
1A
100
AcDbPlotSettings
  1

  2
none_device
  4
Letter_(8.50_x_11.00_Inches)
  6

 40
6.35
 41
6.35
 42
6.35000508
 43
6.35000508
 44
215.9
 45
279.4
 46
0.0
 47
0.0
 48
0.0
 49
0.0
140
0.0
141
0.0
142
1.0
143
1.0
 70
  1712
 72
     1
 73
     0
 74
     0
  7

 75
     0
147
1.0
148
0.0
149
0.0
100
AcDbLayout
  1
Model
 70
     1
 71
     0
 10
0.0
 20
0.0
 11
500.0
 21
500.0
 12
0.0
 22
0.0
 32
0.0
 14
0.0
 24
0.0
 34
0.0
 15
500.0
 25
500.0
 35
0.0
146
0.0
 13
0.0
 23
0.0
 33
0.0
 16
1.0
 26
0.0
 36
0.0
 17
0.0
 27
1.0
 37
0.0
 76
     0
330
1F
331
29
  0
MLINESTYLE
  5
18
102
{ACAD_REACTORS
330
17
102
}
330
17
100
AcDbMlineStyle
  2
Standard
 70
     0
  3

 62
   256
 51
90.0
 52
90.0
 71
     2
 49
0.5
 62
   256
  6
BYLAYER
 49
-0.5
 62
   256
  6
BYLAYER
  0
ACDBPLACEHOLDER
  5
F
102
{ACAD_REACTORS
330
E
102
}
330
E
  0
SCALE
  5
48
102
{ACAD_REACTORS
330
47
102
}
330
47
100
AcDbScale
 70
     0
300
1:1
140
1.0
141
1.0
290
     1
  0
SCALE
  5
49
102
{ACAD_REACTORS
330
47
102
}
330
47
100
AcDbScale
 70
     0
300
1:2
140
1.0
141
2.0
290
     0
  0
SCALE
  5
4A
102
{ACAD_REACTORS
330
47
102
}
330
47
100
AcDbScale
 70
     0
300
1:4
140
1.0
141
4.0
290
     0
  0
SCALE
  5
4B
102
{ACAD_REACTORS
330
47
102
}
330
47
100
AcDbScale
 70
     0
300
1:5
140
1.0
141
5.0
290
     0
  0
SCALE
  5
4C
102
{ACAD_REACTORS
330
47
102
}
330
47
100
AcDbScale
 70
     0
300
1:8
140
1.0
141
8.0
290
     0
  0
SCALE
  5
4D
102
{ACAD_REACTORS
330
47
102
}
330
47
100
AcDbScale
 70
     0
300
1:10
140
1.0
141
10.0
290
     0
  0
SCALE
  5
4E
102
{ACAD_REACTORS
330
47
102
}
330
47
100
AcDbScale
 70
     0
300
1:16
140
1.0
141
16.0
290
     0
  0
SCALE
  5
4F
102
{ACAD_REACTORS
330
47
102
}
330
47
100
AcDbScale
 70
     0
300
1:20
140
1.0
141
20.0
290
     0
  0
SCALE
  5
50
102
{ACAD_REACTORS
330
47
102
}
330
47
100
AcDbScale
 70
     0
300
1:30
140
1.0
141
30.0
290
     0
  0
SCALE
  5
51
102
{ACAD_REACTORS
330
47
102
}
330
47
100
AcDbScale
 70
     0
300
1:40
140
1.0
141
40.0
290
     0
  0
SCALE
  5
52
102
{ACAD_REACTORS
330
47
102
}
330
47
100
AcDbScale
 70
     0
300
1:50
140
1.0
141
50.0
290
     0
  0
SCALE
  5
53
102
{ACAD_REACTORS
330
47
102
}
330
47
100
AcDbScale
 70
     0
300
1:100
140
1.0
141
100.0
290
     0
  0
SCALE
  5
54
102
{ACAD_REACTORS
330
47
102
}
330
47
100
AcDbScale
 70
     0
300
2:1
140
2.0
141
1.0
290
     0
  0
SCALE
  5
55
102
{ACAD_REACTORS
330
47
102
}
330
47
100
AcDbScale
 70
     0
300
4:1
140
4.0
141
1.0
290
     0
  0
SCALE
  5
56
102
{ACAD_REACTORS
330
47
102
}
330
47
100
AcDbScale
 70
     0
300
8:1
140
8.0
141
1.0
290
     0
  0
SCALE
  5
57
102
{ACAD_REACTORS
330
47
102
}
330
47
100
AcDbScale
 70
     0
300
10:1
140
10.0
141
1.0
290
     0
  0
SCALE
  5
58
102
{ACAD_REACTORS
330
47
102
}
330
47
100
AcDbScale
 70
     0
300
100:1
140
100.0
141
1.0
290
     0
  0
ENDSEC
  0
EOF
