  0
SECTION
  2
HEADER
  9
$ACADVER
  1
AC1015
  9
$ACADMAINTVER
 70
     6
  9
$DWGCODEPAGE
  3
ANSI_1252
  9
$INSBASE
 10
0.0
 20
0.0
 30
0.0
  9
$EXTMIN
 10
0.0
 20
0.0
 30
0.0
  9
$EXTMAX
 10
700.0
 20
500.0
 30
0.0
  9
$LIMMIN
 10
0.0
 20
0.0
  9
$LIMMAX
 10
700.0
 20
500.0
  9
$ORTHOMODE
 70
     0
  9
$REGENMODE
 70
     1
  9
$FILLMODE
 70
     1
  9
$QTEXTMODE
 70
     0
  9
$MIRRTEXT
 70
     1
  9
$LTSCALE
 40
1.0
  9
$ATTMODE
 70
     1
  9
$TEXTSIZE
 40
3.5
  9
$TRACEWID
 40
1.0
  9
$TEXTSTYLE
  7
Standard
  9
$CLAYER
  8
0
  9
$CELTYPE
  6
ByLayer
  9
$CECOLOR
 62
   256
  9
$CELTSCALE
 40
1.0
  9
$DISPSILH
 70
     0
  9
$DIMSCALE
 40
1.0
  9
$DIMASZ
 40
3.302
  9
$DIMEXO
 40
1.0
  9
$DIMDLI
 40
3.75
  9
$DIMRND
 40
0.0
  9
$DIMDLE
 40
0.0
  9
$DIMEXE
 40
1.0
  9
$DIMTP
 40
0.0
  9
$DIMTM
 40
0.0
  9
$DIMTXT
 40
3.5
  9
$DIMCEN
 40
2.5
  9
$DIMTSZ
 40
0.0
  9
$DIMTOL
 70
     0
  9
$DIMLIM
 70
     0
  9
$DIMTIH
 70
     1
  9
$DIMTOH
 70
     1
  9
$DIMSE1
 70
     0
  9
$DIMSE2
 70
     0
  9
$DIMTAD
 70
     1
  9
$DIMZIN
 70
     1
  9
$DIMBLK
  1

  9
$DIMASO
 70
     1
  9
$DIMSHO
 70
     1
  9
$DIMPOST
  1

  9
$DIMAPOST
  1

  9
$DIMALT
 70
     0
  9
$DIMALTD
 70
     3
  9
$DIMALTF
 40
0.0393700787
  9
$DIMLFAC
 40
1.0
  9
$DIMTOFL
 70
     1
  9
$DIMTVP
 40
0.0
  9
$DIMTIX
 70
     0
  9
$DIMSOXD
 70
     0
  9
$DIMSAH
 70
     0
  9
$DIMBLK1
  1

  9
$DIMBLK2
  1

  9
$DIMSTYLE
  2
ISO-25
  9
$DIMCLRD
 70
     0
  9
$DIMCLRE
 70
     0
  9
$DIMCLRT
 70
     0
  9
$DIMTFAC
 40
1.0
  9
$DIMGAP
 40
1.524
  9
$DIMJUST
 70
     0
  9
$DIMSD1
 70
     0
  9
$DIMSD2
 70
     0
  9
$DIMTOLJ
 70
     0
  9
$DIMTZIN
 70
     1
  9
$DIMALTZ
 70
     0
  9
$DIMALTTZ
 70
     0
  9
$DIMUPT
 70
     0
  9
$DIMDEC
 70
     2
  9
$DIMTDEC
 70
     2
  9
$DIMALTU
 70
     2
  9
$DIMALTTD
 70
     3
  9
$DIMTXSTY
  7
Standard
  9
$DIMAUNIT
 70
     0
  9
$DIMADEC
 70
     2
  9
$DIMALTRND
 40
0.0
  9
$DIMAZIN
 70
     0
  9
$DIMDSEP
 70
    44
  9
$DIMATFIT
 70
     3
  9
$DIMFRAC
 70
     0
  9
$DIMLDRBLK
  1

  9
$DIMLUNIT
 70
     2
  9
$DIMLWD
 70
    -2
  9
$DIMLWE
 70
    -2
  9
$DIMTMOVE
 70
     0
  9
$LUNITS
 70
     2
  9
$LUPREC
 70
     4
  9
$SKETCHINC
 40
1.0
  9
$FILLETRAD
 40
0.0
  9
$AUNITS
 70
     0
  9
$AUPREC
 70
     2
  9
$MENU
  1
.
  9
$ELEVATION
 40
0.0
  9
$PELEVATION
 40
0.0
  9
$THICKNESS
 40
0.0
  9
$LIMCHECK
 70
     0
  9
$CHAMFERA
 40
0.0
  9
$CHAMFERB
 40
0.0
  9
$CHAMFERC
 40
0.0
  9
$CHAMFERD
 40
0.0
  9
$SKPOLY
 70
     0
  9
$TDCREATE
 40
2460462.276235602
  9
$TDUCREATE
 40
2460462.151235602
  9
$TDUPDATE
 40
2460462.276236134
  9
$TDUUPDATE
 40
2460462.151236134
  9
$TDINDWG
 40
0.0000000116
  9
$TDUSRTIMER
 40
0.0000000116
  9
$USRTIMER
 70
     1
  9
$ANGBASE
 50
0.0
  9
$ANGDIR
 70
     0
  9
$PDMODE
 70
     0
  9
$PDSIZE
 40
-1.0
  9
$PLINEWID
 40
0.0
  9
$SPLFRAME
 70
     0
  9
$SPLINETYPE
 70
     6
  9
$SPLINESEGS
 70
     8
  9
$HANDSEED
  5
C0
  9
$SURFTAB1
 70
     6
  9
$SURFTAB2
 70
     6
  9
$SURFTYPE
 70
     6
  9
$SURFU
 70
     6
  9
$SURFV
 70
     6
  9
$UCSBASE
  2

  9
$UCSNAME
  2

  9
$UCSORG
 10
0.0
 20
0.0
 30
0.0
  9
$UCSXDIR
 10
1.0
 20
0.0
 30
0.0
  9
$UCSYDIR
 10
0.0
 20
1.0
 30
0.0
  9
$UCSORTHOREF
  2

  9
$UCSORTHOVIEW
 70
     0
  9
$UCSORGTOP
 10
0.0
 20
0.0
 30
0.0
  9
$UCSORGBOTTOM
 10
0.0
 20
0.0
 30
0.0
  9
$UCSORGLEFT
 10
0.0
 20
0.0
 30
0.0
  9
$UCSORGRIGHT
 10
0.0
 20
0.0
 30
0.0
  9
$UCSORGFRONT
 10
0.0
 20
0.0
 30
0.0
  9
$UCSORGBACK
 10
0.0
 20
0.0
 30
0.0
  9
$PUCSBASE
  2

  9
$PUCSNAME
  2

  9
$PUCSORG
 10
0.0
 20
0.0
 30
0.0
  9
$PUCSXDIR
 10
1.0
 20
0.0
 30
0.0
  9
$PUCSYDIR
 10
0.0
 20
1.0
 30
0.0
  9
$PUCSORTHOREF
  2

  9
$PUCSORTHOVIEW
 70
     0
  9
$PUCSORGTOP
 10
0.0
 20
0.0
 30
0.0
  9
$PUCSORGBOTTOM
 10
0.0
 20
0.0
 30
0.0
  9
$PUCSORGLEFT
 10
0.0
 20
0.0
 30
0.0
  9
$PUCSORGRIGHT
 10
0.0
 20
0.0
 30
0.0
  9
$PUCSORGFRONT
 10
0.0
 20
0.0
 30
0.0
  9
$PUCSORGBACK
 10
0.0
 20
0.0
 30
0.0
  9
$USERI1
 70
     0
  9
$USERI2
 70
     0
  9
$USERI3
 70
     0
  9
$USERI4
 70
     0
  9
$USERI5
 70
     0
  9
$USERR1
 40
0.0
  9
$USERR2
 40
0.0
  9
$USERR3
 40
0.0
  9
$USERR4
 40
0.0
  9
$USERR5
 40
0.0
  9
$WORLDVIEW
 70
     1
  9
$SHADEDGE
 70
     3
  9
$SHADEDIF
 70
    70
  9
$TILEMODE
 70
     1
  9
$MAXACTVP
 70
    64
  9
$PINSBASE
 10
0.0
 20
0.0
 30
0.0
  9
$PLIMCHECK
 70
     0
  9
$PEXTMIN
 10
1.0000000000E+20
 20
1.0000000000E+20
 30
1.0000000000E+20
  9
$PEXTMAX
 10
-1.0000000000E+20
 20
-1.0000000000E+20
 30
-1.0000000000E+20
  9
$PLIMMIN
 10
0.0
 20
0.0
  9
$PLIMMAX
 10
420.0
 20
297.0
  9
$UNITMODE
 70
     0
  9
$VISRETAIN
 70
     1
  9
$PLINEGEN
 70
     0
  9
$PSLTSCALE
 70
     1
  9
$TREEDEPTH
 70
  3020
  9
$CMLSTYLE
  2
Standard
  9
$CMLJUST
 70
     0
  9
$CMLSCALE
 40
20.0
  9
$PROXYGRAPHICS
 70
     1
  9
$MEASUREMENT
 70
     1
  9
$CELWEIGHT
370
    -1
  9
$ENDCAPS
280
     0
  9
$JOINSTYLE
280
     0
  9
$LWDISPLAY
290
     1
  9
$INSUNITS
 70
     4
  9
$HYPERLINKBASE
  1

  9
$STYLESHEET
  1

  9
$XEDIT
290
     1
  9
$CEPSNTYPE
380
     0
  9
$PSTYLEMODE
290
     1
  9
$FINGERPRINTGUID
  2
{090fbe28-a70e-479e-b9f5-275e7d9e4fcd}
  9
$VERSIONGUID
  2
{FAEB1C32-E019-11D5-929B-00C0DF256EC4}
  9
$EXTNAMES
290
     1
  9
$PSVPSCALE
 40
0.0
  9
$OLESTARTUP
290
     0
  0
ENDSEC
  0
SECTION
  2
CLASSES
  0
CLASS
  1
ACDBDICTIONARYWDFLT
  2
AcDbDictionaryWithDefault
  3
ObjectDBX Classes
 90
        0
280
     0
281
     0
  0
CLASS
  1
VISUALSTYLE
  2
AcDbVisualStyle
  3
ObjectDBX Classes
 90
     4095
280
     0
281
     0
  0
CLASS
  1
MATERIAL
  2
AcDbMaterial
  3
ObjectDBX Classes
 90
     1153
280
     0
281
     0
  0
CLASS
  1
SCALE
  2
AcDbScale
  3
ObjectDBX Classes
 90
     1153
280
     0
281
     0
  0
CLASS
  1
TABLESTYLE
  2
AcDbTableStyle
  3
ObjectDBX Classes
 90
     4095
280
     0
281
     0
  0
CLASS
  1
MLEADERSTYLE
  2
AcDbMLeaderStyle
  3
ACDB_MLEADERSTYLE_CLASS
 90
     4095
280
     0
281
     0
  0
CLASS
  1
SUN
  2
AcDbSun
  3
SCENEOE
 90
     1153
280
     0
281
     0
  0
CLASS
  1
ACDBPLACEHOLDER
  2
AcDbPlaceHolder
  3
ObjectDBX Classes
 90
        0
280
     0
281
     0
  0
CLASS
  1
LAYOUT
  2
AcDbLayout
  3
ObjectDBX Classes
 90
        0
280
     0
281
     0
  0
ENDSEC
  0
SECTION
  2
TABLES
  0
TABLE
  2
VPORT
  5
8
330
0
100
AcDbSymbolTable
 70
     1
  0
VPORT
  5
29
330
8
100
AcDbSymbolTableRecord
100
AcDbViewportTableRecord
  2
*Active
 70
     0
 10
0.0
 20
0.0
 11
1.0
 21
1.0
 12
350.0
 22
250.0
 13
0.0
 23
0.0
 14
10.0
 24
10.0
 15
10.0
 25
10.0
 16
0.0
 26
0.0
 36
1.0
 17
0.0
 27
0.0
 37
0.0
 40
500.0
 41
1.4
 42
50.0
 43
0.0
 44
0.0
 50
0.0
 51
0.0
 71
     0
 72
  2000
 73
     1
 74
     3
 75
     0
 76
     0
 77
     0
 78
     0
281
     0
 65
     1
110
0.0
120
0.0
130
0.0
111
1.0
121
0.0
131
0.0
112
0.0
122
1.0
132
0.0
 79
     0
146
0.0
  0
ENDTAB
  0
TABLE
  2
LTYPE
  5
5
330
0
100
AcDbSymbolTable
 70
     6
  0
LTYPE
  5
14
330
5
100
AcDbSymbolTableRecord
100
AcDbLinetypeTableRecord
  2
ByBlock
 70
     0
  3

 72
    65
 73
     0
 40
0.0
  0
LTYPE
  5
15
330
5
100
AcDbSymbolTableRecord
100
AcDbLinetypeTableRecord
  2
ByLayer
 70
     0
  3

 72
    65
 73
     0
 40
0.0
  0
LTYPE
  5
16
330
5
100
AcDbSymbolTableRecord
100
AcDbLinetypeTableRecord
  2
Continuous
 70
     0
  3
Solid line
 72
    65
 73
     0
 40
0.0
  0
LTYPE
  5
5E
330
5
100
AcDbSymbolTableRecord
100
AcDbLinetypeTableRecord
  2
HIDDEN
 70
     0
  3
Hidden __ __ __ __ __ __ __ __ __ __ __ __ __ __
 72
    65
 73
     2
 40
1.905
 49
1.27
 74
     0
 49
-0.635
 74
     0
  0
LTYPE
  5
5F
330
5
100
AcDbSymbolTableRecord
100
AcDbLinetypeTableRecord
  2
PHANTOM
 70
     0
  3
Phantom ______  __  __  ______  __  __  ______
 72
    65
 73
     6
 40
12.7
 49
6.35
 74
     0
 49
-1.27
 74
     0
 49
1.27
 74
     0
 49
-1.27
 74
     0
 49
1.27
 74
     0
 49
-1.27
 74
     0
  0
LTYPE
  5
60
330
5
100
AcDbSymbolTableRecord
100
AcDbLinetypeTableRecord
  2
CENTER
 70
     0
  3
Center ____ _ ____ _ ____ _ ____ _ ____ _ ____
 72
    65
 73
     4
 40
10.16
 49
6.35
 74
     0
 49
-1.27
 74
     0
 49
1.27
 74
     0
 49
-1.27
 74
     0
  0
LTYPE
  5
61
330
5
100
AcDbSymbolTableRecord
100
AcDbLinetypeTableRecord
  2
CENTERX2
 70
     0
  3
Center (2x) ________  __  ________  __  _____
 72
    65
 73
     4
 40
20.32
 49
12.7
 74
     0
 49
-2.54
 74
     0
 49
2.54
 74
     0
 49
-2.54
 74
     0
  0
LTYPE
  5
62
330
5
100
AcDbSymbolTableRecord
100
AcDbLinetypeTableRecord
  2
DOT2
 70
     0
  3
Dot (.5x) ........................................
 72
    65
 73
     2
 40
0.635
 49
0.0
 74
     0
 49
-0.635
 74
     0
  0
ENDTAB
  0
TABLE
  2
LAYER
  5
2
330
0
100
AcDbSymbolTable
 70
     2
  0
LAYER
  5
10
330
2
100
AcDbSymbolTableRecord
100
AcDbLayerTableRecord
  2
0
 70
     0
 62
     7
  6
Continuous
370
    -3
390
F
  0
LAYER
  5
63
330
2
100
AcDbSymbolTableRecord
100
AcDbLayerTableRecord
  2
TABLE_BL1
 70
     0
 62
   179
  6
Continuous
370
    -3
390
F
  0
ENDTAB
  0
TABLE
  2
STYLE
  5
3
330
0
100
AcDbSymbolTable
 70
     1
  0
STYLE
  5
11
330
3
100
AcDbSymbolTableRecord
100
AcDbTextStyleTableRecord
  2
Standard
 70
     0
 40
0.0
 41
1.0
 50
0.0
 71
     0
 42
3.5
  3
txt
  4

  0
ENDTAB
  0
TABLE
  2
VIEW
  5
6
330
0
100
AcDbSymbolTable
 70
     0
  0
ENDTAB
  0
TABLE
  2
UCS
  5
7
330
0
100
AcDbSymbolTable
 70
     0
  0
ENDTAB
  0
TABLE
  2
APPID
  5
9
330
0
100
AcDbSymbolTable
 70
     1
  0
APPID
  5
12
330
9
100
AcDbSymbolTableRecord
100
AcDbRegAppTableRecord
  2
ACAD
 70
     0
  0
ENDTAB
  0
TABLE
  2
DIMSTYLE
  5
A
330
0
100
AcDbSymbolTable
 70
     1
100
AcDbDimStyleTable
  0
DIMSTYLE
105
27
330
A
100
AcDbSymbolTableRecord
100
AcDbDimStyleTableRecord
  2
ISO-25
 70
     0
 41
2.5
 42
0.625
 43
3.75
 44
1.25
 73
     0
 74
     0
 77
     1
 78
     8
140
2.5
141
2.5
143
0.0393700787
147
0.625
171
     3
172
     1
178
     0
271
     2
272
     2
274
     3
278
    44
283
     0
284
     8
340
11
  0
ENDTAB
  0
TABLE
  2
BLOCK_RECORD
  5
1
330
0
100
AcDbSymbolTable
 70
     1
  0
BLOCK_RECORD
  5
1F
330
1
100
AcDbSymbolTableRecord
100
AcDbBlockTableRecord
  2
*Model_Space
340
22
  0
BLOCK_RECORD
  5
1B
330
1
100
AcDbSymbolTableRecord
100
AcDbBlockTableRecord
  2
*Paper_Space
340
1E
  0
BLOCK_RECORD
  5
23
330
1
100
AcDbSymbolTableRecord
100
AcDbBlockTableRecord
  2
*Paper_Space0
340
26
  0
ENDTAB
  0
ENDSEC
  0
SECTION
  2
BLOCKS
  0
BLOCK
  5
20
330
1F
100
AcDbEntity
  8
0
100
AcDbBlockBegin
  2
*Model_Space
 70
     0
 10
0.0
 20
0.0
 30
0.0
  3
*Model_Space
  1

  0
ENDBLK
  5
21
330
1F
100
AcDbEntity
  8
0
100
AcDbBlockEnd
  0
BLOCK
  5
1C
330
1B
100
AcDbEntity
 67
     1
  8
0
100
AcDbBlockBegin
  2
*Paper_Space
 70
     0
 10
0.0
 20
0.0
 30
0.0
  3
*Paper_Space
  1

  0
ENDBLK
  5
1D
330
1B
100
AcDbEntity
 67
     1
  8
0
100
AcDbBlockEnd
  0
BLOCK
  5
24
330
23
100
AcDbEntity
  8
0
100
AcDbBlockBegin
  2
*Paper_Space0
 70
     0
 10
0.0
 20
0.0
 30
0.0
  3
*Paper_Space0
  1

  0
ENDBLK
  5
25
330
23
100
AcDbEntity
  8
0
100
AcDbBlockEnd
  0
ENDSEC
  0
SECTION
  2
ENTITIES
  0
SPLINE
  5
64
330
1F
100
AcDbEntity
  8
0
  6
Continuous
 62
     7
370
    25
100
AcDbSpline
210
0.0
220
0.0
230
1.0
 70
     8
 71
     3
 72
    29
 73
    25
 74
     0
 42
0.00000001
 43
0.00000001
 40
0.0
 40
0.0
 40
0.0
 40
0.0
 40
0.0349321406882635
 40
0.0633980643159913
 40
0.0838985515737896
 40
0.1410481598295769
 40
0.1993926718331195
 40
0.2579538570990189
 40
0.316735887686743
 40
0.3756685440136574
 40
0.4347110736298804
 40
0.4938368192040539
 40
0.5530116495173845
 40
0.6120983013386025
 40
0.6710428299972759
 40
0.7298261731686603
 40
0.7884258360426927
 40
0.8467958145206173
 40
0.8655669647427027
 40
0.8834823951604177
 40
0.9012873219477365
 40
0.9267778521638326
 40
0.9604934909203239
 40
1.0
 40
1.0
 40
1.0
 40
1.0
 10
374.6547127030741
 20
358.9549816794901
 30
0.0
 10
373.5660734527842
 20
359.7741588370399
 30
0.0
 10
371.5903107355002
 20
361.2608769452717
 30
0.0
 10
368.7408430323777
 20
362.8781449192446
 30
0.0
 10
365.0103170589667
 20
364.6626448588546
 30
0.0
 10
359.9542436636702
 20
366.3537191761687
 30
0.0
 10
353.204298408979
 20
367.3167788736974
 30
0.0
 10
346.3259812960373
 20
367.0275504699793
 30
0.0
 10
339.5950008857204
 20
365.4771532718809
 30
0.0
 10
333.24633680464
 20
362.707702120261
 30
0.0
 10
327.5056241798708
 20
358.8079650776265
 30
0.0
 10
322.5766636640652
 20
353.9087244536489
 30
0.0
 10
318.6370052935563
 20
348.181478548932
 30
0.0
 10
315.8262078493711
 20
341.8315608062788
 30
0.0
 10
314.2379778984387
 20
335.0874591679108
 30
0.0
 10
313.9183384925927
 20
328.1852046801749
 30
0.0
 10
314.8659607072534
 20
321.3653046128751
 30
0.0
 10
316.5503598641888
 20
316.3167549811071
 30
0.0
 10
318.138879454423
 20
312.969560083727
 30
0.0
 10
319.1586390039033
 20
311.1060219809666
 30
0.0
 10
320.4189102122908
 20
309.079623028742
 30
0.0
 10
322.1784027788295
 20
306.6466329092795
 30
0.0
 10
324.6959764837346
 20
303.7233707467155
 30
0.0
 10
326.8592687257604
 20
301.8577408956465
 30
0.0
 10
328.0264582596266
 20
300.8511530690304
 30
0.0
  0
SPLINE
  5
65
330
1F
100
AcDbEntity
  8
0
  6
Continuous
 62
     7
370
    25
100
AcDbSpline
210
0.0
220
0.0
230
1.0
 70
     8
 71
     3
 72
    29
 73
    25
 74
     0
 42
0.00000001
 43
0.00000001
 40
0.0
 40
0.0
 40
0.0
 40
0.0
 40
0.0349321406882635
 40
0.0633980643159913
 40
0.0838985515737894
 40
0.1410481598295768
 40
0.1993926718331194
 40
0.2579538570990187
 40
0.316735887686743
 40
0.3756685440136574
 40
0.4347110736298803
 40
0.4938368192040538
 40
0.5530116495173845
 40
0.6120983013386023
 40
0.6710428299972756
 40
0.7298261731686599
 40
0.7884258360426927
 40
0.8467958145206171
 40
0.8655669647427027
 40
0.8834823951604176
 40
0.9012873219477365
 40
0.9267778521638325
 40
0.9604934909203238
 40
1.0
 40
1.0
 40
1.0
 40
1.0
 10
328.0264582596266
 20
300.8511530690304
 30
0.0
 10
329.1150975099165
 20
300.0319759114806
 30
0.0
 10
331.0908602272006
 20
298.5452578032489
 30
0.0
 10
333.940327930323
 20
296.9279898292759
 30
0.0
 10
337.670853903734
 20
295.143489889666
 30
0.0
 10
342.7269272990305
 20
293.4524155723519
 30
0.0
 10
349.4768725537217
 20
292.4893558748232
 30
0.0
 10
356.3551896666634
 20
292.7785842785412
 30
0.0
 10
363.0861700769804
 20
294.3289814766397
 30
0.0
 10
369.4348341580608
 20
297.0984326282595
 30
0.0
 10
375.1755467828299
 20
300.998169670894
 30
0.0
 10
380.1045072986356
 20
305.8974102948717
 30
0.0
 10
384.0441656691444
 20
311.6246561995885
 30
0.0
 10
386.8549631133296
 20
317.9745739422417
 30
0.0
 10
388.4431930642621
 20
324.7186755806097
 30
0.0
 10
388.762832470108
 20
331.6209300683456
 30
0.0
 10
387.8152102554474
 20
338.4408301356454
 30
0.0
 10
386.1308110985119
 20
343.4893797674133
 30
0.0
 10
384.5422915082778
 20
346.8365746647935
 30
0.0
 10
383.5225319587973
 20
348.7001127675539
 30
0.0
 10
382.2622607504099
 20
350.7265117197786
 30
0.0
 10
380.5027681838712
 20
353.1595018392409
 30
0.0
 10
377.9851944789661
 20
356.082764001805
 30
0.0
 10
375.8219022369403
 20
357.9483938528739
 30
0.0
 10
374.6547127030741
 20
358.9549816794901
 30
0.0
  0
SPLINE
  5
66
330
1F
100
AcDbEntity
  8
0
  6
Continuous
 62
     7
370
    25
100
AcDbSpline
210
0.0
220
0.0
230
1.0
 70
     8
 71
     3
 72
    15
 73
    11
 74
     0
 42
0.00000001
 43
0.00000001
 40
0.0
 40
0.0
 40
0.0
 40
0.0
 40
0.1250257019725894
 40
0.2500519101245432
 40
0.3750452048257961
 40
0.4999993511671155
 40
0.6249432525229044
 40
0.7499337288313507
 40
0.8749868232544568
 40
0.9999999999999999
 40
0.9999999999999999
 40
0.9999999999999999
 40
0.9999999999999999
 10
88.34036996616939
 20
49.90101479726164
 30
0.0
 10
87.55469578877361
 20
49.94572845849218
 30
0.0
 10
85.98334425309979
 20
50.03515596198119
 30
0.0
 10
83.71715533338924
 20
50.74907543885674
 30
0.0
 10
81.6290095159659
 20
51.85841588025517
 30
0.0
 10
79.7991036649816
 20
53.36149827049111
 30
0.0
 10
78.29588312906056
 20
55.19127628286566
 30
0.0
 10
77.1865092437743
 20
57.27952013974938
 30
0.0
 10
76.47272598674488
 20
59.54582662264949
 30
0.0
 10
76.3832618101175
 20
61.11726029597334
 30
0.0
 10
76.33853686231524
 20
61.90285170991746
 30
0.0
  0
SPLINE
  5
67
330
1F
100
AcDbEntity
  8
0
  6
Continuous
 62
     7
370
    25
100
AcDbSpline
210
0.0
220
0.0
230
1.0
 70
     8
 71
     3
 72
    11
 73
     7
 74
     0
 42
0.00000001
 43
0.00000001
 40
0.0
 40
0.0
 40
0.0
 40
0.0
 40
0.2500000000001861
 40
0.5000000000001384
 40
0.7500000000000882
 40
0.9999999999999999
 40
0.9999999999999999
 40
0.9999999999999999
 40
0.9999999999999999
 10
88.3405989046876
 20
47.90311639964087
 30
0.0
 10
88.34057987338572
 20
48.16518182767651
 30
0.0
 10
88.34054181078183
 20
48.6893126837474
 30
0.0
 10
88.34048471687773
 20
49.35037853306465
 30
0.0
 10
88.34042762297578
 20
49.81286545932082
 30
0.0
 10
88.3403895603772
 20
49.87300006357934
 30
0.0
 10
88.34037052907789
 20
49.90306736570857
 30
0.0
  0
SPLINE
  5
68
330
1F
100
AcDbEntity
  8
0
  6
Continuous
 62
     7
370
    25
100
AcDbSpline
210
0.0
220
0.0
230
1.0
 70
     8
 71
     3
 72
    19
 73
    15
 74
     0
 42
0.00000001
 43
0.00000001
 40
0.0
 40
0.0
 40
0.0
 40
0.0
 40
0.0625584459849009
 40
0.1218132912687871
 40
0.1879351904605825
 40
0.2540363597808747
 40
0.3769287921248228
 40
0.5000357754163975
 40
0.6248757074481415
 40
0.7535167243804125
 40
0.8215548140644203
 40
0.8857405769066695
 40
0.9347619545968228
 40
1.0
 40
1.0
 40
1.0
 40
1.0
 10
74.34063379416772
 20
61.90306754272049
 30
0.0
 10
74.3557668280817
 20
61.44492712161517
 30
0.0
 10
74.38523374719914
 20
60.55283986338053
 30
0.0
 10
74.57800763828764
 20
59.18711614524788
 30
0.0
 10
74.9219757802489
 20
57.82496542108675
 30
0.0
 10
75.55799515033657
 20
56.06560283049053
 30
0.0
 10
76.64708274594977
 20
54.03806632521588
 30
0.0
 10
78.3891597994551
 20
51.93295047268262
 30
0.0
 10
80.53083628057156
 20
50.16789842228228
 30
0.0
 10
82.6280701689821
 20
49.05983203635775
 30
0.0
 10
84.43482834436222
 20
48.42896648705433
 30
0.0
 10
85.73056767811738
 20
48.13173634005083
 30
0.0
 10
87.02531449711631
 20
47.94054978299464
 30
0.0
 10
87.86256105480616
 20
47.91672148751749
 30
0.0
 10
88.3405989046876
 20
47.90311638274683
 30
0.0
  0
SPLINE
  5
69
330
1F
100
AcDbEntity
  8
0
  6
Continuous
 62
     7
370
    25
100
AcDbSpline
210
0.0
220
0.0
230
1.0
 70
     8
 71
     3
 72
    11
 73
     7
 74
     0
 42
0.00000001
 43
0.00000001
 40
0.0
 40
0.0
 40
0.0
 40
0.0
 40
0.2499999999999852
 40
0.4999999999999957
 40
0.7499999999999867
 40
0.9999999999999999
 40
0.9999999999999999
 40
0.9999999999999999
 40
0.9999999999999999
 10
74.34063381081873
 20
61.90306754272049
 30
0.0
 10
74.60269931297853
 20
61.9030496107196
 30
0.0
 10
75.12683031729817
 20
61.90301374671811
 30
0.0
 10
75.78789643202222
 20
61.9029599507144
 30
0.0
 10
76.25038355463897
 20
61.90290615470897
 30
0.0
 10
76.31051817492151
 20
61.90287029070321
 30
0.0
 10
76.34058548506273
 20
61.90285235870022
 30
0.0
  0
SPLINE
  5
6A
330
1F
100
AcDbEntity
  8
0
  6
Continuous
 62
     7
370
    25
100
AcDbSpline
210
0.0
220
0.0
230
1.0
 70
     8
 71
     3
 72
    15
 73
    11
 74
     0
 42
0.00000001
 43
0.00000001
 40
0.0
 40
0.0
 40
0.0
 40
0.0
 40
0.1250257694009366
 40
0.2500519274429857
 40
0.3750451350989221
 40
0.4999992168119901
 40
0.6249431077759537
 40
0.7499336224871516
 40
0.8749867778401247
 40
1.0
 40
1.0
 40
1.0
 40
1.0
 10
614.3408010003616
 20
449.9051199427922
 30
0.0
 10
615.1264756095234
 20
449.8604064635813
 30
0.0
 10
616.6978272701073
 20
449.770979366168
 30
0.0
 10
618.9640160772602
 20
449.0570609542352
 30
0.0
 10
621.0521607512686
 20
447.9477208929529
 30
0.0
 10
622.8820652409231
 20
446.444638432128
 30
0.0
 10
624.3852850382967
 20
444.6148601527433
 30
0.0
 10
625.4946592925432
 20
442.5266159587884
 30
0.0
 10
626.2084441960665
 20
440.2603090314759
 30
0.0
 10
626.2979088973175
 20
438.6888746964803
 30
0.0
 10
626.3426341046172
 20
437.9032830004501
 30
0.0
  0
SPLINE
  5
6B
330
1F
100
AcDbEntity
  8
0
  6
Continuous
 62
     7
370
    25
100
AcDbSpline
210
0.0
220
0.0
230
1.0
 70
     8
 71
     3
 72
    11
 73
     7
 74
     0
 42
0.00000001
 43
0.00000001
 40
0.0
 40
0.0
 40
0.0
 40
0.0
 40
0.2499999999999984
 40
0.4999999999999958
 40
0.7499999999999986
 40
1.0
 40
1.0
 40
1.0
 40
1.0
 10
614.3405720509679
 20
451.9030183388639
 30
0.0
 10
614.3405910831814
 20
451.6409529103345
 30
0.0
 10
614.3406291476081
 20
451.1168220532754
 30
0.0
 10
614.3406862442462
 20
450.455756203153
 30
0.0
 10
614.3407433408823
 20
449.9932692771673
 30
0.0
 10
614.3407814053035
 20
449.9331346742085
 30
0.0
 10
614.3408004375141
 20
449.903067372729
 30
0.0
  0
SPLINE
  5
6C
330
1F
100
AcDbEntity
  8
0
  6
Continuous
 62
     7
370
    25
100
AcDbSpline
210
0.0
220
0.0
230
1.0
 70
     8
 71
     3
 72
    19
 73
    15
 74
     0
 42
0.00000001
 43
0.00000001
 40
0.0
 40
0.0
 40
0.0
 40
0.0
 40
0.0625584462394441
 40
0.1218133527842567
 40
0.1879352104682466
 40
0.2540363789822382
 40
0.3769288267119613
 40
0.5000357763128145
 40
0.6248757268403566
 40
0.7535167203023921
 40
0.821554816684503
 40
0.8857405859845997
 40
0.9347619547773174
 40
1.0
 40
1.0
 40
1.0
 40
1.0
 10
628.3405372760262
 20
437.9030671957078
 30
0.0
 10
628.3254041251746
 20
438.3612076151899
 30
0.0
 10
628.2959369635961
 20
439.2532953171366
 30
0.0
 10
628.1031625544807
 20
440.6190191235991
 30
0.0
 10
627.7591937200959
 20
441.9811698129467
 30
0.0
 10
627.1231738840664
 20
443.740532011768
 30
0.0
 10
626.0340865542861
 20
445.7680684240871
 30
0.0
 10
624.2920104250952
 20
447.8731849888495
 30
0.0
 10
622.1503349169647
 20
449.6382378447853
 30
0.0
 10
620.0531010361664
 20
450.7463044288945
 30
0.0
 10
618.2463427583398
 20
451.3771694985352
 30
0.0
 10
616.9506032620458
 20
451.6743991104026
 30
0.0
 10
615.6558563901174
 20
451.8655851234184
 30
0.0
 10
614.818609899316
 20
451.8894133113494
 30
0.0
 10
614.3405720509679
 20
451.9030183557583
 30
0.0
  0
SPLINE
  5
6D
330
1F
100
AcDbEntity
  8
0
  6
Continuous
 62
     7
370
    25
100
AcDbSpline
210
0.0
220
0.0
230
1.0
 70
     8
 71
     3
 72
    11
 73
     7
 74
     0
 42
0.00000001
 43
0.00000001
 40
0.0
 40
0.0
 40
0.0
 40
0.0
 40
0.2500000000000361
 40
0.5000000000000212
 40
0.7500000000000129
 40
1.0
 40
1.0
 40
1.0
 40
1.0
 10
628.3405372594109
 20
437.9030671957078
 30
0.0
 10
628.0784717474586
 20
437.9030851253705
 30
0.0
 10
627.554340723554
 20
437.9031209846959
 30
0.0
 10
626.8932745717444
 20
437.9031747736868
 30
0.0
 10
626.430787419872
 20
437.9032285626801
 30
0.0
 10
626.3706527945214
 20
437.9032644220123
 30
0.0
 10
626.3405854818462
 20
437.9032823516785
 30
0.0
  0
SPLINE
  5
6E
330
1F
100
AcDbEntity
  8
0
  6
Continuous
 62
     7
370
    25
100
AcDbSpline
210
0.0
220
0.0
230
1.0
 70
     8
 71
     3
 72
    15
 73
    11
 74
     0
 42
0.00000001
 43
0.00000001
 40
0.0
 40
0.0
 40
0.0
 40
0.0
 40
0.125025847558412
 40
0.2500519810225896
 40
0.3750451383214506
 40
0.4999991614449827
 40
0.6249429863347182
 40
0.7499334491441662
 40
0.8749866197895472
 40
1.0
 40
1.0
 40
1.0
 40
1.0
 10
76.33853291127923
 20
437.9032828582995
 30
0.0
 10
76.38324647516126
 20
438.6889579805717
 30
0.0
 10
76.47267370517524
 20
440.260310021777
 30
0.0
 10
77.1865930609093
 20
442.5264986177339
 30
0.0
 10
78.29593295977666
 20
444.614642387248
 30
0.0
 10
79.79901404333317
 20
446.4445465522245
 30
0.0
 10
81.6287905792003
 20
447.9477667691916
 30
0.0
 10
83.71703384181895
 20
449.0571416425416
 30
0.0
 10
85.98334169253152
 20
449.7709264823469
 30
0.0
 10
87.55477716694688
 20
449.8603908991021
 30
0.0
 10
88.34036988123411
 20
449.9051159897185
 30
0.0
  0
SPLINE
  5
6F
330
1F
100
AcDbEntity
  8
0
  6
Continuous
 62
     7
370
    25
100
AcDbSpline
210
0.0
220
0.0
230
1.0
 70
     8
 71
     3
 72
    11
 73
     7
 74
     0
 42
0.00000001
 43
0.00000001
 40
0.0
 40
0.0
 40
0.0
 40
0.0
 40
0.2499999999999471
 40
0.4999999999999518
 40
0.7499999999999695
 40
1.0
 40
1.0
 40
1.0
 40
1.0
 10
74.34063413999176
 20
437.9030539372611
 30
0.0
 10
74.60269960557031
 20
437.9030729671113
 30
0.0
 10
75.12683053672743
 20
437.9031110268117
 30
0.0
 10
75.78789652379598
 20
437.9031681163617
 30
0.0
 10
76.250383554956
 20
437.9032252059097
 30
0.0
 10
76.31051817218221
 20
437.9032632656059
 30
0.0
 10
76.34058548079526
 20
437.9032822954541
 30
0.0
  0
SPLINE
  5
70
330
1F
100
AcDbEntity
  8
0
  6
Continuous
 62
     7
370
    25
100
AcDbSpline
210
0.0
220
0.0
230
1.0
 70
     8
 71
     3
 72
    19
 73
    15
 74
     0
 42
0.00000001
 43
0.00000001
 40
0.0
 40
0.0
 40
0.0
 40
0.0
 40
0.0625584462384408
 40
0.1218133714975232
 40
0.1879352815254725
 40
0.2540364875674298
 40
0.3769288495406061
 40
0.5000357752439795
 40
0.6248757191471368
 40
0.7535167078480826
 40
0.8215547835113659
 40
0.8857405290709454
 40
0.9347619065390365
 40
1.0
 40
1.0
 40
1.0
 40
1.0
 10
88.34058565781189
 20
451.9030190293593
 30
0.0
 10
87.88244522917854
 20
451.8878859857305
 30
0.0
 10
86.99035737235367
 20
451.8584190284084
 30
0.0
 10
85.62463296192169
 20
451.6656450502587
 30
0.0
 10
84.26248137479575
 20
451.3216763910569
 30
0.0
 10
82.50311908315211
 20
450.6856565941981
 30
0.0
 10
80.4755833729643
 20
449.5965689348358
 30
0.0
 10
78.37046815164983
 20
447.8544924595926
 30
0.0
 10
76.60541601412862
 20
445.7128167159095
 30
0.0
 10
75.49734937446966
 20
443.615583141773
 30
0.0
 10
74.86648404038165
 20
441.8088253187181
 30
0.0
 10
74.56925405358633
 20
440.5130861533557
 30
0.0
 10
74.37806786815382
 20
439.2183390447554
 30
0.0
 10
74.35423935602414
 20
438.3810921382926
 30
0.0
 10
74.34063412322622
 20
437.9030539372611
 30
0.0
  0
SPLINE
  5
71
330
1F
100
AcDbEntity
  8
0
  6
Continuous
 62
     7
370
    25
100
AcDbSpline
210
0.0
220
0.0
230
1.0
 70
     8
 71
     3
 72
    11
 73
     7
 74
     0
 42
0.00000001
 43
0.00000001
 40
0.0
 40
0.0
 40
0.0
 40
0.0
 40
0.2499999999999958
 40
0.499999999999993
 40
0.7499999999999967
 40
1.0
 40
1.0
 40
1.0
 40
1.0
 10
88.34058565781189
 20
451.9030190126982
 30
0.0
 10
88.34056773049103
 20
451.6409535130744
 30
0.0
 10
88.34053187584922
 20
451.1168225138268
 30
0.0
 10
88.34047809388478
 20
450.4557564090274
 30
0.0
 10
88.34042431191847
 20
449.9932692945125
 30
0.0
 10
88.34038845727116
 20
449.9331346760104
 30
0.0
 10
88.34037052994759
 20
449.9030673667593
 30
0.0
  0
SPLINE
  5
72
330
1F
100
AcDbEntity
  8
0
  6
Continuous
 62
     7
370
    25
100
AcDbSpline
210
0.0
220
0.0
230
1.0
 70
     8
 71
     3
 72
    15
 73
    11
 74
     0
 42
0.00000001
 43
0.00000001
 40
0.0
 40
0.0
 40
0.0
 40
0.0
 40
0.1250219322813891
 40
0.2500626074450376
 40
0.3750511332034142
 40
0.5000024298472364
 40
0.6249507232334808
 40
0.7499353307238634
 40
0.8749637573252906
 40
1.0
 40
1.0
 40
1.0
 40
1.0
 10
626.3426381070112
 20
61.90285203578436
 30
0.0
 10
626.2979121329049
 20
61.11720492556308
 30
0.0
 10
626.2084534795193
 20
59.5457929234561
 30
0.0
 10
625.4946255317116
 20
57.27954203826555
 30
0.0
 10
624.3852730294839
 20
55.19133954910485
 30
0.0
 10
622.8820263104008
 20
53.36158852185127
 30
0.0
 10
621.0522119287435
 20
51.85848644968885
 30
0.0
 10
618.9641975145264
 20
50.74905396565691
 30
0.0
 10
616.6979660265353
 20
50.03517612948568
 30
0.0
 10
615.1265387535744
 20
49.94573146549383
 30
0.0
 10
614.3408005586654
 20
49.9010077356474
 30
0.0
  0
SPLINE
  5
73
330
1F
100
AcDbEntity
  8
0
  6
Continuous
 62
     7
370
    25
100
AcDbSpline
210
0.0
220
0.0
230
1.0
 70
     8
 71
     3
 72
    11
 73
     7
 74
     0
 42
0.00000001
 43
0.00000001
 40
0.0
 40
0.0
 40
0.0
 40
0.0
 40
0.2500000000000001
 40
0.5000000000000068
 40
0.7500000000000011
 40
1.0
 40
1.0
 40
1.0
 40
1.0
 10
628.3405372837718
 20
61.90306389768571
 30
0.0
 10
628.0784717752674
 20
61.90304627805235
 30
0.0
 10
627.5543407582587
 20
61.90301103878568
 30
0.0
 10
626.893274607807
 20
61.90295817988775
 30
0.0
 10
626.4307874470647
 20
61.90290532099288
 30
0.0
 10
626.370652806431
 20
61.90287008173264
 30
0.0
 10
626.3405854861143
 20
61.90285246210256
 30
0.0
  0
SPLINE
  5
74
330
1F
100
AcDbEntity
  8
0
  6
Continuous
 62
     7
370
    25
100
AcDbSpline
210
0.0
220
0.0
230
1.0
 70
     8
 71
     3
 72
    15
 73
    11
 74
     0
 42
0.00000001
 43
0.00000001
 40
0.0
 40
0.0
 40
0.0
 40
0.0
 40
0.1250848462693596
 40
0.2500816927219916
 40
0.375051516138568
 40
0.500001349432818
 40
0.6249971967815655
 40
0.7499177094931141
 40
0.8749122013675361
 40
1.0
 40
1.0
 40
1.0
 40
1.0
 10
614.3405853162595
 20
47.90311567881331
 30
0.0
 10
615.2578298742591
 20
47.95380338626467
 30
0.0
 10
617.0916736894451
 20
48.05514314130047
 30
0.0
 10
619.7331512242241
 20
48.89456047203036
 30
0.0
 10
622.1723372176988
 20
50.18222580688689
 30
0.0
 10
624.3014792803327
 20
51.94266646493248
 30
0.0
 10
626.0614633509391
 20
54.07169594577557
 30
0.0
 10
627.3492557116948
 20
56.51076207894975
 30
0.0
 10
628.1882980823664
 20
59.15198169415706
 30
0.0
 10
628.2897782734791
 20
60.98580842701165
 30
0.0
 10
628.3405373003792
 20
61.90306389768571
 30
0.0
  0
SPLINE
  5
75
330
1F
100
AcDbEntity
  8
0
  6
Continuous
 62
     7
370
    25
100
AcDbSpline
210
0.0
220
0.0
230
1.0
 70
     8
 71
     3
 72
    11
 73
     7
 74
     0
 42
0.00000001
 43
0.00000001
 40
0.0
 40
0.0
 40
0.0
 40
0.0
 40
0.2499999999998907
 40
0.4999999999998446
 40
0.7499999999997958
 40
0.9999999999999999
 40
0.9999999999999999
 40
0.9999999999999999
 40
0.9999999999999999
 10
614.3408003328559
 20
49.90306737167485
 30
0.0
 10
614.3407824148044
 20
49.87300004542464
 30
0.0
 10
614.3407465787014
 20
49.8128653929241
 30
0.0
 10
614.3406928245523
 20
49.35037826260361
 30
0.0
 10
614.3406390704049
 20
48.68931216642683
 30
0.0
 10
614.340603234308
 20
48.16518118578286
 30
0.0
 10
614.3405853162595
 20
47.90311569546083
 30
0.0
  0
LINE
  5
76
330
1F
100
AcDbEntity
  8
0
  6
Continuous
 62
     7
370
    25
100
AcDbLine
 10
614.3408004375
 20
449.9030673722
 30
0.0
 11
88.3403705299
 21
449.9030673662
 31
0.0
  0
LINE
  5
77
330
1F
100
AcDbEntity
  8
0
  6
Continuous
 62
     7
370
    25
100
AcDbLine
 10
614.340572051
 20
451.9030376285
 30
0.0
 11
88.3405856578
 21
451.9030376225
 31
0.0
  0
LINE
  5
78
330
1F
100
AcDbEntity
  8
0
  6
Continuous
 62
     7
370
    25
100
AcDbLine
 10
626.3405854814
 20
437.9032823517
 30
0.0
 11
626.3405854856
 21
61.9028524621
 31
0.0
  0
LINE
  5
79
330
1F
100
AcDbEntity
  8
0
  6
Continuous
 62
     7
370
    25
100
AcDbLine
 10
628.3405565705
 20
61.9030638977
 30
0.0
 11
628.3405565663
 21
437.9030671957
 31
0.0
  0
LINE
  5
7A
330
1F
100
AcDbEntity
  8
0
  6
Continuous
 62
     7
370
    25
100
AcDbLine
 10
76.3405854813
 20
437.9032822955
 30
0.0
 11
76.3405854856
 21
61.9028523587
 31
0.0
  0
LINE
  5
7B
330
1F
100
AcDbEntity
  8
0
  6
Continuous
 62
     7
370
    25
100
AcDbLine
 10
74.3406148854
 20
437.9030539373
 30
0.0
 11
74.3406148897
 21
61.9030675427
 31
0.0
  0
LINE
  5
7C
330
1F
100
AcDbEntity
  8
0
  6
Continuous
 62
     7
370
    25
100
AcDbLine
 10
614.3408003329
 20
49.9030673722
 30
0.0
 11
88.3403705291
 21
49.9030673662
 31
0.0
  0
LINE
  5
7D
330
1F
100
AcDbEntity
  8
0
  6
Continuous
 62
     7
370
    25
100
AcDbLine
 10
88.3405989047
 20
47.90309711
 30
0.0
 11
614.3405853163
 21
47.903097116
 31
0.0
  0
LINE
  5
7E
330
1F
100
AcDbEntity
  8
0
  6
Continuous
 62
     7
370
    25
100
AcDbLine
 10
56.8405854811
 20
459.9030673659
 30
0.0
 11
56.8405854858
 21
39.9030673659
 31
0.0
  0
ARC
  5
7F
330
1F
100
AcDbEntity
  8
0
  6
Continuous
 62
     7
370
    25
100
AcDbCircle
 10
66.3405854811
 20
459.903067366
 30
0.0
 40
9.499999999999503
100
AcDbArc
 50
90.0000000007
 51
180.0000000006
  0
LINE
  5
80
330
1F
100
AcDbEntity
  8
0
  6
Continuous
 62
     7
370
    25
100
AcDbLine
 10
636.340585481
 20
469.4030673724
 30
0.0
 11
66.340585481
 21
469.403067366
 31
0.0
  0
ARC
  5
81
330
1F
100
AcDbEntity
  8
0
  6
Continuous
 62
     7
370
    25
100
AcDbCircle
 10
636.3405854811
 20
459.9030673725
 30
0.0
 40
9.49999999999801
100
AcDbArc
 50
0.0000000006
 51
90.0000000007
  0
LINE
  5
82
330
1F
100
AcDbEntity
  8
0
  6
Continuous
 62
     7
370
    25
100
AcDbLine
 10
645.8405854858
 20
39.9030673726
 30
0.0
 11
645.8405854811
 21
459.9030673726
 31
0.0
  0
ARC
  5
83
330
1F
100
AcDbEntity
  8
0
  6
Continuous
 62
     7
370
    25
100
AcDbCircle
 10
636.3405854858
 20
39.9030673724
 30
0.0
 40
9.50000000000001
100
AcDbArc
 50
270.0000000007
 51
0.0000000007
  0
LINE
  5
84
330
1F
100
AcDbEntity
  8
0
  6
Continuous
 62
     7
370
    25
100
AcDbLine
 10
66.3405854859
 20
30.403067366
 30
0.0
 11
636.3405854859
 21
30.4030673724
 31
0.0
  0
ARC
  5
85
330
1F
100
AcDbEntity
  8
0
  6
Continuous
 62
     7
370
    25
100
AcDbCircle
 10
66.3405854858
 20
39.903067366
 30
0.0
 40
9.50000000000001
100
AcDbArc
 50
180.0000000007
 51
270.0000000007
  0
LINE
  5
86
330
1F
100
AcDbEntity
  8
0
  6
Continuous
 62
     7
370
    25
100
AcDbLine
 10
66.340585481
 20
469.403067366
 30
0.0
 11
66.340585481
 21
469.903067366
 31
0.0
  0
LINE
  5
87
330
1F
100
AcDbEntity
  8
0
  6
Continuous
 62
     7
370
    25
100
AcDbLine
 10
66.340585481
 20
469.903067366
 30
0.0
 11
636.340585481
 21
469.9030673724
 31
0.0
  0
LINE
  5
88
330
1F
100
AcDbEntity
  8
0
  6
Continuous
 62
     7
370
    25
100
AcDbLine
 10
636.340585481
 20
469.9030673724
 30
0.0
 11
636.340585481
 21
469.4030673724
 31
0.0
  0
LINE
  5
89
330
1F
100
AcDbEntity
  8
0
  6
Continuous
 62
     7
370
    25
100
AcDbLine
 10
56.8405854811
 20
459.9030673659
 30
0.0
 11
56.3405854811
 21
459.9030673659
 31
0.0
  0
ARC
  5
8A
330
1F
100
AcDbEntity
  8
0
  6
Continuous
 62
     7
370
    25
100
AcDbCircle
 10
66.3405854811
 20
459.903067366
 30
0.0
 40
9.999999999999602
100
AcDbArc
 50
90.0000000007
 51
180.0000000006
  0
ARC
  5
8B
330
1F
100
AcDbEntity
  8
0
  6
Continuous
 62
     7
370
    25
100
AcDbCircle
 10
636.3405854811
 20
459.9030673725
 30
0.0
 40
9.999999999998124
100
AcDbArc
 50
0.0000000006
 51
90.0000000007
  0
LINE
  5
8C
330
1F
100
AcDbEntity
  8
0
  6
Continuous
 62
     7
370
    25
100
AcDbLine
 10
646.3405854811
 20
459.9030673726
 30
0.0
 11
645.8405854811
 21
459.9030673726
 31
0.0
  0
LINE
  5
8D
330
1F
100
AcDbEntity
  8
0
  6
Continuous
 62
     7
370
    25
100
AcDbLine
 10
56.8405854858
 20
39.9030673659
 30
0.0
 11
56.3405854858
 21
39.9030673659
 31
0.0
  0
LINE
  5
8E
330
1F
100
AcDbEntity
  8
0
  6
Continuous
 62
     7
370
    25
100
AcDbLine
 10
56.3405854858
 20
39.9030673659
 30
0.0
 11
56.3405854811
 21
459.9030673659
 31
0.0
  0
LINE
  5
8F
330
1F
100
AcDbEntity
  8
0
  6
Continuous
 62
     7
370
    25
100
AcDbLine
 10
646.3405854811
 20
459.9030673726
 30
0.0
 11
646.3405854858
 21
39.9030673726
 31
0.0
  0
LINE
  5
90
330
1F
100
AcDbEntity
  8
0
  6
Continuous
 62
     7
370
    25
100
AcDbLine
 10
646.3405854858
 20
39.9030673726
 30
0.0
 11
645.8405854858
 21
39.9030673726
 31
0.0
  0
LINE
  5
91
330
1F
100
AcDbEntity
  8
0
  6
Continuous
 62
     7
370
    25
100
AcDbLine
 10
66.3405854859
 20
30.403067366
 30
0.0
 11
66.340585486
 21
29.903067366
 31
0.0
  0
ARC
  5
92
330
1F
100
AcDbEntity
  8
0
  6
Continuous
 62
     7
370
    25
100
AcDbCircle
 10
66.3405854858
 20
39.903067366
 30
0.0
 40
10.00000000000001
100
AcDbArc
 50
180.0000000007
 51
270.0000000007
  0
ARC
  5
93
330
1F
100
AcDbEntity
  8
0
  6
Continuous
 62
     7
370
    25
100
AcDbCircle
 10
636.3405854858
 20
39.9030673724
 30
0.0
 40
10.00000000000001
100
AcDbArc
 50
270.0000000007
 51
0.0000000007
  0
LINE
  5
94
330
1F
100
AcDbEntity
  8
0
  6
Continuous
 62
     7
370
    25
100
AcDbLine
 10
636.340585486
 20
29.9030673724
 30
0.0
 11
636.3405854859
 21
30.4030673724
 31
0.0
  0
LINE
  5
95
330
1F
100
AcDbEntity
  8
0
  6
Continuous
 62
     7
370
    25
100
AcDbLine
 10
636.340585486
 20
29.9030673724
 30
0.0
 11
66.340585486
 21
29.903067366
 31
0.0
  0
SPLINE
  5
96
330
1F
100
AcDbEntity
  8
0
  6
Continuous
 62
     7
370
    25
100
AcDbSpline
210
0.0
220
0.0
230
1.0
 70
     8
 71
     3
 72
    14
 73
    10
 74
     0
 42
0.00000001
 43
0.00000001
 40
0.0
 40
0.0
 40
0.0
 40
0.0
 40
0.25
 40
0.25
 40
0.5
 40
0.5
 40
0.75
 40
0.75
 40
1.0
 40
1.0
 40
1.0
 40
1.0
 10
76.34058551064976
 20
437.9030674001347
 30
0.0
 10
76.34058551035766
 20
437.9030673992776
 30
0.0
 10
76.65291338932967
 20
437.9030673984205
 30
0.0
 10
77.85514884578404
 20
437.9030673967064
 30
0.0
 10
78.74458339495216
 20
437.9030673958493
 30
0.0
 10
80.96602485842568
 20
437.9030673941351
 30
0.0
 10
82.29715773037466
 20
437.903067393278
 30
0.0
 10
85.19961087534894
 20
437.9030673915638
 30
0.0
 10
86.7697891570014
 20
437.9030673907067
 30
0.0
 10
88.34058547989999
 20
437.9030673898495
 30
0.0
  0
LINE
  5
97
330
1F
100
AcDbEntity
  8
0
  6
Continuous
 62
     7
370
    25
100
AcDbLine
 10
88.3405854813
 20
437.9030673898
 30
0.0
 11
88.3405854813
 21
61.9030674306
 31
0.0
  0
SPLINE
  5
98
330
1F
100
AcDbEntity
  8
0
  6
Continuous
 62
     7
370
    25
100
AcDbSpline
210
0.0
220
0.0
230
1.0
 70
     8
 71
     3
 72
    14
 73
    10
 74
     0
 42
0.00000001
 43
0.00000001
 40
0.0
 40
0.0
 40
0.0
 40
0.0
 40
0.2499999999999999
 40
0.2499999999999999
 40
0.4999999999999999
 40
0.4999999999999999
 40
0.7499999999999999
 40
0.7499999999999999
 40
1.0
 40
1.0
 40
1.0
 40
1.0
 10
88.34058548476614
 20
61.90306743060889
 30
0.0
 10
86.76978915789296
 20
61.90306743685878
 30
0.0
 10
85.19961087238687
 20
61.90306744310883
 30
0.0
 10
82.29715772008194
 20
61.90306745560889
 30
0.0
 10
80.96602484465437
 20
61.90306746185878
 30
0.0
 10
78.74458337474333
 20
61.90306747435873
 30
0.0
 10
77.85514882261569
 20
61.90306748060878
 30
0.0
 10
76.65291336095325
 20
61.90306749310884
 30
0.0
 10
76.34058547973343
 20
61.90306749935878
 30
0.0
 10
76.3405854782585
 20
61.90306750560878
 30
0.0
  0
SPLINE
  5
99
330
1F
100
AcDbEntity
  8
0
  6
Continuous
 62
     7
370
    25
100
AcDbSpline
210
0.0
220
0.0
230
1.0
 70
     8
 71
     3
 72
    14
 73
    10
 74
     0
 42
0.00000001
 43
0.00000001
 40
0.0
 40
0.0
 40
0.0
 40
0.0
 40
0.25
 40
0.25
 40
0.5
 40
0.5
 40
0.75
 40
0.75
 40
1.0
 40
1.0
 40
1.0
 40
1.0
 10
88.34058548824258
 20
49.90306737697567
 30
0.0
 10
88.34052221569522
 20
49.90306737697567
 30
0.0
 10
88.34047518327509
 20
50.21539525867993
 30
0.0
 10
88.34041832792778
 20
51.41763072487235
 30
0.0
 10
88.34040847902902
 20
52.30706528103777
 30
0.0
 10
88.34042070315695
 20
54.52850676114948
 30
0.0
 10
88.34044268205061
 20
55.85963964272519
 30
0.0
 10
88.34050500333652
 20
58.76209280728042
 30
0.0
 10
88.34054520450124
 20
60.33227109886965
 30
0.0
 10
88.34058548476614
 20
61.90306743060889
 30
0.0
  0
LWPOLYLINE
  5
9A
330
1F
100
AcDbEntity
  8
0
  6
Continuous
 62
     7
370
    25
100
AcDbPolyline
 90
        3
 70
   128
 43
0.0
 10
88.3405854799
 20
449.9030673735
 10
86.2568073527
 20
449.7207604102
 10
84.642882279
 20
449.3191521231
  0
LWPOLYLINE
  5
9B
330
1F
100
AcDbEntity
  8
0
  6
Continuous
 62
     7
370
    25
100
AcDbPolyline
 90
        3
 70
   128
 43
0.0
 10
76.5810870299
 20
440.2935057474
 10
76.5228924732
 20
439.9868455274
 10
76.3405855106
 20
437.9030674001
  0
LWPOLYLINE
  5
9C
330
1F
100
AcDbEntity
  8
0
  6
Continuous
 62
     7
370
    25
100
AcDbPolyline
 90
        3
 70
   128
 43
0.0
 10
614.3405854788
 20
49.9030673727
 10
616.4243636138
 20
50.0853743373
 10
618.0384193824
 20
50.4870249576
  0
LWPOLYLINE
  5
9D
330
1F
100
AcDbEntity
  8
0
  6
Continuous
 62
     7
370
    25
100
AcDbPolyline
 90
        3
 70
   128
 43
0.0
 10
626.1001085793
 20
59.5127500651
 10
626.1582785342
 20
59.8192892544
 10
626.3405854995
 20
61.9030673893
  0
LWPOLYLINE
  5
9E
330
1F
100
AcDbEntity
  8
0
  6
Continuous
 62
     7
370
    25
100
AcDbPolyline
 90
        3
 70
   128
 43
0.0
 10
626.3405854813
 20
437.9030673743
 10
626.1582785175
 20
439.9868455054
 10
625.7566728506
 20
441.6007624901
  0
LWPOLYLINE
  5
9F
330
1F
100
AcDbEntity
  8
0
  6
Continuous
 62
     7
370
    25
100
AcDbPolyline
 90
        3
 70
   128
 43
0.0
 10
616.731024058
 20
449.662565803
 10
616.4243636168
 20
449.7207604048
 10
614.3405854856
 20
449.9030673683
  0
SPLINE
  5
A0
330
1F
100
AcDbEntity
  8
0
  6
Continuous
 62
     7
370
    25
100
AcDbSpline
210
0.0
220
0.0
230
1.0
 70
    24
 71
     3
 72
    14
 73
    10
 74
     0
 42
0.00000001
 43
0.00000001
 40
0.0
 40
0.0
 40
0.0
 40
0.0
 40
0.2500000000000001
 40
0.2500000000000001
 40
0.5000000000000001
 40
0.5000000000000001
 40
0.75
 40
0.75
 40
1.0
 40
1.0
 40
1.0
 40
1.0
 10
614.3405854856476
 20
437.903067374145
 30
0.0
 10
615.9113818117952
 20
437.9030673741547
 30
0.0
 10
617.4815600967063
 20
437.9030673741644
 30
0.0
 10
620.384013247771
 20
437.9030673741838
 30
0.0
 10
621.7151461225499
 20
437.9030673741936
 30
0.0
 10
623.9365875908632
 20
437.903067374213
 30
0.0
 10
624.8260221420396
 20
437.9030673742228
 30
0.0
 10
626.0282576014107
 20
437.9030673742423
 30
0.0
 10
626.3405854812896
 20
437.9030673742519
 30
0.0
 10
626.3405854812896
 20
437.9030673742616
 30
0.0
  0
SPLINE
  5
A1
330
1F
100
AcDbEntity
  8
0
  6
Continuous
 62
     7
370
    25
100
AcDbSpline
210
0.0
220
0.0
230
1.0
 70
     8
 71
     3
 72
    14
 73
    10
 74
     0
 42
0.00000001
 43
0.00000001
 40
0.0
 40
0.0
 40
0.0
 40
0.0
 40
0.25
 40
0.25
 40
0.5
 40
0.5
 40
0.75
 40
0.75
 40
1.0
 40
1.0
 40
1.0
 40
1.0
 10
614.3405854872657
 20
449.9030673682857
 30
0.0
 10
614.3400724398025
 20
449.9030673682857
 30
0.0
 10
614.3396910768159
 20
449.5907394884571
 30
0.0
 10
614.3392300667164
 20
448.3885040292726
 30
0.0
 10
614.3391502090096
 20
447.4990694782321
 30
0.0
 10
614.3392493343283
 20
445.2776280102345
 30
0.0
 10
614.3394275540643
 20
443.9464951356354
 30
0.0
 10
614.3399328942876
 20
441.0440419849146
 30
0.0
 10
614.3402588696175
 20
439.4738637001673
 30
0.0
 10
614.3405854856476
 20
437.903067374145
 30
0.0
  0
SPLINE
  5
A2
330
1F
100
AcDbEntity
  8
0
  6
Continuous
 62
     7
370
    25
100
AcDbSpline
210
0.0
220
0.0
230
1.0
 70
     8
 71
     3
 72
    16
 73
    12
 74
     0
 42
0.00000001
 43
0.00000001
 40
0.0
 40
0.0
 40
0.0
 40
0.0
 40
0.085581101171307
 40
0.1711622042814231
 40
0.2567433099582611
 40
0.3423244188297238
 40
0.4279055315237227
 40
0.5134866486681715
 40
0.6654015027637884
 40
0.8275727317521406
 40
0.9999999999999999
 40
0.9999999999999999
 40
0.9999999999999999
 40
0.9999999999999999
 10
625.7625061568386
 20
61.90306739687198
 30
0.0
 10
625.7944374308906
 20
61.90308911013933
 30
0.0
 10
625.8582999797178
 20
61.90313253667448
 30
0.0
 10
625.9437246339766
 20
61.90323259055216
 30
0.0
 10
626.0214781678043
 20
61.9033574700317
 30
0.0
 10
626.090771066791
 20
61.90351261493202
 30
0.0
 10
626.1517320667422
 20
61.90368635445129
 30
0.0
 10
626.2179319961732
 20
61.90398028045321
 30
0.0
 10
626.2811266228904
 20
61.90414200484081
 30
0.0
 10
626.3308247482502
 20
61.90385591335487
 30
0.0
 10
626.3372660907413
 20
61.90333554738201
 30
0.0
 10
626.3405854812909
 20
61.90306738932408
 30
0.0
  0
SPLINE
  5
A3
330
1F
100
AcDbEntity
  8
0
  6
Continuous
 62
     7
370
    25
100
AcDbSpline
210
0.0
220
0.0
230
1.0
 70
     8
 71
     3
 72
    16
 73
    12
 74
     0
 42
0.00000001
 43
0.00000001
 40
0.0
 40
0.0
 40
0.0
 40
0.0
 40
0.0312500000000342
 40
0.0312500000000342
 40
0.0468750000000506
 40
0.0468750000000506
 40
0.0625000000000671
 40
0.125000000000068
 40
0.2500000000000674
 40
0.5000000000000638
 40
1.0
 40
1.0
 40
1.0
 40
1.0
 10
625.3981247336285
 20
61.90306739687176
 30
0.0
 10
625.4051213343816
 20
61.90306463148929
 30
0.0
 10
625.412120957713
 20
61.90306184060287
 30
0.0
 10
625.4226228648945
 20
61.90305761601686
 30
0.0
 10
625.4265652438776
 20
61.90305601681836
 30
0.0
 10
625.4306136365207
 20
61.9030543895008
 30
0.0
 10
625.4407184358421
 20
61.90305039336189
 30
0.0
 10
625.4667804292549
 20
61.90304094141521
 30
0.0
 10
625.5218235507165
 20
61.90302543219381
 30
0.0
 10
625.6275297077782
 20
61.90301380901672
 30
0.0
 10
625.7105642474627
 20
61.90303709532233
 30
0.0
 10
625.7625061568386
 20
61.90306739687176
 30
0.0
  0
LINE
  5
A4
330
1F
100
AcDbEntity
  8
0
  6
Continuous
 62
     7
370
    25
100
AcDbLine
 10
623.9333600486
 20
61.9030673969
 30
0.0
 11
625.3981247524
 21
61.9030673969
 31
0.0
  0
SPLINE
  5
A5
330
1F
100
AcDbEntity
  8
0
  6
Continuous
 62
     7
370
    25
100
AcDbSpline
210
0.0
220
0.0
230
1.0
 70
    24
 71
     3
 72
     8
 73
     4
 74
     0
 42
0.00000001
 43
0.00000001
 40
0.0
 40
0.0
 40
0.0
 40
0.0
 40
1.0
 40
1.0
 40
1.0
 40
1.0
 10
622.8054952628905
 20
61.90306739687198
 30
0.0
 10
623.2117573173035
 20
61.90306739687198
 30
0.0
 10
623.5889992385452
 20
61.90306739687198
 30
0.0
 10
623.9333600324798
 20
61.90306739687198
 30
0.0
  0
LINE
  5
A6
330
1F
100
AcDbEntity
  8
0
  6
Continuous
 62
     7
370
    25
100
AcDbLine
 10
614.3405854818
 20
61.9030673969
 30
0.0
 11
622.8054952772
 21
61.9030673969
 31
0.0
  0
LINE
  5
A7
330
1F
100
AcDbEntity
  8
0
  6
Continuous
 62
     7
370
    25
100
AcDbLine
 10
614.3405854813
 20
61.9030673713
 30
0.0
 11
614.340585484
 21
437.9030673741
 31
0.0
  0
LINE
  5
A8
330
1F
100
AcDbEntity
  8
0
  6
Continuous
 62
     7
370
    25
100
AcDbLine
 10
88.3405854811
 20
449.9030673743
 30
0.0
 11
88.3405854811
 21
437.9030673898
 31
0.0
  0
LINE
  5
A9
330
1F
100
AcDbEntity
  8
0
  6
Continuous
 62
     7
370
    25
100
AcDbLine
 10
88.3405854848
 20
61.9030674306
 30
0.0
 11
614.3405854818
 21
61.9030673713
 31
0.0
  0
LINE
  5
AA
330
1F
100
AcDbEntity
  8
0
  6
Continuous
 62
     7
370
    25
100
AcDbLine
 10
614.3405854823
 20
49.9030673743
 30
0.0
 11
614.3405854823
 21
61.9030673713
 31
0.0
  0
LINE
  5
AB
330
1F
100
AcDbEntity
  8
0
  6
Continuous
 62
     7
370
    25
100
AcDbLine
 10
614.3405854856
 20
437.903067374
 30
0.0
 11
88.3405854799
 21
437.9030673888
 31
0.0
  0
LINE
  5
AC
330
1F
100
AcDbEntity
  8
0
  6
Continuous
 62
     7
370
    25
100
AcDbLine
 10
625.7625061729
 20
61.9030673969
 30
0.0
 11
626.3405854995
 21
61.9030673969
 31
0.0
  0
SPLINE
  5
AD
330
1F
100
AcDbEntity
  8
0
  6
Continuous
 62
     7
370
    25
100
AcDbSpline
210
0.0
220
0.0
230
1.0
 70
     8
 71
     3
 72
    38
 73
    34
 74
     0
 42
0.00000001
 43
0.00000001
 40
0.0
 40
0.0
 40
0.0
 40
0.0
 40
0.0625
 40
0.0625
 40
0.1250000000000001
 40
0.1250000000000001
 40
0.1875000000000001
 40
0.1875000000000001
 40
0.2500000000000002
 40
0.2500000000000002
 40
0.3125000000000002
 40
0.3125000000000002
 40
0.3750000000000002
 40
0.3750000000000002
 40
0.4375000000000003
 40
0.4375000000000003
 40
0.5000000000000003
 40
0.5000000000000003
 40
0.5625000000000003
 40
0.5625000000000003
 40
0.6250000000000004
 40
0.6250000000000004
 40
0.6875000000000004
 40
0.6875000000000004
 40
0.7500000000000004
 40
0.7500000000000004
 40
0.8125000000000006
 40
0.8125000000000006
 40
0.8750000000000003
 40
0.8750000000000003
 40
0.9375000000000002
 40
0.9375000000000002
 40
1.0
 40
1.0
 40
1.0
 40
1.0
 10
302.5105056529918
 20
303.8938588337472
 30
0.0
 10
304.2108938998489
 20
300.7016451794541
 30
0.0
 10
306.2278722865038
 20
297.6762997243046
 30
0.0
 10
310.8112450120708
 20
292.0733409471202
 30
0.0
 10
313.379455883185
 20
289.4976513759802
 30
0.0
 10
318.969096815533
 20
284.8948338568923
 30
0.0
 10
321.989486758348
 20
282.8667282827187
 30
0.0
 10
328.3705898656808
 20
279.441675201318
 30
0.0
 10
331.7303660406392
 20
278.0433357520138
 30
0.0
 10
338.6591538397954
 20
275.9299025015923
 30
0.0
 10
342.2276729093608
 20
275.2148807204856
 30
0.0
 10
349.435743490898
 20
274.4989702376046
 30
0.0
 10
353.0750674118459
 20
274.4949694378238
 30
0.0
 10
360.2846131713229
 20
275.1919621125306
 30
0.0
 10
363.8543003053101
 20
275.8955544679106
 30
0.0
 10
370.7877802239957
 20
277.9907864842932
 30
0.0
 10
374.1523372077992
 20
279.3787118277682
 30
0.0
 10
380.548131946103
 20
282.7801335531714
 30
0.0
 10
383.5781741412802
 20
284.7958607974687
 30
0.0
 10
389.1834629781002
 20
289.3838870172536
 30
0.0
 10
391.7576328807556
 20
291.9559543067061
 30
0.0
 10
396.3571369117172
 20
297.551850852216
 30
0.0
 10
398.3839630708901
 20
300.5744601296193
 30
0.0
 10
401.8109119730616
 20
306.9556313562567
 30
0.0
 10
403.208283551623
 20
310.3158060768382
 30
0.0
 10
405.3197560166496
 20
317.2445029788045
 30
0.0
 10
406.0336580417639
 20
320.8125468304334
 30
0.0
 10
406.7513136526646
 20
328.0182482400202
 30
0.0
 10
406.7533947560095
 20
331.6559024523355
 30
0.0
 10
406.0524063098968
 20
338.861814094986
 30
0.0
 10
405.347945705863
 20
342.429757714763
 30
0.0
 10
403.2558422711446
 20
349.3587809976675
 30
0.0
 10
401.8708034335688
 20
352.7202901574076
 30
0.0
 10
400.1706653097173
 20
355.9122759147689
 30
0.0
  0
SPLINE
  5
AE
330
1F
100
AcDbEntity
  8
0
  6
Continuous
 62
     7
370
    25
100
AcDbSpline
210
0.0
220
0.0
230
1.0
 70
     8
 71
     3
 72
    38
 73
    34
 74
     0
 42
0.00000001
 43
0.00000001
 40
0.0
 40
0.0
 40
0.0
 40
0.0
 40
0.0625
 40
0.0625
 40
0.1250000000000001
 40
0.1250000000000001
 40
0.1875000000000001
 40
0.1875000000000001
 40
0.2500000000000001
 40
0.2500000000000001
 40
0.3125000000000001
 40
0.3125000000000001
 40
0.3750000000000002
 40
0.3750000000000002
 40
0.4375000000000002
 40
0.4375000000000002
 40
0.5000000000000002
 40
0.5000000000000002
 40
0.5625000000000002
 40
0.5625000000000002
 40
0.6250000000000002
 40
0.6250000000000002
 40
0.6875000000000003
 40
0.6875000000000003
 40
0.7500000000000003
 40
0.7500000000000003
 40
0.8125000000000003
 40
0.8125000000000003
 40
0.8750000000000004
 40
0.8750000000000004
 40
0.9375000000000002
 40
0.9375000000000002
 40
1.0
 40
1.0
 40
1.0
 40
1.0
 10
400.1706653097922
 20
355.9122759148087
 30
0.0
 10
398.470388405471
 20
359.1042805408903
 30
0.0
 10
396.4535476740829
 20
362.129469212435
 30
0.0
 10
391.8704435731988
 20
367.7322230431834
 30
0.0
 10
389.3024257077286
 20
370.3079990608655
 30
0.0
 10
383.7126787493531
 20
374.9101794622263
 30
0.0
 10
380.6918781072275
 20
376.9373270730662
 30
0.0
 10
374.3087482936831
 20
380.3581997707686
 30
0.0
 10
370.9478586267068
 20
381.7543512767137
 30
0.0
 10
364.0199489569845
 20
383.8699562853077
 30
0.0
 10
360.4527099387867
 20
384.5877962615958
 30
0.0
 10
353.245678686065
 20
385.3064438900323
 30
0.0
 10
349.6064139379601
 20
385.3111376298285
 30
0.0
 10
342.3961071099711
 20
384.6161930661672
 30
0.0
 10
338.8252729032685
 20
383.9146824662067
 30
0.0
 10
331.8904257409636
 20
381.8223660512986
 30
0.0
 10
328.5271707533929
 20
380.43225194228
 30
0.0
 10
322.1363410371417
 20
377.0220419248909
 30
0.0
 10
319.1075798137092
 20
375.0041778541329
 30
0.0
 10
313.5009202850414
 20
370.4192720728452
 30
0.0
 10
310.9256007355576
 20
367.8495416361914
 30
0.0
 10
306.3256802661929
 20
362.2556983541318
 30
0.0
 10
304.2992783826542
 20
359.2334632740137
 30
0.0
 10
300.8749682047592
 20
352.8524283158292
 30
0.0
 10
299.4805269269744
 20
349.4919733698343
 30
0.0
 10
297.3709304113597
 20
342.5631610131907
 30
0.0
 10
296.6543370378545
 20
338.9954901329298
 30
0.0
 10
295.931596571401
 20
331.7902801724315
 30
0.0
 10
295.9282629963882
 20
328.1525747947225
 30
0.0
 10
296.6283283751243
 20
320.9461883328672
 30
0.0
 10
297.3328506463061
 20
317.3778527473763
 30
0.0
 10
299.4249493973011
 20
310.4480514963585
 30
0.0
 10
300.8100789084937
 20
307.0861447612019
 30
0.0
 10
302.5105056529169
 20
303.8938588337072
 30
0.0
  0
SPLINE
  5
AF
330
1F
100
AcDbEntity
  8
0
  6
Continuous
 62
     7
370
    25
100
AcDbSpline
210
0.0
220
0.0
230
1.0
 70
     8
 71
     3
 72
    26
 73
    22
 74
     0
 42
0.00000001
 43
0.00000001
 40
0.0
 40
0.0
 40
0.0
 40
0.0
 40
0.125
 40
0.125
 40
0.2500000000000001
 40
0.2500000000000001
 40
0.3125000000000001
 40
0.3125000000000001
 40
0.3750000000000001
 40
0.3750000000000001
 40
0.5000000000000001
 40
0.5000000000000001
 40
0.5625000000000001
 40
0.5625000000000001
 40
0.6250000000000001
 40
0.6250000000000001
 40
0.7500000000000002
 40
0.7500000000000002
 40
0.8750000000000001
 40
0.8750000000000001
 40
1.0
 40
1.0
 40
1.0
 40
1.0
 10
313.9017466210141
 20
351.5183577292955
 30
0.0
 10
315.820365753274
 20
354.8381181800504
 30
0.0
 10
318.180496061891
 20
357.9032819530141
 30
0.0
 10
323.6255405637015
 20
363.3026888200295
 30
0.0
 10
326.7121651159327
 20
365.6351486204584
 30
0.0
 10
331.7172834646918
 20
368.4712153932905
 30
0.0
 10
333.4481869507914
 20
369.3061125928056
 30
0.0
 10
337.0063297746653
 20
370.7367367772076
 30
0.0
 10
338.8333741224514
 20
371.3328305463011
 30
0.0
 10
344.4090137002829
 20
372.7479751079911
 30
0.0
 10
348.2525300455623
 20
373.1901511380244
 30
0.0
 10
354.0040313038742
 20
373.0915501619762
 30
0.0
 10
355.9188863907684
 20
372.9318548673047
 30
0.0
 10
359.7100201666635
 20
372.3576150435358
 30
0.0
 10
361.5862573292513
 20
371.9427646056124
 30
0.0
 10
367.1086562796976
 20
370.3324149620089
 30
0.0
 10
370.6483600095225
 20
368.7709256215171
 30
0.0
 10
377.1873299985924
 20
364.7673071958037
 30
0.0
 10
380.1882213364949
 20
362.3279462313657
 30
0.0
 10
385.4424384158186
 20
356.7471415101355
 30
0.0
 10
387.6967042031189
 20
353.6066546282198
 30
0.0
 10
389.4967961592328
 20
350.2268686894525
 30
0.0
  0
SPLINE
  5
B0
330
1F
100
AcDbEntity
  8
0
  6
Continuous
 62
     7
370
    25
100
AcDbSpline
210
0.0
220
0.0
230
1.0
 70
     8
 71
     3
 72
    16
 73
    12
 74
     0
 42
0.00000001
 43
0.00000001
 40
0.0
 40
0.0
 40
0.0
 40
0.0
 40
0.2499999999999997
 40
0.2499999999999997
 40
0.4999999999999994
 40
0.4999999999999994
 40
0.7499999999999991
 40
0.7499999999999991
 40
0.8749999999999996
 40
0.8749999999999996
 40
1.0
 40
1.0
 40
1.0
 40
1.0
 10
313.1843748034715
 20
309.5792660590663
 30
0.0
 10
311.4699664648365
 20
312.797012391098
 30
0.0
 10
310.1655076194185
 20
316.2354466351334
 30
0.0
 10
308.4563870577413
 20
323.3301047970173
 30
0.0
 10
308.0539760294861
 20
326.9867306971686
 30
0.0
 10
308.1770956651094
 20
334.2849183195943
 30
0.0
 10
308.7073228046266
 20
337.9261472912218
 30
0.0
 10
310.1684966993267
 20
343.203902314324
 30
0.0
 10
310.7662380084836
 20
344.9324894013605
 30
0.0
 10
312.1759580818344
 20
348.2996719790266
 30
0.0
 10
312.988665568409
 20
349.9379195795374
 30
0.0
 10
313.9017466210141
 20
351.5183577292955
 30
0.0
  0
SPLINE
  5
B1
330
1F
100
AcDbEntity
  8
0
  6
Continuous
 62
     7
370
    25
100
AcDbSpline
210
0.0
220
0.0
230
1.0
 70
     8
 71
     3
 72
    14
 73
    10
 74
     0
 42
0.00000001
 43
0.00000001
 40
0.0
 40
0.0
 40
0.0
 40
0.0
 40
0.2500000000000004
 40
0.2500000000000004
 40
0.5000000000000009
 40
0.5000000000000009
 40
0.7500000000000004
 40
0.7500000000000004
 40
1.0
 40
1.0
 40
1.0
 40
1.0
 10
389.4967961592326
 20
350.2268686894527
 30
0.0
 10
391.2109468476735
 20
347.009173834141
 30
0.0
 10
392.5153207971674
 20
343.5709698175015
 30
0.0
 10
394.2243362045774
 20
336.4766875983439
 30
0.0
 10
394.6265842415173
 20
332.8202115735868
 30
0.0
 10
394.5061795470119
 20
325.5216917079912
 30
0.0
 10
393.9800262759047
 20
321.8798007330572
 30
0.0
 10
392.0307304599189
 20
314.8426404856046
 30
0.0
 10
390.6070362654763
 20
311.4486700798977
 30
0.0
 10
388.7795230236043
 20
308.2876689271372
 30
0.0
  0
SPLINE
  5
B2
330
1F
100
AcDbEntity
  8
0
  6
Continuous
 62
     7
370
    25
100
AcDbSpline
210
0.0
220
0.0
230
1.0
 70
     8
 71
     3
 72
    24
 73
    20
 74
     0
 42
0.00000001
 43
0.00000001
 40
0.0
 40
0.0
 40
0.0
 40
0.0
 40
0.1250000000000002
 40
0.1250000000000002
 40
0.2500000000000003
 40
0.2500000000000003
 40
0.3750000000000003
 40
0.3750000000000003
 40
0.5000000000000002
 40
0.5000000000000002
 40
0.5625000000000002
 40
0.5625000000000002
 40
0.6250000000000001
 40
0.6250000000000001
 40
0.7500000000000001
 40
0.7500000000000001
 40
0.875
 40
0.875
 40
1.0
 40
1.0
 40
1.0
 40
1.0
 10
388.7795230236043
 20
308.2876689271372
 30
0.0
 10
386.8597570837379
 20
304.9679729268784
 30
0.0
 10
384.4997477974104
 20
301.9023476991085
 30
0.0
 10
379.0564364479547
 20
296.4996032103076
 30
0.0
 10
375.9708864387901
 20
294.1651944839571
 30
0.0
 10
369.2925292951383
 20
290.3930456292363
 30
0.0
 10
365.7022837372747
 20
288.9506109585095
 30
0.0
 10
358.2703415217505
 20
287.0600004932144
 30
0.0
 10
354.4275780950998
 20
286.6170096272722
 30
0.0
 10
348.6760801735912
 20
286.7141422342439
 30
0.0
 10
346.7610645342702
 20
286.8732494536107
 30
0.0
 10
342.9692733099705
 20
287.4456277429417
 30
0.0
 10
341.0925156169704
 20
287.8591434728478
 30
0.0
 10
335.5694410787933
 20
289.4673668012305
 30
0.0
 10
332.0315523461504
 20
291.0322006262752
 30
0.0
 10
325.4942797821444
 20
295.0388831601533
 30
0.0
 10
322.4933306379104
 20
297.4780783809017
 30
0.0
 10
317.2389579616298
 20
303.0588490105528
 30
0.0
 10
314.9845632529806
 20
306.1993936123323
 30
0.0
 10
313.1843748034715
 20
309.5792660590663
 30
0.0
  0
SPLINE
  5
B3
330
1F
100
AcDbEntity
  8
0
  6
Continuous
 62
     7
370
    25
100
AcDbSpline
210
0.0
220
0.0
230
1.0
 70
     8
 71
     3
 72
    60
 73
    56
 74
     0
 42
0.00000001
 43
0.00000001
 40
0.0
 40
0.0
 40
0.0
 40
0.0
 40
0.0092472643456231
 40
0.0188645574359711
 40
0.0288518796357061
 40
0.0392092312212171
 40
0.0499366123910013
 40
0.0610340232743174
 40
0.0725014639384543
 40
0.084338934394846
 40
0.0965464346042732
 40
0.1091239644812927
 40
0.1220715238980419
 40
0.1353891126874968
 40
0.149076730646317
 40
0.1631343775372919
 40
0.1775620530914813
 40
0.1923597570100978
 40
0.2075274889661442
 40
0.2230652486058647
 40
0.2389730355500285
 40
0.2552508493950612
 40
0.2718986897140559
 40
0.2889165560576724
 40
0.3063044479549386
 40
0.3240623649139747
 40
0.3421903064226362
 40
0.3606882719490974
 40
0.379556260942374
 40
0.3987942728328001
 40
0.4184023070324563
 40
0.438380362935559
 40
0.4587284399188133
 40
0.4794465373417447
 40
0.5005346545469768
 40
0.521992790860518
 40
0.5438209455919957
 40
0.5660191180348859
 40
0.5885873074667234
 40
0.6115255131492839
 40
0.6348337343287704
 40
0.6585119702359646
 40
0.6825602200863833
 40
0.7069784830804149
 40
0.7317667584034402
 40
0.7569250452259635
 40
0.7824533427037106
 40
0.8083516499777362
 40
0.834619966174517
 40
0.8612582904060414
 40
0.8882666217698871
 40
0.9156449593493077
 40
0.9433933022132901
 40
0.9715116494166316
 40
1.0
 40
1.0
 40
1.0
 40
1.0
 10
387.6920018052018
 20
308.9155673742607
 30
0.0
 10
387.7572306708607
 20
309.0292581625996
 30
0.0
 10
387.8902985314425
 20
309.2611890695576
 30
0.0
 10
388.0895234256153
 20
309.6183435840135
 30
0.0
 10
388.2929734501631
 20
309.9911317369259
 30
0.0
 10
388.4998941713069
 20
310.3799254262562
 30
0.0
 10
388.7099146720936
 20
310.7848631361333
 30
0.0
 10
388.9225296056728
 20
311.2061477037946
 30
0.0
 10
389.1372454659866
 20
311.6439608392141
 30
0.0
 10
389.3535389465536
 20
312.0984860264641
 30
0.0
 10
389.5708683874056
 20
312.5699007652698
 30
0.0
 10
389.7886702825143
 20
313.0583774020033
 30
0.0
 10
390.0063600211497
 20
313.5640814896522
 30
0.0
 10
390.2233314728757
 20
314.0871707882831
 30
0.0
 10
390.4389569342904
 20
314.6277940319528
 30
0.0
 10
390.6525870157933
 20
315.1860897073643
 30
0.0
 10
390.8635505907485
 20
315.7621847758562
 30
0.0
 10
391.0711547771875
 20
316.3561933583361
 30
0.0
 10
391.2746849648986
 20
316.9682153783477
 30
0.0
 10
391.473404888946
 20
317.5983351654894
 30
0.0
 10
391.6665567540772
 20
318.2466200196664
 30
0.0
 10
391.8533614136377
 20
318.9131187373829
 30
0.0
 10
392.0330186069508
 20
319.5978601013333
 30
0.0
 10
392.2047072591228
 20
320.3008513348116
 30
0.0
 10
392.3675858473209
 20
321.0220765226733
 30
0.0
 10
392.5207928376181
 20
321.7614950008332
 30
0.0
 10
392.6634471965551
 20
322.5190397165312
 30
0.0
 10
392.7946489815935
 20
323.294615561874
 30
0.0
 10
392.9134800146691
 20
324.0880976834376
 30
0.0
 10
393.0190046430538
 20
324.8993297710103
 30
0.0
 10
393.1102705917356
 20
325.7281223288659
 30
0.0
 10
393.1863099115029
 20
326.5742509332721
 30
0.0
 10
393.2461400268767
 20
327.4374544802777
 30
0.0
 10
393.2887648879865
 20
328.3174334281533
 30
0.0
 10
393.3131762303955
 20
329.2138480392298
 30
0.0
 10
393.3183549467934
 20
330.1263166262286
 30
0.0
 10
393.3032725743454
 20
331.0544138085595
 30
0.0
 10
393.2668929013452
 20
331.9976687844443
 30
0.0
 10
393.2081736966334
 20
332.9555636251046
 30
0.0
 10
393.1260685651053
 20
333.9275315976814
 30
0.0
 10
393.0195289321599
 20
334.9129555238288
 30
0.0
 10
392.8875061606138
 20
335.9111661818186
 30
0.0
 10
392.7289537997747
 20
336.9214407585208
 30
0.0
 10
392.5428299795452
 20
337.9430013652157
 30
0.0
 10
392.328099910539
 20
338.975013604159
 30
0.0
 10
392.0837386475166
 20
340.016585277992
 30
0.0
 10
391.8087335222549
 20
341.0667649346204
 30
0.0
 10
391.5020885158421
 20
342.1245414661886
 30
0.0
 10
391.1628219151588
 20
343.1888401623575
 30
0.0
 10
390.7899902521833
 20
344.258532804748
 30
0.0
 10
390.3826127496044
 20
345.3323948220316
 30
0.0
 10
389.9399755207107
 20
346.4092647786292
 30
0.0
 10
389.4604899243688
 20
347.4874338451208
 30
0.0
 10
388.9460573640899
 20
348.5669682458624
 30
0.0
 10
388.574760531913
 20
349.2782513144601
 30
0.0
 10
388.3878986456145
 20
349.6362174600666
 30
0.0
  0
SPLINE
  5
B4
330
1F
100
AcDbEntity
  8
0
  6
Continuous
 62
     7
370
    25
100
AcDbSpline
210
0.0
220
0.0
230
1.0
 70
     8
 71
     3
 72
   107
 73
   103
 74
     0
 42
0.00000001
 43
0.00000001
 40
0.0
 40
0.0
 40
0.0
 40
0.0
 40
0.0073942453283044
 40
0.0147688534848781
 40
0.022123824701516
 40
0.0294591592119091
 40
0.0367748572516644
 40
0.0440709190583258
 40
0.0513473448713942
 40
0.0586041349323495
 40
0.0658412894846712
 40
0.0730588087738602
 40
0.0802566930474612
 40
0.0874349425550844
 40
0.0945935575484281
 40
0.1017325382813018
 40
0.1088518850096497
 40
0.1159515979915726
 40
0.1230316774873543
 40
0.1300921237594833
 40
0.1371329370726785
 40
0.144154117693914
 40
0.1511556658924439
 40
0.1581375819398279
 40
0.1650998661099574
 40
0.1720425186790815
 40
0.178965539925834
 40
0.1858689301312597
 40
0.1927526895788425
 40
0.1996168185545326
 40
0.2064613173467752
 40
0.2132861862465386
 40
0.2200914255473432
 40
0.2268770355452912
 40
0.2336430165390963
 40
0.2403893688301145
 40
0.2471160927223729
 40
0.2538231885226035
 40
0.2605106565402725
 40
0.2671784970876139
 40
0.2738267104796613
 40
0.2804552970342809
 40
0.2870642570722056
 40
0.2936535909170682
 40
0.3002232988954365
 40
0.3067733813368476
 40
0.313303838573845
 40
0.3198146709420127
 40
0.3263058787800132
 40
0.3327774624296239
 40
0.3392294222357756
 40
0.3456617585465901
 40
0.3520744717134198
 40
0.3584675620908863
 40
0.3648410300369213
 40
0.371194875912807
 40
0.3775291000832174
 40
0.3838437029162605
 40
0.3901386847835206
 40
0.3964140460601021
 40
0.4026697871246728
 40
0.4089059083595095
 40
0.4151224101505424
 40
0.4213192928874019
 40
0.4274965569634652
 40
0.4336542027759033
 40
0.4397922307257308
 40
0.4459106412178532
 40
0.4520094346611181
 40
0.4580886114683652
 40
0.4641481720564782
 40
0.4701881168464368
 40
0.4762084462633701
 40
0.482209160736611
 40
0.4881902606997496
 40
0.4941517465906914
 40
0.5000936188517124
 40
0.5602564112004349
 40
0.621954635574277
 40
0.6851884417674632
 40
0.7499579530636712
 40
0.7590730589532131
 40
0.7684673324985103
 40
0.7781407737683881
 40
0.7880933827315306
 40
0.7983251592647226
 40
0.8088361031599979
 40
0.8196262141308626
 40
0.8306954918177337
 40
0.8420439357927083
 40
0.8536715455637607
 40
0.8655783205784482
 40
0.8777642602271898
 40
0.8902293638461827
 40
0.9029736307199929
 40
0.9159970600838745
 40
0.9292996511258402
 40
0.9428814029885235
 40
0.9567423147708503
 40
0.9708823855295472
 40
0.9853016142805029
 40
0.9999999999999999
 40
0.9999999999999999
 40
0.9999999999999999
 40
0.9999999999999999
 10
388.3878986456146
 20
349.6362174600665
 30
0.0
 10
388.2835129233499
 20
349.8300658756527
 30
0.0
 10
388.075018699857
 20
350.217247896394
 30
0.0
 10
387.7511817165613
 20
350.7909349275818
 30
0.0
 10
387.4199288971413
 20
351.3583200903943
 30
0.0
 10
387.0805818233881
 20
351.9188636313057
 30
0.0
 10
386.7335150708096
 20
352.472589489093
 30
0.0
 10
386.3788229518557
 20
353.0193754275617
 30
0.0
 10
386.0166752462771
 20
353.5591424616794
 30
0.0
 10
385.6472221814464
 20
354.0918042818161
 30
0.0
 10
385.2706197073065
 20
354.6172807267829
 30
0.0
 10
384.8870226694386
 20
355.1354941627268
 30
0.0
 10
384.4965865503726
 20
355.6463704225645
 30
0.0
 10
384.0994669256193
 20
356.1498385270664
 30
0.0
 10
383.69581953086
 20
356.6458307298094
 30
0.0
 10
383.2858001673551
 20
357.1342824744821
 30
0.0
 10
382.8695646518494
 20
357.6151323743948
 30
0.0
 10
382.4472687559356
 20
358.0883221849207
 30
0.0
 10
382.0190681495743
 20
358.5537967767204
 30
0.0
 10
381.5851183448544
 20
359.0115041076889
 30
0.0
 10
381.1455746410466
 20
359.4613951942173
 30
0.0
 10
380.7005920706752
 20
359.903424081647
 30
0.0
 10
380.2503253466867
 20
360.3375478139877
 30
0.0
 10
379.7949288106986
 20
360.7637264029169
 30
0.0
 10
379.3345563823367
 20
361.1819227960935
 30
0.0
 10
378.8693615096613
 20
361.5921028448141
 30
0.0
 10
378.3994971206844
 20
361.9942352710396
 30
0.0
 10
377.9251155759782
 20
362.388291633821
 30
0.0
 10
377.4463686223755
 20
362.7742462951535
 30
0.0
 10
376.9634073477619
 20
363.1520763852841
 30
0.0
 10
376.4763821369584
 20
363.5217617675029
 30
0.0
 10
375.9854426286934
 20
363.8832850024421
 30
0.0
 10
375.4907376736618
 20
364.2366313119127
 30
0.0
 10
374.992415293669
 20
364.5817885423027
 30
0.0
 10
374.4906226418564
 20
364.918747127563
 30
0.0
 10
373.9855059640055
 20
365.2475000518085
 30
0.0
 10
373.4772105609163
 20
365.5680428115571
 30
0.0
 10
372.965880751855
 20
365.880373377634
 30
0.0
 10
372.4516598390677
 20
366.1844921567626
 30
0.0
 10
371.9346900733522
 20
366.4804019528701
 30
0.0
 10
371.4151126206852
 20
366.7681079281279
 30
0.0
 10
370.8930675298965
 20
367.0476175637522
 30
0.0
 10
370.3686937013842
 20
367.3189406205869
 30
0.0
 10
369.842128856864
 20
367.5820890994917
 30
0.0
 10
369.3135095101461
 20
367.8370772015574
 30
0.0
 10
368.7829709389301
 20
368.0839212881695
 30
0.0
 10
368.2506471576123
 20
368.3226398409432
 30
0.0
 10
367.7166708910942
 20
368.5532534215478
 30
0.0
 10
367.1811735495868
 20
368.7757846314443
 30
0.0
 10
366.6442852043988
 20
368.9902580715528
 30
0.0
 10
366.1061345647004
 20
369.1967003018737
 30
0.0
 10
365.5668489552544
 20
369.3951398010759
 30
0.0
 10
365.0265542951026
 20
369.5856069260784
 30
0.0
 10
364.4853750771993
 20
369.7681338716354
 30
0.0
 10
363.9434343489796
 20
369.9427546299509
 30
0.0
 10
363.4008536938544
 20
370.1095049503334
 30
0.0
 10
362.8577532136186
 20
370.2684222989136
 30
0.0
 10
362.3142515117634
 20
370.4195458184376
 30
0.0
 10
361.7704656776813
 20
370.5629162881538
 30
0.0
 10
361.2265112717508
 20
370.6985760838099
 30
0.0
 10
360.6825023112909
 20
370.8265691377744
 30
0.0
 10
360.1385512573736
 20
370.9469408992975
 30
0.0
 10
359.5947690024817
 20
371.0597382949279
 30
0.0
 10
359.0512648589973
 20
371.1650096890967
 30
0.0
 10
358.5081465485233
 20
371.2628048448869
 30
0.0
 10
357.9655201919716
 20
371.3531748849933
 30
0.0
 10
357.4234903006021
 20
371.4361722529103
 30
0.0
 10
356.8821597672759
 20
371.5118506742715
 30
0.0
 10
356.3416298605918
 20
371.5802651186881
 30
0.0
 10
355.8020002119414
 20
371.6414717608477
 30
0.0
 10
355.2633688324216
 20
371.6955279455331
 30
0.0
 10
354.7258320223675
 20
371.742492139306
 30
0.0
 10
354.1894846831196
 20
371.7824239329966
 30
0.0
 10
353.6544191383239
 20
371.8153838568319
 30
0.0
 10
353.1207294938908
 20
371.8414338927648
 30
0.0
 10
352.5884954318983
 20
371.8606353989895
 30
0.0
 10
350.443149107337
 20
371.9108525368985
 30
0.0
 10
346.6296358720446
 20
371.7316832101416
 30
0.0
 10
341.1887163074124
 20
370.7596344478029
 30
0.0
 10
335.793075571492
 20
369.0327506238025
 30
0.0
 10
332.0963064140414
 20
367.2645044211445
 30
0.0
 10
329.9503129442992
 20
366.0221001675532
 30
0.0
 10
329.2324270929134
 20
365.5874031246252
 30
0.0
 10
328.5024607801755
 20
365.1248906719591
 30
0.0
 10
327.7615228355361
 20
364.633448684451
 30
0.0
 10
327.0108285275808
 20
364.1119799103405
 30
0.0
 10
326.2516612548251
 20
363.5593931489245
 30
0.0
 10
325.4853862826893
 20
362.9746122876963
 30
0.0
 10
324.7134497415731
 20
362.3565801509478
 30
0.0
 10
323.9373815265523
 20
361.7042641657715
 30
0.0
 10
323.1587968515574
 20
361.0166618990862
 30
0.0
 10
322.3793979259701
 20
360.2928069884352
 30
0.0
 10
321.600975159549
 20
359.5317754073405
 30
0.0
 10
320.8254086011544
 20
358.7326917463348
 30
0.0
 10
320.054667146728
 20
357.8947368811465
 30
0.0
 10
319.2908147651584
 20
357.0171516725035
 30
0.0
 10
318.5359879556248
 20
356.0992573288929
 30
0.0
 10
317.792482166489
 20
355.1404128863812
 30
0.0
 10
317.0624166463328
 20
354.1402160655155
 30
0.0
 10
316.3490192057139
 20
353.0977688512509
 30
0.0
 10
315.6516792906679
 20
352.0145407618469
 30
0.0
 10
315.2114128456075
 20
351.2676121596718
 30
0.0
 10
314.9891691574985
 20
350.8905673742608
 30
0.0
  0
SPLINE
  5
B5
330
1F
100
AcDbEntity
  8
0
  6
Continuous
 62
     7
370
    25
100
AcDbSpline
210
0.0
220
0.0
230
1.0
 70
     8
 71
     3
 72
    69
 73
    65
 74
     0
 42
0.00000001
 43
0.00000001
 40
0.0
 40
0.0
 40
0.0
 40
0.0
 40
0.0155000267005872
 40
0.0307942656586468
 40
0.045882716714492
 40
0.0607653797109427
 40
0.0754422544933325
 40
0.089913340909529
 40
0.1041786388099477
 40
0.1182381480475737
 40
0.1320918684779778
 40
0.1457397999593417
 40
0.1591819423524772
 40
0.1724182955208548
 40
0.1854488593306264
 40
0.1982736336506567
 40
0.2108926183525527
 40
0.2233058133106995
 40
0.2355132184022947
 40
0.2475148335073897
 40
0.2593106585089306
 40
0.2709006932928085
 40
0.2822849377479063
 40
0.29346339176616
 40
0.3044360552426155
 40
0.315202928075497
 40
0.3257640101662806
 40
0.3361193014197764
 40
0.3462688017442145
 40
0.356212511051347
 40
0.3659504292565544
 40
0.3754825562789632
 40
0.3848088920415877
 40
0.3939294364714696
 40
0.4028441894998513
 40
0.4115531510623539
 40
0.4200563210991931
 40
0.428353699555406
 40
0.4364452863811208
 40
0.4443310815318492
 40
0.452011084968826
 40
0.4594852966593963
 40
0.466753716577447
 40
0.4738163447039183
 40
0.4806731810273739
 40
0.487324225544673
 40
0.4937694782617417
 40
0.5000089391944752
 40
0.5322991538721766
 40
0.5644505784768762
 40
0.5964632171629818
 40
0.6283370741419234
 40
0.6600721536831347
 40
0.6916684601150588
 40
0.7231259978261763
 40
0.7544447712660539
 40
0.7856247849464199
 40
0.8166660434422588
 40
0.8475685513929365
 40
0.8783323135033456
 40
0.908957334545077
 40
0.9394436193576218
 40
0.9697911728495974
 40
1.0
 40
1.0
 40
1.0
 40
1.0
 10
314.9891691574985
 20
350.8905673742608
 30
0.0
 10
314.8801886280994
 20
350.6998181421544
 30
0.0
 10
314.6636744608169
 20
350.3208521802799
 30
0.0
 10
314.3523054363268
 20
349.7499011046369
 30
0.0
 10
314.053203544462
 20
349.1823242375679
 30
0.0
 10
313.7668776035069
 20
348.617982765597
 30
0.0
 10
313.4928313653654
 20
348.0573043727869
 30
0.0
 10
313.230829486527
 20
347.5005527853629
 30
0.0
 10
312.9805657520184
 20
346.948019779836
 30
0.0
 10
312.7417506603448
 20
346.3999750709547
 30
0.0
 10
312.5140889457145
 20
345.8566797431117
 30
0.0
 10
312.29728595379
 20
345.3183830209146
 30
0.0
 10
312.0910464316729
 20
344.7853234166817
 30
0.0
 10
311.8950752879766
 20
344.2577287372277
 30
0.0
 10
311.7090778182134
 20
343.7358163955774
 30
0.0
 10
311.5327600522264
 20
343.219793647977
 30
0.0
 10
311.3658290519498
 20
342.7098578549102
 30
0.0
 10
311.2079932048197
 20
342.2061967395466
 30
0.0
 10
311.0589625013343
 20
341.708988649895
 30
0.0
 10
310.9184488001498
 20
341.2184028223584
 30
0.0
 10
310.7861660802175
 20
340.7345996466642
 30
0.0
 10
310.6618306804897
 20
340.2577309315762
 30
0.0
 10
310.5451615274659
 20
339.7879401709708
 30
0.0
 10
310.4358803509228
 20
339.3253628098398
 30
0.0
 10
310.3337118881627
 20
338.8701265098177
 30
0.0
 10
310.2383840771184
 20
338.4223514138442
 30
0.0
 10
310.1496282386603
 20
337.9821504095993
 30
0.0
 10
310.067179248447
 20
337.5496293913614
 30
0.0
 10
309.9907756986697
 20
337.1248875199648
 30
0.0
 10
309.9201600500346
 20
336.708017480545
 30
0.0
 10
309.8550787743316
 20
336.2991057377823
 30
0.0
 10
309.795282487936
 20
335.8982327883714
 30
0.0
 10
309.7405260765872
 20
335.5054734104578
 30
0.0
 10
309.6905688117881
 20
335.1208969098032
 30
0.0
 10
309.6451744591652
 20
334.7445673624534
 30
0.0
 10
309.6041113791283
 20
334.3765438536993
 30
0.0
 10
309.5671526201613
 20
334.016880713133
 30
0.0
 10
309.5340760050774
 20
333.6656277456318
 30
0.0
 10
309.5046642105613
 20
333.3228304580418
 30
0.0
 10
309.4787048403189
 20
332.9885302816239
 30
0.0
 10
309.4559904921639
 20
332.6627647893353
 30
0.0
 10
309.4363188192923
 20
332.345567910615
 30
0.0
 10
309.4194925862664
 20
332.0369701335197
 30
0.0
 10
309.405319719229
 20
331.7369987300144
 30
0.0
 10
309.3936133534177
 20
331.4456778758819
 30
0.0
 10
309.3841918683461
 20
331.1630291238569
 30
0.0
 10
309.3768789463051
 20
330.889070593861
 30
0.0
 10
309.363963352348
 20
330.2517508666429
 30
0.0
 10
309.3632145654485
 20
329.2497481571364
 30
0.0
 10
309.4068179390807
 20
327.8831117116564
 30
0.0
 10
309.4944274268683
 20
326.524487475209
 30
0.0
 10
309.6253788478089
 20
325.1752829211622
 30
0.0
 10
309.7989671068405
 20
323.8368453436718
 30
0.0
 10
310.0144489238035
 20
322.5104860075413
 30
0.0
 10
310.2710446033483
 20
321.1974726330757
 30
0.0
 10
310.5679406834417
 20
319.8990307628391
 30
0.0
 10
310.9042900038529
 20
318.6163416350086
 30
0.0
 10
311.2792211030363
 20
317.3505457086863
 30
0.0
 10
311.6918130198868
 20
316.1027277032467
 30
0.0
 10
312.141198250225
 20
314.8739700205923
 30
0.0
 10
312.6261905511399
 20
313.6651532114563
 30
0.0
 10
313.1466739513256
 20
312.4776944495104
 30
0.0
 10
313.6984633349527
 20
311.3108094457915
 30
0.0
 10
314.0953056934673
 20
310.5496334243662
 30
0.0
 10
314.2932723170857
 20
310.1699172884555
 30
0.0
  0
SPLINE
  5
B6
330
1F
100
AcDbEntity
  8
0
  6
Continuous
 62
     7
370
    25
100
AcDbSpline
210
0.0
220
0.0
230
1.0
 70
     8
 71
     3
 72
    89
 73
    85
 74
     0
 42
0.00000001
 43
0.00000001
 40
0.0
 40
0.0
 40
0.0
 40
0.0
 40
0.0073550232882448
 40
0.014808005715962
 40
0.0223589476139352
 40
0.030007849296059
 40
0.0377547110601415
 40
0.0455995331886541
 40
0.0535423159494363
 40
0.0615830595963537
 40
0.0697217643699237
 40
0.0779584304978969
 40
0.0862930581958081
 40
0.0947256476674954
 40
0.1032561991055866
 40
0.1118847126919604
 40
0.1206111885981838
 40
0.1294356269859185
 40
0.1383580280073135
 40
0.147378391805367
 40
0.156496718514279
 40
0.1657130082597775
 40
0.1750272611594295
 40
0.1844394773229383
 40
0.1939496568524221
 40
0.2035577998426803
 40
0.213263906381447
 40
0.2230679765496289
 40
0.2329700104215351
 40
0.2429700080650932
 40
0.2530679695420555
 40
0.2632638949081953
 40
0.2735577842134945
 40
0.2839496375023209
 40
0.2944394548135996
 40
0.3050272361809737
 40
0.315712981632959
 40
0.3264966911930929
 40
0.3373783648800737
 40
0.3483580027078964
 40
0.3594356046859808
 40
0.3706111708192953
 40
0.3818847011084736
 40
0.393256195549928
 40
0.4047256541359573
 40
0.416293076854851
 40
0.4279584636909843
 40
0.4397218146249187
 40
0.4515831296334887
 40
0.4635424086898903
 40
0.4755996517637655
 40
0.4877548588212801
 40
0.5000080298252034
 40
0.5192501021283152
 40
0.5382846180330433
 40
0.5571115775124379
 40
0.5757309805798547
 40
0.5941428272903169
 40
0.612347117741949
 40
0.6303438520775021
 40
0.6481330304859629
 40
0.6657146532042579
 40
0.6830887205190592
 40
0.7002552327687038
 40
0.7172141903452237
 40
0.7339655936965049
 40
0.7505094433285866
 40
0.766845739808095
 40
0.782974483764846
 40
0.798895675894609
 40
0.8146093169620555
 40
0.8301154078039094
 40
0.8454139493323033
 40
0.8605049425383701
 40
0.875388388496087
 40
0.890064288366384
 40
0.9045326434015571
 40
0.918793454949991
 40
0.9328467244612407
 40
0.9466924534914898
 40
0.9603306437094188
 40
0.9737612969025381
 40
0.9869844149840065
 40
1.0
 40
1.0
 40
1.0
 40
1.0
 10
314.2932723170857
 20
310.1699172884555
 30
0.0
 10
314.3971214963909
 20
309.9770571034489
 30
0.0
 10
314.606202988112
 20
309.5887680919754
 30
0.0
 10
314.9335496742112
 20
309.0088711201615
 30
0.0
 10
315.2738693724989
 20
308.426353871491
 30
0.0
 10
315.628287562327
 20
307.8420319099819
 30
0.0
 10
315.9968438812367
 20
307.2561582989466
 30
0.0
 10
316.379867988244
 20
306.6691566526891
 30
0.0
 10
316.7776030011589
 20
306.0814210429265
 30
0.0
 10
317.1903076342308
 20
305.4933707988857
 30
0.0
 10
317.6182275781945
 20
304.9054356732069
 30
0.0
 10
318.0616025627665
 20
304.3180599993059
 30
0.0
 10
318.5206636587315
 20
303.7317016414677
 30
0.0
 10
318.9956332242994
 20
303.1468323418054
 30
0.0
 10
319.4867241107978
 20
302.5639376604609
 30
0.0
 10
319.994139051684
 20
301.9835169998094
 30
0.0
 10
320.5180699833101
 20
301.4060835774264
 30
0.0
 10
321.0586973666036
 20
300.8321643833175
 30
0.0
 10
321.6161894914238
 20
300.2623001103344
 30
0.0
 10
322.1907017692589
 20
299.6970450593824
 30
0.0
 10
322.7823760134834
 20
299.136967017561
 30
0.0
 10
323.3913397082322
 20
298.5826471083143
 30
0.0
 10
324.0177052665221
 20
298.0346796124098
 30
0.0
 10
324.6615692784511
 20
297.4936717586282
 30
0.0
 10
325.3230117503361
 20
296.9602434830379
 30
0.0
 10
326.0020953357246
 20
296.4350271557291
 30
0.0
 10
326.6988645592868
 20
295.9186672738956
 30
0.0
 10
327.4133450346633
 20
295.411820120156
 30
0.0
 10
328.1455426774188
 20
294.9151533850295
 30
0.0
 10
328.8954429143267
 20
294.4293457524871
 30
0.0
 10
329.6630098902838
 20
293.9550864475306
 30
0.0
 10
330.4481856742332
 20
293.4930747447689
 30
0.0
 10
331.2508894655505
 20
293.0440194369947
 30
0.0
 10
332.0710168024303
 20
292.6086382627926
 30
0.0
 10
332.9084387738864
 20
292.1876572922511
 30
0.0
 10
333.763001237064
 20
291.7818102698908
 30
0.0
 10
334.6345240416409
 20
291.3918379139649
 30
0.0
 10
335.5228002631784
 20
291.018487171342
 30
0.0
 10
336.4275954473622
 20
290.6625104272353
 30
0.0
 10
337.3486468671605
 20
290.3246646691043
 30
0.0
 10
338.2856627949964
 20
290.0057106041193
 30
0.0
 10
339.2383217921457
 20
289.7064117296512
 30
0.0
 10
340.2062720175367
 20
289.4275333563269
 30
0.0
 10
341.1891305586351
 20
289.1698415832787
 30
0.0
 10
342.186482785563
 20
288.9341022252624
 30
0.0
 10
343.1978817357664
 20
288.7210796915953
 30
0.0
 10
344.222847513603
 20
288.5315358162609
 30
0.0
 10
345.2608667762898
 20
288.3662286412992
 30
0.0
 10
346.3113920489349
 20
288.2259111456466
 30
0.0
 10
347.3738418538921
 20
288.1113299497413
 30
0.0
 10
348.4475979450839
 20
288.0232238826268
 30
0.0
 10
349.5320136752426
 20
287.9623228413794
 30
0.0
 10
350.8315304972263
 20
287.9231633565639
 30
0.0
 10
352.3368217972847
 20
287.9282751976849
 30
0.0
 10
354.0362493395153
 20
288.0033303574411
 30
0.0
 10
355.7127912075604
 20
288.145222680281
 30
0.0
 10
357.3639292112142
 20
288.3515028276708
 30
0.0
 10
358.987346835997
 20
288.6196581563949
 30
0.0
 10
360.5809050702258
 20
288.9471251201979
 30
0.0
 10
362.1426454582855
 20
289.3312998602906
 30
0.0
 10
363.6707853312848
 20
289.7695486286499
 30
0.0
 10
365.1637145114161
 20
290.2592175974121
 30
0.0
 10
366.6199910994803
 20
290.7976421626735
 30
0.0
 10
368.0383370322481
 20
291.3821557086357
 30
0.0
 10
369.4176332838334
 20
292.0100978391084
 30
0.0
 10
370.7569147971535
 20
292.6788220758688
 30
0.0
 10
372.0553651735754
 20
293.3857030283896
 30
0.0
 10
373.312311161803
 20
294.1281430409193
 30
0.0
 10
374.5272169814069
 20
294.9035783249678
 30
0.0
 10
375.6996785150921
 20
295.70948458721
 30
0.0
 10
376.8294174031505
 20
296.5433821635003
 30
0.0
 10
377.9162750659833
 20
297.4028406743598
 30
0.0
 10
378.9602066994327
 20
298.285483206505
 30
0.0
 10
379.9612752095891
 20
299.1889900699696
 30
0.0
 10
380.9196453302894
 20
300.111102020573
 30
0.0
 10
381.8355771466209
 20
301.0496234256989
 30
0.0
 10
382.7094219665432
 20
302.0024237048781
 30
0.0
 10
383.5416098868229
 20
302.9674432218596
 30
0.0
 10
384.3326680514675
 20
303.9426811516784
 30
0.0
 10
385.0831272910794
 20
304.9262474732679
 30
0.0
 10
385.7938366536509
 20
305.9161793219968
 30
0.0
 10
386.4647903009446
 20
306.9111155721728
 30
0.0
 10
387.0993808373436
 20
307.9078397979069
 30
0.0
 10
387.4955058563484
 20
308.581434096768
 30
0.0
 10
387.6920018052018
 20
308.9155673742607
 30
0.0
  0
SPLINE
  5
B7
330
1F
100
AcDbEntity
  8
0
  6
Continuous
 62
     7
370
    25
100
AcDbSpline
210
0.0
220
0.0
230
1.0
 70
     8
 71
     3
 72
    30
 73
    26
 74
     0
 42
0.00000001
 43
0.00000001
 40
0.0
 40
0.0
 40
0.0
 40
0.0
 40
0.0625
 40
0.0625
 40
0.1249999999999999
 40
0.1249999999999999
 40
0.1874999999999999
 40
0.1874999999999999
 40
0.2499999999999999
 40
0.2499999999999999
 40
0.3749999999999998
 40
0.3749999999999998
 40
0.4999999999999997
 40
0.4999999999999997
 40
0.6249999999999998
 40
0.6249999999999998
 40
0.7499999999999998
 40
0.7499999999999998
 40
0.8124999999999998
 40
0.8124999999999998
 40
0.8749999999999999
 40
0.8749999999999999
 40
0.9374999999999999
 40
0.9374999999999999
 40
1.0
 40
1.0
 40
1.0
 40
1.0
 10
387.5811339714832
 20
308.9795769479024
 30
0.0
 10
388.9427494521302
 20
311.3380496959007
 30
0.0
 10
390.0764774994753
 20
313.8396065888395
 30
0.0
 10
391.8386526809977
 20
319.0152970620114
 30
0.0
 10
392.4642970863467
 20
321.6883458399736
 30
0.0
 10
393.1830291544721
 20
327.1020327343641
 30
0.0
 10
393.2765871654024
 20
329.8435425395535
 30
0.0
 10
392.9270766418918
 20
335.2947215171494
 30
0.0
 10
392.4859866765915
 20
338.0037282787719
 30
0.0
 10
390.3862966947425
 20
345.9191631703214
 30
0.0
 10
387.948930866472
 20
350.9134987700874
 30
0.0
 10
381.2727468272158
 20
359.643887283817
 30
0.0
 10
377.0502101108884
 20
363.3801174711953
 30
0.0
 10
367.4805688572922
 20
368.9055974133079
 30
0.0
 10
362.1334551173243
 20
370.6948312688903
 30
0.0
 10
351.2338290781885
 20
372.1121101075872
 30
0.0
 10
345.6892923133161
 20
371.7259223445922
 30
0.0
 10
337.7837153781558
 20
369.5865329476288
 30
0.0
 10
335.2168771012697
 20
368.6139574074161
 30
0.0
 10
330.3209300077687
 20
366.1909005895569
 30
0.0
 10
327.9933910128671
 20
364.7390382056579
 30
0.0
 10
323.6642828237112
 20
361.4096380270571
 30
0.0
 10
321.6621912892228
 20
359.5312568975105
 30
0.0
 10
318.0610994986158
 20
355.417368946242
 30
0.0
 10
316.4616359139076
 20
353.1848307647827
 30
0.0
 10
315.1000369912091
 20
350.8265578006232
 30
0.0
  0
SPLINE
  5
B8
330
1F
100
AcDbEntity
  8
0
  6
Continuous
 62
     7
370
    25
100
AcDbSpline
210
0.0
220
0.0
230
1.0
 70
     8
 71
     3
 72
    30
 73
    26
 74
     0
 42
0.00000001
 43
0.00000001
 40
0.0
 40
0.0
 40
0.0
 40
0.0
 40
0.0625000000000002
 40
0.0625000000000002
 40
0.1250000000000006
 40
0.1250000000000006
 40
0.1875000000000008
 40
0.1875000000000008
 40
0.250000000000001
 40
0.250000000000001
 40
0.3750000000000009
 40
0.3750000000000009
 40
0.5000000000000007
 40
0.5000000000000007
 40
0.6250000000000004
 40
0.6250000000000004
 40
0.7500000000000002
 40
0.7500000000000002
 40
0.8125000000000002
 40
0.8125000000000002
 40
0.8750000000000002
 40
0.8750000000000002
 40
0.9375000000000001
 40
0.9375000000000001
 40
1.0
 40
1.0
 40
1.0
 40
1.0
 10
315.1000369912091
 20
350.8265578006232
 30
0.0
 10
313.738481729222
 20
348.4683604562909
 30
0.0
 10
312.6048348130499
 20
345.9669932550921
 30
0.0
 10
310.8427370560152
 20
340.7916022417995
 30
0.0
 10
310.2170720963962
 20
338.1186743655252
 30
0.0
 10
309.4982247348619
 20
332.7051539943669
 30
0.0
 10
309.4045821346124
 20
329.9636797225243
 30
0.0
 10
309.7539563894158
 20
324.5124468344489
 30
0.0
 10
310.1949894133689
 20
321.8033597428124
 30
0.0
 10
312.2945860617288
 20
313.8876202128296
 30
0.0
 10
314.731997411308
 20
308.8930038465383
 30
0.0
 10
321.4083228824501
 20
300.162320900231
 30
0.0
 10
325.6309514461121
 20
296.4260525293443
 30
0.0
 10
335.2004793870269
 20
290.9005783816817
 30
0.0
 10
340.547391255148
 20
289.1113942444304
 30
0.0
 10
351.4466699069012
 20
287.6940511756114
 30
0.0
 10
356.9910651567441
 20
288.0801069429543
 30
0.0
 10
364.8966360811919
 20
290.2193227079953
 30
0.0
 10
367.4635068879173
 20
291.191846017855
 30
0.0
 10
372.3595728929446
 20
293.6148440798219
 30
0.0
 10
374.6872009708463
 20
295.066703463207
 30
0.0
 10
379.0165015393808
 20
298.3961512038922
 30
0.0
 10
381.0186941087901
 20
300.274581390952
 30
0.0
 10
384.6199544337555
 20
304.3886021628097
 30
0.0
 10
386.2194880558355
 20
306.6212225924625
 30
0.0
 10
387.5811339714832
 20
308.9795769479024
 30
0.0
  0
ARC
  5
B9
330
1F
100
AcDbEntity
  8
0
  6
Continuous
 62
     7
370
    25
100
AcDbCircle
 10
351.3405854814
 20
329.9030673743
 30
0.0
 40
36.31056399417616
100
AcDbArc
 50
51.2529978617
 51
231.2529978786
  0
ARC
  5
BA
330
1F
100
AcDbEntity
  8
0
  6
Continuous
 62
     7
370
    25
100
AcDbCircle
 10
351.3405854814
 20
329.9030673743
 30
0.0
 40
36.31056399417616
100
AcDbArc
 50
231.2529978786
 51
51.2529978617
  0
ARC
  5
BB
330
1F
100
AcDbEntity
  8
0
  6
Continuous
 62
     7
370
    25
100
AcDbCircle
 10
351.3405854813
 20
329.9030673743
 30
0.0
 40
38.298998057
100
AcDbArc
 50
206.4123021841
 51
26.4123021841
  0
ARC
  5
BC
330
1F
100
AcDbEntity
  8
0
  6
Continuous
 62
     7
370
    25
100
AcDbCircle
 10
351.3405854813
 20
329.9030673743
 30
0.0
 40
39.50000000000004
100
AcDbArc
 50
206.4123021841
 51
26.4123022076
  0
ARC
  5
BD
330
1F
100
AcDbEntity
  8
0
  6
Continuous
 62
     7
370
    25
100
AcDbCircle
 10
351.3405854813
 20
329.9030673743
 30
0.0
 40
38.298998057
100
AcDbArc
 50
26.4123021841
 51
206.4123021841
  0
ARC
  5
BE
330
1F
100
AcDbEntity
  8
0
  6
Continuous
 62
     7
370
    25
100
AcDbCircle
 10
351.3405854813
 20
329.9030673743
 30
0.0
 40
39.50000000000004
100
AcDbArc
 50
26.4123022076
 51
206.4123021738
  0
ENDSEC
  0
SECTION
  2
OBJECTS
  0
DICTIONARY
  5
C
330
0
100
AcDbDictionary
281
     1
  3
ACAD_GROUP
350
D
  3
ACAD_LAYOUT
350
1A
  3
ACAD_MLINESTYLE
350
17
  3
ACAD_PLOTSETTINGS
350
19
  3
ACAD_PLOTSTYLENAME
350
E
  3
ACAD_SCALELIST
350
47
  3
DWGPROPS
350
BF
  0
DICTIONARY
  5
D
102
{ACAD_REACTORS
330
C
102
}
330
C
100
AcDbDictionary
281
     1
  0
DICTIONARY
  5
1A
102
{ACAD_REACTORS
330
C
102
}
330
C
100
AcDbDictionary
281
     1
  3
Layout1
350
1E
  3
Layout2
350
26
  3
Model
350
22
  0
DICTIONARY
  5
17
102
{ACAD_REACTORS
330
C
102
}
330
C
100
AcDbDictionary
281
     1
  3
Standard
350
18
  0
DICTIONARY
  5
19
102
{ACAD_REACTORS
330
C
102
}
330
C
100
AcDbDictionary
281
     1
  0
ACDBDICTIONARYWDFLT
  5
E
102
{ACAD_REACTORS
330
C
102
}
330
C
100
AcDbDictionary
281
     1
  3
Normal
350
F
100
AcDbDictionaryWithDefault
340
F
  0
DICTIONARY
  5
47
102
{ACAD_REACTORS
330
C
102
}
330
C
100
AcDbDictionary
281
     1
  3
A0
350
48
  3
A1
350
49
  3
A2
350
4A
  3
A3
350
4B
  3
A4
350
4C
  3
A5
350
4D
  3
A6
350
4E
  3
A7
350
4F
  3
A8
350
50
  3
A9
350
51
  3
B0
350
52
  3
B1
350
53
  3
B2
350
54
  3
B3
350
55
  3
B4
350
56
  3
B5
350
57
  3
B6
350
58
  0
XRECORD
  5
BF
102
{ACAD_REACTORS
330
C
102
}
330
C
100
AcDbXrecord
280
     1
  1
DWGPROPS COOKIE
  2

  3

  4

  6

  7

  8
villesi
  9

300
=
301
=
302
=
303
=
304
=
305
=
306
=
307
=
308
=
309
=
 40
0.0
 41
2460462.151235602
 42
2460462.151236134
  1

 90
        0
  0
LAYOUT
  5
1E
102
{ACAD_REACTORS
330
1A
102
}
330
1A
100
AcDbPlotSettings
  1

  2
none_device
  4

  6

 40
0.0
 41
0.0
 42
0.0
 43
0.0
 44
0.0
 45
0.0
 46
0.0
 47
0.0
 48
0.0
 49
0.0
140
0.0
141
0.0
142
1.0
143
1.0
 70
   688
 72
     1
 73
     0
 74
     5
  7

 75
    16
147
1.0
148
0.0
149
0.0
100
AcDbLayout
  1
Layout1
 70
     1
 71
     1
 10
0.0
 20
0.0
 11
420.0
 21
297.0
 12
0.0
 22
0.0
 32
0.0
 14
1.0000000000E+20
 24
1.0000000000E+20
 34
1.0000000000E+20
 15
-1.0000000000E+20
 25
-1.0000000000E+20
 35
-1.0000000000E+20
146
0.0
 13
0.0
 23
0.0
 33
0.0
 16
1.0
 26
0.0
 36
0.0
 17
0.0
 27
1.0
 37
0.0
 76
     0
330
1B
  0
LAYOUT
  5
26
102
{ACAD_REACTORS
330
1A
102
}
330
1A
100
AcDbPlotSettings
  1

  2
none_device
  4

  6

 40
0.0
 41
0.0
 42
0.0
 43
0.0
 44
0.0
 45
0.0
 46
0.0
 47
0.0
 48
0.0
 49
0.0
140
0.0
141
0.0
142
1.0
143
1.0
 70
   688
 72
     1
 73
     0
 74
     5
  7

 75
    16
147
1.0
148
0.0
149
0.0
100
AcDbLayout
  1
Layout2
 70
     1
 71
     2
 10
0.0
 20
0.0
 11
0.0
 21
0.0
 12
0.0
 22
0.0
 32
0.0
 14
0.0
 24
0.0
 34
0.0
 15
0.0
 25
0.0
 35
0.0
146
0.0
 13
0.0
 23
0.0
 33
0.0
 16
1.0
 26
0.0
 36
0.0
 17
0.0
 27
1.0
 37
0.0
 76
     0
330
23
  0
LAYOUT
  5
22
102
{ACAD_REACTORS
330
1A
102
}
330
1A
100
AcDbPlotSettings
  1

  2
none_device
  4
Letter_(8.50_x_11.00_Inches)
  6

 40
6.35
 41
6.35
 42
6.35000508
 43
6.35000508
 44
215.9
 45
279.4
 46
0.0
 47
0.0
 48
0.0
 49
0.0
140
0.0
141
0.0
142
1.0
143
1.0
 70
  1712
 72
     1
 73
     0
 74
     0
  7

 75
     0
147
1.0
148
0.0
149
0.0
100
AcDbLayout
  1
Model
 70
     1
 71
     0
 10
0.0
 20
0.0
 11
700.0
 21
500.0
 12
0.0
 22
0.0
 32
0.0
 14
0.0
 24
0.0
 34
0.0
 15
700.0
 25
500.0
 35
0.0
146
0.0
 13
0.0
 23
0.0
 33
0.0
 16
1.0
 26
0.0
 36
0.0
 17
0.0
 27
1.0
 37
0.0
 76
     0
330
1F
331
29
  0
MLINESTYLE
  5
18
102
{ACAD_REACTORS
330
17
102
}
330
17
100
AcDbMlineStyle
  2
Standard
 70
     0
  3

 62
   256
 51
90.0
 52
90.0
 71
     2
 49
0.5
 62
   256
  6
BYLAYER
 49
-0.5
 62
   256
  6
BYLAYER
  0
ACDBPLACEHOLDER
  5
F
102
{ACAD_REACTORS
330
E
102
}
330
E
  0
SCALE
  5
48
102
{ACAD_REACTORS
330
47
102
}
330
47
100
AcDbScale
 70
     0
300
1:1
140
1.0
141
1.0
290
     1
  0
SCALE
  5
49
102
{ACAD_REACTORS
330
47
102
}
330
47
100
AcDbScale
 70
     0
300
1:2
140
1.0
141
2.0
290
     0
  0
SCALE
  5
4A
102
{ACAD_REACTORS
330
47
102
}
330
47
100
AcDbScale
 70
     0
300
1:4
140
1.0
141
4.0
290
     0
  0
SCALE
  5
4B
102
{ACAD_REACTORS
330
47
102
}
330
47
100
AcDbScale
 70
     0
300
1:5
140
1.0
141
5.0
290
     0
  0
SCALE
  5
4C
102
{ACAD_REACTORS
330
47
102
}
330
47
100
AcDbScale
 70
     0
300
1:8
140
1.0
141
8.0
290
     0
  0
SCALE
  5
4D
102
{ACAD_REACTORS
330
47
102
}
330
47
100
AcDbScale
 70
     0
300
1:10
140
1.0
141
10.0
290
     0
  0
SCALE
  5
4E
102
{ACAD_REACTORS
330
47
102
}
330
47
100
AcDbScale
 70
     0
300
1:16
140
1.0
141
16.0
290
     0
  0
SCALE
  5
4F
102
{ACAD_REACTORS
330
47
102
}
330
47
100
AcDbScale
 70
     0
300
1:20
140
1.0
141
20.0
290
     0
  0
SCALE
  5
50
102
{ACAD_REACTORS
330
47
102
}
330
47
100
AcDbScale
 70
     0
300
1:30
140
1.0
141
30.0
290
     0
  0
SCALE
  5
51
102
{ACAD_REACTORS
330
47
102
}
330
47
100
AcDbScale
 70
     0
300
1:40
140
1.0
141
40.0
290
     0
  0
SCALE
  5
52
102
{ACAD_REACTORS
330
47
102
}
330
47
100
AcDbScale
 70
     0
300
1:50
140
1.0
141
50.0
290
     0
  0
SCALE
  5
53
102
{ACAD_REACTORS
330
47
102
}
330
47
100
AcDbScale
 70
     0
300
1:100
140
1.0
141
100.0
290
     0
  0
SCALE
  5
54
102
{ACAD_REACTORS
330
47
102
}
330
47
100
AcDbScale
 70
     0
300
2:1
140
2.0
141
1.0
290
     0
  0
SCALE
  5
55
102
{ACAD_REACTORS
330
47
102
}
330
47
100
AcDbScale
 70
     0
300
4:1
140
4.0
141
1.0
290
     0
  0
SCALE
  5
56
102
{ACAD_REACTORS
330
47
102
}
330
47
100
AcDbScale
 70
     0
300
8:1
140
8.0
141
1.0
290
     0
  0
SCALE
  5
57
102
{ACAD_REACTORS
330
47
102
}
330
47
100
AcDbScale
 70
     0
300
10:1
140
10.0
141
1.0
290
     0
  0
SCALE
  5
58
102
{ACAD_REACTORS
330
47
102
}
330
47
100
AcDbScale
 70
     0
300
100:1
140
100.0
141
1.0
290
     0
  0
ENDSEC
  0
EOF
