  0
SECTION
  2
HEADER
  9
$ACADVER
  1
AC1015
  9
$ACADMAINTVER
 70
     6
  9
$DWGCODEPAGE
  3
ANSI_1252
  9
$INSBASE
 10
0.0
 20
0.0
 30
0.0
  9
$EXTMIN
 10
0.0
 20
0.0
 30
0.0
  9
$EXTMAX
 10
420.0
 20
500.0
 30
0.0
  9
$LIMMIN
 10
0.0
 20
0.0
  9
$LIMMAX
 10
420.0
 20
500.0
  9
$ORTHOMODE
 70
     0
  9
$REGENMODE
 70
     1
  9
$FILLMODE
 70
     1
  9
$QTEXTMODE
 70
     0
  9
$MIRRTEXT
 70
     1
  9
$LTSCALE
 40
1.0
  9
$ATTMODE
 70
     1
  9
$TEXTSIZE
 40
3.5
  9
$TRACEWID
 40
1.0
  9
$TEXTSTYLE
  7
Standard
  9
$CLAYER
  8
0
  9
$CELTYPE
  6
ByLayer
  9
$CECOLOR
 62
   256
  9
$CELTSCALE
 40
1.0
  9
$DISPSILH
 70
     0
  9
$DIMSCALE
 40
1.0
  9
$DIMASZ
 40
3.302
  9
$DIMEXO
 40
1.0
  9
$DIMDLI
 40
3.75
  9
$DIMRND
 40
0.0
  9
$DIMDLE
 40
0.0
  9
$DIMEXE
 40
1.0
  9
$DIMTP
 40
0.0
  9
$DIMTM
 40
0.0
  9
$DIMTXT
 40
3.5
  9
$DIMCEN
 40
2.5
  9
$DIMTSZ
 40
0.0
  9
$DIMTOL
 70
     0
  9
$DIMLIM
 70
     0
  9
$DIMTIH
 70
     1
  9
$DIMTOH
 70
     1
  9
$DIMSE1
 70
     0
  9
$DIMSE2
 70
     0
  9
$DIMTAD
 70
     1
  9
$DIMZIN
 70
     1
  9
$DIMBLK
  1

  9
$DIMASO
 70
     1
  9
$DIMSHO
 70
     1
  9
$DIMPOST
  1

  9
$DIMAPOST
  1

  9
$DIMALT
 70
     0
  9
$DIMALTD
 70
     3
  9
$DIMALTF
 40
0.0393700787
  9
$DIMLFAC
 40
1.0
  9
$DIMTOFL
 70
     1
  9
$DIMTVP
 40
0.0
  9
$DIMTIX
 70
     0
  9
$DIMSOXD
 70
     0
  9
$DIMSAH
 70
     0
  9
$DIMBLK1
  1

  9
$DIMBLK2
  1

  9
$DIMSTYLE
  2
ISO-25
  9
$DIMCLRD
 70
     0
  9
$DIMCLRE
 70
     0
  9
$DIMCLRT
 70
     0
  9
$DIMTFAC
 40
1.0
  9
$DIMGAP
 40
1.524
  9
$DIMJUST
 70
     0
  9
$DIMSD1
 70
     0
  9
$DIMSD2
 70
     0
  9
$DIMTOLJ
 70
     0
  9
$DIMTZIN
 70
     1
  9
$DIMALTZ
 70
     0
  9
$DIMALTTZ
 70
     0
  9
$DIMUPT
 70
     0
  9
$DIMDEC
 70
     2
  9
$DIMTDEC
 70
     2
  9
$DIMALTU
 70
     2
  9
$DIMALTTD
 70
     3
  9
$DIMTXSTY
  7
Standard
  9
$DIMAUNIT
 70
     0
  9
$DIMADEC
 70
     2
  9
$DIMALTRND
 40
0.0
  9
$DIMAZIN
 70
     0
  9
$DIMDSEP
 70
    44
  9
$DIMATFIT
 70
     3
  9
$DIMFRAC
 70
     0
  9
$DIMLDRBLK
  1

  9
$DIMLUNIT
 70
     2
  9
$DIMLWD
 70
    -2
  9
$DIMLWE
 70
    -2
  9
$DIMTMOVE
 70
     0
  9
$LUNITS
 70
     2
  9
$LUPREC
 70
     2
  9
$SKETCHINC
 40
1.0
  9
$FILLETRAD
 40
0.0
  9
$AUNITS
 70
     0
  9
$AUPREC
 70
     2
  9
$MENU
  1
.
  9
$ELEVATION
 40
0.0
  9
$PELEVATION
 40
0.0
  9
$THICKNESS
 40
0.0
  9
$LIMCHECK
 70
     0
  9
$CHAMFERA
 40
0.0
  9
$CHAMFERB
 40
0.0
  9
$CHAMFERC
 40
0.0
  9
$CHAMFERD
 40
0.0
  9
$SKPOLY
 70
     0
  9
$TDCREATE
 40
2460404.470240185
  9
$TDUCREATE
 40
2460404.345240185
  9
$TDUPDATE
 40
2460404.47024073
  9
$TDUUPDATE
 40
2460404.34524073
  9
$TDINDWG
 40
0.0000000116
  9
$TDUSRTIMER
 40
0.0000000116
  9
$USRTIMER
 70
     1
  9
$ANGBASE
 50
0.0
  9
$ANGDIR
 70
     0
  9
$PDMODE
 70
     0
  9
$PDSIZE
 40
-1.0
  9
$PLINEWID
 40
0.0
  9
$SPLFRAME
 70
     0
  9
$SPLINETYPE
 70
     6
  9
$SPLINESEGS
 70
     8
  9
$HANDSEED
  5
17E
  9
$SURFTAB1
 70
     6
  9
$SURFTAB2
 70
     6
  9
$SURFTYPE
 70
     6
  9
$SURFU
 70
     6
  9
$SURFV
 70
     6
  9
$UCSBASE
  2

  9
$UCSNAME
  2

  9
$UCSORG
 10
0.0
 20
0.0
 30
0.0
  9
$UCSXDIR
 10
1.0
 20
0.0
 30
0.0
  9
$UCSYDIR
 10
0.0
 20
1.0
 30
0.0
  9
$UCSORTHOREF
  2

  9
$UCSORTHOVIEW
 70
     0
  9
$UCSORGTOP
 10
0.0
 20
0.0
 30
0.0
  9
$UCSORGBOTTOM
 10
0.0
 20
0.0
 30
0.0
  9
$UCSORGLEFT
 10
0.0
 20
0.0
 30
0.0
  9
$UCSORGRIGHT
 10
0.0
 20
0.0
 30
0.0
  9
$UCSORGFRONT
 10
0.0
 20
0.0
 30
0.0
  9
$UCSORGBACK
 10
0.0
 20
0.0
 30
0.0
  9
$PUCSBASE
  2

  9
$PUCSNAME
  2

  9
$PUCSORG
 10
0.0
 20
0.0
 30
0.0
  9
$PUCSXDIR
 10
1.0
 20
0.0
 30
0.0
  9
$PUCSYDIR
 10
0.0
 20
1.0
 30
0.0
  9
$PUCSORTHOREF
  2

  9
$PUCSORTHOVIEW
 70
     0
  9
$PUCSORGTOP
 10
0.0
 20
0.0
 30
0.0
  9
$PUCSORGBOTTOM
 10
0.0
 20
0.0
 30
0.0
  9
$PUCSORGLEFT
 10
0.0
 20
0.0
 30
0.0
  9
$PUCSORGRIGHT
 10
0.0
 20
0.0
 30
0.0
  9
$PUCSORGFRONT
 10
0.0
 20
0.0
 30
0.0
  9
$PUCSORGBACK
 10
0.0
 20
0.0
 30
0.0
  9
$USERI1
 70
     0
  9
$USERI2
 70
     0
  9
$USERI3
 70
     0
  9
$USERI4
 70
     0
  9
$USERI5
 70
     0
  9
$USERR1
 40
0.0
  9
$USERR2
 40
0.0
  9
$USERR3
 40
0.0
  9
$USERR4
 40
0.0
  9
$USERR5
 40
0.0
  9
$WORLDVIEW
 70
     1
  9
$SHADEDGE
 70
     3
  9
$SHADEDIF
 70
    70
  9
$TILEMODE
 70
     1
  9
$MAXACTVP
 70
    64
  9
$PINSBASE
 10
0.0
 20
0.0
 30
0.0
  9
$PLIMCHECK
 70
     0
  9
$PEXTMIN
 10
1.0000000000E+20
 20
1.0000000000E+20
 30
1.0000000000E+20
  9
$PEXTMAX
 10
-1.0000000000E+20
 20
-1.0000000000E+20
 30
-1.0000000000E+20
  9
$PLIMMIN
 10
0.0
 20
0.0
  9
$PLIMMAX
 10
420.0
 20
297.0
  9
$UNITMODE
 70
     0
  9
$VISRETAIN
 70
     1
  9
$PLINEGEN
 70
     0
  9
$PSLTSCALE
 70
     1
  9
$TREEDEPTH
 70
  3020
  9
$CMLSTYLE
  2
Standard
  9
$CMLJUST
 70
     0
  9
$CMLSCALE
 40
20.0
  9
$PROXYGRAPHICS
 70
     1
  9
$MEASUREMENT
 70
     1
  9
$CELWEIGHT
370
    -1
  9
$ENDCAPS
280
     0
  9
$JOINSTYLE
280
     0
  9
$LWDISPLAY
290
     1
  9
$INSUNITS
 70
     4
  9
$HYPERLINKBASE
  1

  9
$STYLESHEET
  1

  9
$XEDIT
290
     1
  9
$CEPSNTYPE
380
     0
  9
$PSTYLEMODE
290
     1
  9
$FINGERPRINTGUID
  2
{3eaefb4e-2e0f-473a-8ca4-93f9f41838d0}
  9
$VERSIONGUID
  2
{FAEB1C32-E019-11D5-929B-00C0DF256EC4}
  9
$EXTNAMES
290
     1
  9
$PSVPSCALE
 40
0.0
  9
$OLESTARTUP
290
     0
  0
ENDSEC
  0
SECTION
  2
CLASSES
  0
CLASS
  1
ACDBDICTIONARYWDFLT
  2
AcDbDictionaryWithDefault
  3
ObjectDBX Classes
 90
        0
280
     0
281
     0
  0
CLASS
  1
VISUALSTYLE
  2
AcDbVisualStyle
  3
ObjectDBX Classes
 90
     4095
280
     0
281
     0
  0
CLASS
  1
MATERIAL
  2
AcDbMaterial
  3
ObjectDBX Classes
 90
     1153
280
     0
281
     0
  0
CLASS
  1
SCALE
  2
AcDbScale
  3
ObjectDBX Classes
 90
     1153
280
     0
281
     0
  0
CLASS
  1
TABLESTYLE
  2
AcDbTableStyle
  3
ObjectDBX Classes
 90
     4095
280
     0
281
     0
  0
CLASS
  1
MLEADERSTYLE
  2
AcDbMLeaderStyle
  3
ACDB_MLEADERSTYLE_CLASS
 90
     4095
280
     0
281
     0
  0
CLASS
  1
SUN
  2
AcDbSun
  3
SCENEOE
 90
     1153
280
     0
281
     0
  0
CLASS
  1
ACDBPLACEHOLDER
  2
AcDbPlaceHolder
  3
ObjectDBX Classes
 90
        0
280
     0
281
     0
  0
CLASS
  1
LAYOUT
  2
AcDbLayout
  3
ObjectDBX Classes
 90
        0
280
     0
281
     0
  0
ENDSEC
  0
SECTION
  2
TABLES
  0
TABLE
  2
VPORT
  5
8
330
0
100
AcDbSymbolTable
 70
     1
  0
VPORT
  5
29
330
8
100
AcDbSymbolTableRecord
100
AcDbViewportTableRecord
  2
*Active
 70
     0
 10
0.0
 20
0.0
 11
1.0
 21
1.0
 12
210.0
 22
250.0
 13
0.0
 23
0.0
 14
10.0
 24
10.0
 15
10.0
 25
10.0
 16
0.0
 26
0.0
 36
1.0
 17
0.0
 27
0.0
 37
0.0
 40
500.0
 41
0.84
 42
50.0
 43
0.0
 44
0.0
 50
0.0
 51
0.0
 71
     0
 72
  2000
 73
     1
 74
     3
 75
     0
 76
     0
 77
     0
 78
     0
281
     0
 65
     1
110
0.0
120
0.0
130
0.0
111
1.0
121
0.0
131
0.0
112
0.0
122
1.0
132
0.0
 79
     0
146
0.0
  0
ENDTAB
  0
TABLE
  2
LTYPE
  5
5
330
0
100
AcDbSymbolTable
 70
     6
  0
LTYPE
  5
14
330
5
100
AcDbSymbolTableRecord
100
AcDbLinetypeTableRecord
  2
ByBlock
 70
     0
  3

 72
    65
 73
     0
 40
0.0
  0
LTYPE
  5
15
330
5
100
AcDbSymbolTableRecord
100
AcDbLinetypeTableRecord
  2
ByLayer
 70
     0
  3

 72
    65
 73
     0
 40
0.0
  0
LTYPE
  5
16
330
5
100
AcDbSymbolTableRecord
100
AcDbLinetypeTableRecord
  2
Continuous
 70
     0
  3
Solid line
 72
    65
 73
     0
 40
0.0
  0
LTYPE
  5
5E
330
5
100
AcDbSymbolTableRecord
100
AcDbLinetypeTableRecord
  2
HIDDEN
 70
     0
  3
Hidden __ __ __ __ __ __ __ __ __ __ __ __ __ __
 72
    65
 73
     2
 40
1.905
 49
1.27
 74
     0
 49
-0.635
 74
     0
  0
LTYPE
  5
5F
330
5
100
AcDbSymbolTableRecord
100
AcDbLinetypeTableRecord
  2
PHANTOM
 70
     0
  3
Phantom ______  __  __  ______  __  __  ______
 72
    65
 73
     6
 40
12.7
 49
6.35
 74
     0
 49
-1.27
 74
     0
 49
1.27
 74
     0
 49
-1.27
 74
     0
 49
1.27
 74
     0
 49
-1.27
 74
     0
  0
LTYPE
  5
60
330
5
100
AcDbSymbolTableRecord
100
AcDbLinetypeTableRecord
  2
CENTER
 70
     0
  3
Center ____ _ ____ _ ____ _ ____ _ ____ _ ____
 72
    65
 73
     4
 40
10.16
 49
6.35
 74
     0
 49
-1.27
 74
     0
 49
1.27
 74
     0
 49
-1.27
 74
     0
  0
LTYPE
  5
61
330
5
100
AcDbSymbolTableRecord
100
AcDbLinetypeTableRecord
  2
CENTERX2
 70
     0
  3
Center (2x) ________  __  ________  __  _____
 72
    65
 73
     4
 40
20.32
 49
12.7
 74
     0
 49
-2.54
 74
     0
 49
2.54
 74
     0
 49
-2.54
 74
     0
  0
LTYPE
  5
62
330
5
100
AcDbSymbolTableRecord
100
AcDbLinetypeTableRecord
  2
DOT2
 70
     0
  3
Dot (.5x) ........................................
 72
    65
 73
     2
 40
0.635
 49
0.0
 74
     0
 49
-0.635
 74
     0
  0
ENDTAB
  0
TABLE
  2
LAYER
  5
2
330
0
100
AcDbSymbolTable
 70
     2
  0
LAYER
  5
10
330
2
100
AcDbSymbolTableRecord
100
AcDbLayerTableRecord
  2
0
 70
     0
 62
     7
  6
Continuous
370
    -3
390
F
  0
LAYER
  5
63
330
2
100
AcDbSymbolTableRecord
100
AcDbLayerTableRecord
  2
TABLE_BL1
 70
     0
 62
   179
  6
Continuous
370
    -3
390
F
  0
ENDTAB
  0
TABLE
  2
STYLE
  5
3
330
0
100
AcDbSymbolTable
 70
     1
  0
STYLE
  5
11
330
3
100
AcDbSymbolTableRecord
100
AcDbTextStyleTableRecord
  2
Standard
 70
     0
 40
0.0
 41
1.0
 50
0.0
 71
     0
 42
3.5
  3
txt
  4

  0
ENDTAB
  0
TABLE
  2
VIEW
  5
6
330
0
100
AcDbSymbolTable
 70
     0
  0
ENDTAB
  0
TABLE
  2
UCS
  5
7
330
0
100
AcDbSymbolTable
 70
     0
  0
ENDTAB
  0
TABLE
  2
APPID
  5
9
330
0
100
AcDbSymbolTable
 70
     1
  0
APPID
  5
12
330
9
100
AcDbSymbolTableRecord
100
AcDbRegAppTableRecord
  2
ACAD
 70
     0
  0
ENDTAB
  0
TABLE
  2
DIMSTYLE
  5
A
330
0
100
AcDbSymbolTable
 70
     1
100
AcDbDimStyleTable
  0
DIMSTYLE
105
27
330
A
100
AcDbSymbolTableRecord
100
AcDbDimStyleTableRecord
  2
ISO-25
 70
     0
 41
2.5
 42
0.625
 43
3.75
 44
1.25
 73
     0
 74
     0
 77
     1
 78
     8
140
2.5
141
2.5
143
0.0393700787
147
0.625
171
     3
172
     1
178
     0
271
     2
272
     2
274
     3
278
    44
283
     0
284
     8
340
11
  0
ENDTAB
  0
TABLE
  2
BLOCK_RECORD
  5
1
330
0
100
AcDbSymbolTable
 70
     1
  0
BLOCK_RECORD
  5
1F
330
1
100
AcDbSymbolTableRecord
100
AcDbBlockTableRecord
  2
*Model_Space
340
22
  0
BLOCK_RECORD
  5
1B
330
1
100
AcDbSymbolTableRecord
100
AcDbBlockTableRecord
  2
*Paper_Space
340
1E
  0
BLOCK_RECORD
  5
23
330
1
100
AcDbSymbolTableRecord
100
AcDbBlockTableRecord
  2
*Paper_Space0
340
26
  0
ENDTAB
  0
ENDSEC
  0
SECTION
  2
BLOCKS
  0
BLOCK
  5
20
330
1F
100
AcDbEntity
  8
0
100
AcDbBlockBegin
  2
*Model_Space
 70
     0
 10
0.0
 20
0.0
 30
0.0
  3
*Model_Space
  1

  0
ENDBLK
  5
21
330
1F
100
AcDbEntity
  8
0
100
AcDbBlockEnd
  0
BLOCK
  5
1C
330
1B
100
AcDbEntity
 67
     1
  8
0
100
AcDbBlockBegin
  2
*Paper_Space
 70
     0
 10
0.0
 20
0.0
 30
0.0
  3
*Paper_Space
  1

  0
ENDBLK
  5
1D
330
1B
100
AcDbEntity
 67
     1
  8
0
100
AcDbBlockEnd
  0
BLOCK
  5
24
330
23
100
AcDbEntity
  8
0
100
AcDbBlockBegin
  2
*Paper_Space0
 70
     0
 10
0.0
 20
0.0
 30
0.0
  3
*Paper_Space0
  1

  0
ENDBLK
  5
25
330
23
100
AcDbEntity
  8
0
100
AcDbBlockEnd
  0
ENDSEC
  0
SECTION
  2
ENTITIES
  0
CIRCLE
  5
64
330
1F
100
AcDbEntity
  8
0
  6
Continuous
 62
     7
370
    25
100
AcDbCircle
 10
211.9702247433
 20
327.1880682952
 30
0.0
 40
8.899999999999972
  0
ARC
  5
65
330
1F
100
AcDbEntity
  8
0
  6
Continuous
 62
     7
370
    25
100
AcDbCircle
 10
356.9702247433
 20
412.1880682952
 30
0.0
 40
40.0
100
AcDbArc
 50
0.0
 51
90.0
  0
LINE
  5
66
330
1F
100
AcDbEntity
  8
0
  6
Continuous
 62
     7
370
    25
100
AcDbLine
 10
396.9702247433
 20
412.1880682952
 30
0.0
 11
395.9281891174
 21
412.1880682952
 31
0.0
  0
ARC
  5
67
330
1F
100
AcDbEntity
  8
0
  6
Continuous
 62
     7
370
    25
100
AcDbCircle
 10
356.9702247433
 20
412.1880682952
 30
0.0
 40
38.95796437412241
100
AcDbArc
 50
0.0
 51
90.0
  0
LINE
  5
68
330
1F
100
AcDbEntity
  8
0
  6
Continuous
 62
     7
370
    25
100
AcDbLine
 10
356.9702247433
 20
452.1880682952
 30
0.0
 11
356.9702247433
 21
451.1460326693
 31
0.0
  0
ARC
  5
69
330
1F
100
AcDbEntity
  8
0
  6
Continuous
 62
     7
370
    25
100
AcDbCircle
 10
66.9702247433
 20
412.1880682952
 30
0.0
 40
40.0
100
AcDbArc
 50
90.0
 51
180.0
  0
LINE
  5
6A
330
1F
100
AcDbEntity
  8
0
  6
Continuous
 62
     7
370
    25
100
AcDbLine
 10
66.9702247433
 20
452.1880682952
 30
0.0
 11
66.9702247433
 21
451.1460326693
 31
0.0
  0
ARC
  5
6B
330
1F
100
AcDbEntity
  8
0
  6
Continuous
 62
     7
370
    25
100
AcDbCircle
 10
66.9702247433
 20
412.1880682952
 30
0.0
 40
38.95796437412241
100
AcDbArc
 50
90.0
 51
180.0
  0
LINE
  5
6C
330
1F
100
AcDbEntity
  8
0
  6
Continuous
 62
     7
370
    25
100
AcDbLine
 10
26.9702247433
 20
412.1880682952
 30
0.0
 11
28.0122603692
 21
412.1880682952
 31
0.0
  0
ARC
  5
6D
330
1F
100
AcDbEntity
  8
0
  6
Continuous
 62
     7
370
    25
100
AcDbCircle
 10
356.9702247433
 20
412.1880682952
 30
0.0
 40
26.42344685007231
100
AcDbArc
 50
0.0
 51
90.0
  0
LINE
  5
6E
330
1F
100
AcDbEntity
  8
0
  6
Continuous
 62
     7
370
    25
100
AcDbLine
 10
66.9702247433
 20
438.6115151453
 30
0.0
 11
356.9702247433
 21
438.6115151453
 31
0.0
  0
ARC
  5
6F
330
1F
100
AcDbEntity
  8
0
  6
Continuous
 62
     7
370
    25
100
AcDbCircle
 10
66.9702247433
 20
412.1880682952
 30
0.0
 40
26.42344685007225
100
AcDbArc
 50
90.0
 51
180.0
  0
LINE
  5
70
330
1F
100
AcDbEntity
  8
0
  6
Continuous
 62
     7
370
    25
100
AcDbLine
 10
40.5467778932
 20
77.1880682952
 30
0.0
 11
40.5467778932
 21
412.1880682952
 31
0.0
  0
ARC
  5
71
330
1F
100
AcDbEntity
  8
0
  6
Continuous
 62
     7
370
    25
100
AcDbCircle
 10
66.9702247433
 20
77.1880682952
 30
0.0
 40
26.42344685007237
100
AcDbArc
 50
180.0
 51
270.0
  0
LINE
  5
72
330
1F
100
AcDbEntity
  8
0
  6
Continuous
 62
     7
370
    25
100
AcDbLine
 10
356.9702247433
 20
50.7646214451
 30
0.0
 11
66.9702247433
 21
50.7646214451
 31
0.0
  0
ARC
  5
73
330
1F
100
AcDbEntity
  8
0
  6
Continuous
 62
     7
370
    25
100
AcDbCircle
 10
356.9702247433
 20
77.1880682952
 30
0.0
 40
26.42344685007237
100
AcDbArc
 50
270.0
 51
0.0
  0
LINE
  5
74
330
1F
100
AcDbEntity
  8
0
  6
Continuous
 62
     7
370
    25
100
AcDbLine
 10
383.3936715934
 20
412.1880682952
 30
0.0
 11
383.3936715934
 21
77.1880682952
 31
0.0
  0
LINE
  5
75
330
1F
100
AcDbEntity
  8
0
  6
Continuous
 62
     7
370
    25
100
AcDbLine
 10
66.9702247433
 20
38.2301039211
 30
0.0
 11
356.9702247433
 21
38.2301039211
 31
0.0
  0
ARC
  5
76
330
1F
100
AcDbEntity
  8
0
  6
Continuous
 62
     7
370
    25
100
AcDbCircle
 10
66.9702247433
 20
77.1880682952
 30
0.0
 40
38.95796437412248
100
AcDbArc
 50
180.0
 51
270.0
  0
LINE
  5
77
330
1F
100
AcDbEntity
  8
0
  6
Continuous
 62
     7
370
    25
100
AcDbLine
 10
28.0122603692
 20
412.1880682952
 30
0.0
 11
28.0122603692
 21
77.1880682952
 31
0.0
  0
LINE
  5
78
330
1F
100
AcDbEntity
  8
0
  6
Continuous
 62
     7
370
    25
100
AcDbLine
 10
356.9702247433
 20
451.1460326693
 30
0.0
 11
66.9702247433
 21
451.1460326693
 31
0.0
  0
LINE
  5
79
330
1F
100
AcDbEntity
  8
0
  6
Continuous
 62
     7
370
    25
100
AcDbLine
 10
395.9281891174
 20
77.1880682952
 30
0.0
 11
395.9281891174
 21
412.1880682952
 31
0.0
  0
ARC
  5
7A
330
1F
100
AcDbEntity
  8
0
  6
Continuous
 62
     7
370
    25
100
AcDbCircle
 10
356.9702247433
 20
77.1880682952
 30
0.0
 40
38.95796437412248
100
AcDbArc
 50
270.0
 51
0.0
  0
LINE
  5
7B
330
1F
100
AcDbEntity
  8
0
  6
Continuous
 62
     7
370
    25
100
AcDbLine
 10
66.9702247433
 20
452.1880682952
 30
0.0
 11
356.9702247433
 21
452.1880682952
 31
0.0
  0
LINE
  5
7C
330
1F
100
AcDbEntity
  8
0
  6
Continuous
 62
     7
370
    25
100
AcDbLine
 10
356.9702247433
 20
438.6115151453
 30
0.0
 11
356.9702247433
 21
437.1135708432
 31
0.0
  0
LINE
  5
7D
330
1F
100
AcDbEntity
  8
0
  6
Continuous
 62
     7
370
    25
100
AcDbLine
 10
356.9702247433
 20
437.1135708432
 30
0.0
 11
66.9702247433
 21
437.1135708432
 31
0.0
  0
LINE
  5
7E
330
1F
100
AcDbEntity
  8
0
  6
Continuous
 62
     7
370
    25
100
AcDbLine
 10
66.9702247433
 20
438.6115151453
 30
0.0
 11
66.9702247433
 21
437.1135708432
 31
0.0
  0
ARC
  5
7F
330
1F
100
AcDbEntity
  8
0
  6
Continuous
 62
     7
370
    25
100
AcDbCircle
 10
66.9702247433
 20
412.1880682952
 30
0.0
 40
24.92550254794043
100
AcDbArc
 50
90.0
 51
180.0
  0
LINE
  5
80
330
1F
100
AcDbEntity
  8
0
  6
Continuous
 62
     7
370
    25
100
AcDbLine
 10
42.0447221954
 20
412.1880682952
 30
0.0
 11
40.5467778932
 21
412.1880682952
 31
0.0
  0
LINE
  5
81
330
1F
100
AcDbEntity
  8
0
  6
Continuous
 62
     7
370
    25
100
AcDbLine
 10
383.3936715934
 20
412.1880682952
 30
0.0
 11
381.8957272913
 21
412.1880682952
 31
0.0
  0
ARC
  5
82
330
1F
100
AcDbEntity
  8
0
  6
Continuous
 62
     7
370
    25
100
AcDbCircle
 10
356.9702247433
 20
412.1880682952
 30
0.0
 40
24.92550254794048
100
AcDbArc
 50
0.0
 51
90.0
  0
LINE
  5
83
330
1F
100
AcDbEntity
  8
0
  6
Continuous
 62
     7
370
    25
100
AcDbLine
 10
28.0122603692
 20
77.1880682952
 30
0.0
 11
26.9702247433
 21
77.1880682952
 31
0.0
  0
LINE
  5
84
330
1F
100
AcDbEntity
  8
0
  6
Continuous
 62
     7
370
    25
100
AcDbLine
 10
26.9702247433
 20
77.1880682952
 30
0.0
 11
26.9702247433
 21
412.1880682952
 31
0.0
  0
LINE
  5
85
330
1F
100
AcDbEntity
  8
0
  6
Continuous
 62
     7
370
    25
100
AcDbLine
 10
383.3936715934
 20
77.1880682952
 30
0.0
 11
381.8957272913
 21
77.1880682952
 31
0.0
  0
LINE
  5
86
330
1F
100
AcDbEntity
  8
0
  6
Continuous
 62
     7
370
    25
100
AcDbLine
 10
381.8957272913
 20
77.1880682952
 30
0.0
 11
381.8957272913
 21
412.1880682952
 31
0.0
  0
LINE
  5
87
330
1F
100
AcDbEntity
  8
0
  6
Continuous
 62
     7
370
    25
100
AcDbLine
 10
396.9702247433
 20
412.1880682952
 30
0.0
 11
396.9702247433
 21
77.1880682952
 31
0.0
  0
LINE
  5
88
330
1F
100
AcDbEntity
  8
0
  6
Continuous
 62
     7
370
    25
100
AcDbLine
 10
395.9281891174
 20
77.1880682952
 30
0.0
 11
396.9702247433
 21
77.1880682952
 31
0.0
  0
LINE
  5
89
330
1F
100
AcDbEntity
  8
0
  6
Continuous
 62
     7
370
    25
100
AcDbLine
 10
42.0447221954
 20
412.1880682952
 30
0.0
 11
42.0447221954
 21
77.1880682952
 31
0.0
  0
LINE
  5
8A
330
1F
100
AcDbEntity
  8
0
  6
Continuous
 62
     7
370
    25
100
AcDbLine
 10
42.0447221954
 20
77.1880682952
 30
0.0
 11
40.5467778932
 21
77.1880682952
 31
0.0
  0
ARC
  5
8B
330
1F
100
AcDbEntity
  8
0
  6
Continuous
 62
     7
370
    25
100
AcDbCircle
 10
66.9702247433
 20
77.1880682952
 30
0.0
 40
24.92550254794047
100
AcDbArc
 50
180.0
 51
270.0
  0
LINE
  5
8C
330
1F
100
AcDbEntity
  8
0
  6
Continuous
 62
     7
370
    25
100
AcDbLine
 10
66.9702247433
 20
52.2625657473
 30
0.0
 11
66.9702247433
 21
50.7646214451
 31
0.0
  0
ARC
  5
8D
330
1F
100
AcDbEntity
  8
0
  6
Continuous
 62
     7
370
    25
100
AcDbCircle
 10
356.9702247433
 20
77.1880682952
 30
0.0
 40
24.92550254794047
100
AcDbArc
 50
270.0
 51
0.0
  0
LINE
  5
8E
330
1F
100
AcDbEntity
  8
0
  6
Continuous
 62
     7
370
    25
100
AcDbLine
 10
356.9702247433
 20
52.2625657473
 30
0.0
 11
356.9702247433
 21
50.7646214451
 31
0.0
  0
LINE
  5
8F
330
1F
100
AcDbEntity
  8
0
  6
Continuous
 62
     7
370
    25
100
AcDbLine
 10
66.9702247433
 20
38.2301039211
 30
0.0
 11
66.9702247433
 21
37.1880682952
 31
0.0
  0
ARC
  5
90
330
1F
100
AcDbEntity
  8
0
  6
Continuous
 62
     7
370
    25
100
AcDbCircle
 10
66.9702247433
 20
77.1880682952
 30
0.0
 40
40.00000000000004
100
AcDbArc
 50
180.0
 51
270.0
  0
ARC
  5
91
330
1F
100
AcDbEntity
  8
0
  6
Continuous
 62
     7
370
    25
100
AcDbCircle
 10
356.9702247433
 20
77.1880682952
 30
0.0
 40
40.00000000000004
100
AcDbArc
 50
270.0
 51
0.0
  0
LINE
  5
92
330
1F
100
AcDbEntity
  8
0
  6
Continuous
 62
     7
370
    25
100
AcDbLine
 10
356.9702247433
 20
38.2301039211
 30
0.0
 11
356.9702247433
 21
37.1880682952
 31
0.0
  0
LINE
  5
93
330
1F
100
AcDbEntity
  8
0
  6
Continuous
 62
     7
370
    25
100
AcDbLine
 10
66.9702247433
 20
52.2625657473
 30
0.0
 11
356.9702247433
 21
52.2625657473
 31
0.0
  0
LINE
  5
94
330
1F
100
AcDbEntity
  8
0
  6
Continuous
 62
     7
370
    25
100
AcDbLine
 10
356.9702247433
 20
37.1880682952
 30
0.0
 11
66.9702247433
 21
37.1880682952
 31
0.0
  0
LINE
  5
95
330
1F
100
AcDbEntity
  8
0
  6
Continuous
 62
     7
370
    25
100
AcDbLine
 10
187.7202247433
 20
435.4648806346
 30
0.0
 11
187.7202247433
 21
434.3134895972
 31
0.0
  0
ARC
  5
96
330
1F
100
AcDbEntity
  8
0
  6
Continuous
 62
     7
370
    25
100
AcDbCircle
 10
188.4709095064
 20
439.0772362605
 30
0.0
 40
4.82253148099886
100
AcDbArc
 50
261.0448095014
 51
272.9633983003
  0
LINE
  5
97
330
1F
100
AcDbEntity
  8
0
  6
Continuous
 62
     7
370
    25
100
AcDbLine
 10
188.7202247433
 20
434.261153641
 30
0.0
 11
235.2202247433
 21
434.261153641
 31
0.0
  0
ARC
  5
98
330
1F
100
AcDbEntity
  8
0
  6
Continuous
 62
     7
370
    25
100
AcDbCircle
 10
235.4695399802
 20
439.0772362605
 30
0.0
 40
4.822531480999939
100
AcDbArc
 50
267.0366016998
 51
278.9551904986
  0
LINE
  5
99
330
1F
100
AcDbEntity
  8
0
  6
Continuous
 62
     7
370
    25
100
AcDbLine
 10
236.2202247433
 20
434.3134895972
 30
0.0
 11
236.2202247433
 21
435.4648806346
 31
0.0
  0
ARC
  5
9A
330
1F
100
AcDbEntity
  8
0
  6
Continuous
 62
     7
370
    25
100
AcDbCircle
 10
235.4695399802
 20
430.7011339713
 30
0.0
 40
4.822531481008372
100
AcDbArc
 50
81.0448095014
 51
92.9633983002
  0
LINE
  5
9B
330
1F
100
AcDbEntity
  8
0
  6
Continuous
 62
     7
370
    25
100
AcDbLine
 10
235.2202247433
 20
435.5172165908
 30
0.0
 11
188.7202247433
 21
435.5172165908
 31
0.0
  0
ARC
  5
9C
330
1F
100
AcDbEntity
  8
0
  6
Continuous
 62
     7
370
    25
100
AcDbCircle
 10
188.4709095064
 20
430.7011339713
 30
0.0
 40
4.822531481003503
100
AcDbArc
 50
87.0366016998
 51
98.9551904986
  0
SPLINE
  5
9D
330
1F
100
AcDbEntity
  8
0
  6
Continuous
 62
     7
370
    25
100
AcDbSpline
210
0.0
220
0.0
230
1.0
 70
     8
 71
     3
 72
    14
 73
    10
 74
     0
 42
0.00000001
 43
0.00000001
 40
0.0
 40
0.0
 40
0.0
 40
0.0
 40
0.1416418592737028
 40
0.283282754464818
 40
0.4250451509087889
 40
0.5668053210537427
 40
0.675077894007785
 40
0.7833514471234174
 40
1.0
 40
1.0
 40
1.0
 40
1.0
 10
66.97022474331233
 20
429.2705158626596
 30
0.0
 10
80.65310142654997
 20
429.2354394420086
 30
0.0
 10
108.0187616607887
 20
429.1652868394534
 30
0.0
 10
149.1062035774375
 20
429.0930098149404
 30
0.0
 10
190.2202959061966
 20
429.050863657069
 30
0.0
 10
228.116176595343
 20
429.0489589805549
 30
0.0
 10
262.766358160309
 20
429.0792726393289
 30
0.0
 10
304.6485425269583
 20
429.1405063498111
 30
0.0
 10
336.0395916844272
 20
429.2185071868615
 30
0.0
 10
356.9702247433125
 20
429.2705158626596
 30
0.0
  0
LINE
  5
9E
330
1F
100
AcDbEntity
  8
0
  6
Continuous
 62
     7
370
    25
100
AcDbLine
 10
66.9702247433
 20
437.1135708432
 30
0.0
 11
66.9702247433
 21
429.2705158627
 31
0.0
  0
LINE
  5
9F
330
1F
100
AcDbEntity
  8
0
  6
Continuous
 62
     7
370
    25
100
AcDbLine
 10
356.9702247433
 20
437.1135708432
 30
0.0
 11
356.9702247433
 21
429.2705158627
 31
0.0
  0
SPLINE
  5
A0
330
1F
100
AcDbEntity
  8
0
  6
Continuous
 62
     7
370
    25
100
AcDbSpline
210
0.0
220
0.0
230
1.0
 70
     8
 71
     3
 72
    15
 73
    11
 74
     0
 42
0.00000001
 43
0.00000001
 40
0.0
 40
0.0
 40
0.0
 40
0.0
 40
0.1277272117026999
 40
0.250000621466342
 40
0.3758169053141822
 40
0.500000000741431
 40
0.6241812692474732
 40
0.7499993797239397
 40
0.8722717995237486
 40
1.0
 40
1.0
 40
1.0
 40
1.0
 10
356.9702247433125
 20
429.2705158626596
 30
0.0
 10
358.1109343607837
 20
429.2015671022229
 30
0.0
 10
360.3436466346898
 20
429.0666136124477
 30
0.0
 10
363.5682205576655
 20
428.0383660893413
 30
0.0
 10
366.5157716018592
 20
426.4673001569316
 30
0.0
 10
369.1116560385212
 20
424.3295225830032
 30
0.0
 10
371.2494471713117
 20
421.7336292159927
 30
0.0
 10
372.820513454135
 20
418.7860875141499
 30
0.0
 10
373.8487681427814
 20
415.561499132192
 30
0.0
 10
373.9837225483485
 20
413.3287867857465
 30
0.0
 10
374.0526723107546
 20
412.1880682952176
 30
0.0
  0
LINE
  5
A1
330
1F
100
AcDbEntity
  8
0
  6
Continuous
 62
     7
370
    25
100
AcDbLine
 10
381.8957272913
 20
412.1880682952
 30
0.0
 11
374.0526723108
 21
412.1880682952
 31
0.0
  0
SPLINE
  5
A2
330
1F
100
AcDbEntity
  8
0
  6
Continuous
 62
     7
370
    25
100
AcDbSpline
210
0.0
220
0.0
230
1.0
 70
     8
 71
     3
 72
    15
 73
    11
 74
     0
 42
0.00000001
 43
0.00000001
 40
0.0
 40
0.0
 40
0.0
 40
0.0
 40
0.1277272124220027
 40
0.2500006214662501
 40
0.3758169059605613
 40
0.5000000007414165
 40
0.6241812686443761
 40
0.7499993797240045
 40
0.872271798852504
 40
0.9999999999999999
 40
0.9999999999999999
 40
0.9999999999999999
 40
0.9999999999999999
 10
49.88777717587056
 20
412.1880682952175
 30
0.0
 10
49.95672593703221
 20
413.3287779191411
 30
0.0
 10
50.091679427466
 20
415.5614901931022
 30
0.0
 10
51.11992695397782
 20
418.7860641207678
 30
0.0
 10
52.69099288490969
 20
421.733615158763
 30
0.0
 10
54.82877045658735
 20
424.3294995899111
 30
0.0
 10
57.42466381787337
 20
426.4672907201285
 30
0.0
 10
60.37220551393197
 20
428.038357001571
 30
0.0
 10
63.59679390026535
 20
429.0666116933952
 30
0.0
 10
65.82950624676226
 20
429.2015660995771
 30
0.0
 10
66.97022474331233
 20
429.2705158626596
 30
0.0
  0
LINE
  5
A3
330
1F
100
AcDbEntity
  8
0
  6
Continuous
 62
     7
370
    25
100
AcDbLine
 10
42.0447221954
 20
412.1880682952
 30
0.0
 11
49.8877771759
 21
412.1880682952
 31
0.0
  0
LINE
  5
A4
330
1F
100
AcDbEntity
  8
0
  6
Continuous
 62
     7
370
    25
100
AcDbLine
 10
49.8967211705
 20
412.1861702953
 30
0.0
 11
49.8877771759
 21
412.1880682952
 31
0.0
  0
SPLINE
  5
A5
330
1F
100
AcDbEntity
  8
0
  6
Continuous
 62
     7
370
    25
100
AcDbSpline
210
0.0
220
0.0
230
1.0
 70
     8
 71
     3
 72
    14
 73
    10
 74
     0
 42
0.00000001
 43
0.00000001
 40
0.0
 40
0.0
 40
0.0
 40
0.0
 40
0.1421653558241427
 40
0.2843364374989546
 40
0.4265001241230321
 40
0.5689494416617654
 40
0.711407809330231
 40
0.8538541196898948
 40
1.0
 40
1.0
 40
1.0
 40
1.0
 10
49.41627875190774
 20
77.18806829521763
 30
0.0
 10
49.47865291561876
 20
93.03254722764991
 30
0.0
 10
49.60340375522221
 20
124.7221432446143
 30
0.0
 10
49.74931973101127
 20
172.3101833143658
 30
0.0
 10
49.86306932081131
 20
219.961156988929
 30
0.0
 10
49.9386598821312
 20
267.6729973192326
 30
0.0
 10
49.97188003702779
 20
315.4335442870411
 30
0.0
 10
49.96327874501977
 20
363.613279123716
 30
0.0
 10
49.91909582772136
 20
395.8574233707726
 30
0.0
 10
49.89672117049921
 20
412.1861702952671
 30
0.0
  0
LINE
  5
A6
330
1F
100
AcDbEntity
  8
0
  6
Continuous
 62
     7
370
    25
100
AcDbLine
 10
42.0447221954
 20
77.1880682952
 30
0.0
 11
49.4162787519
 21
77.1880682952
 31
0.0
  0
SPLINE
  5
A7
330
1F
100
AcDbEntity
  8
0
  6
Continuous
 62
     7
370
    25
100
AcDbSpline
210
0.0
220
0.0
230
1.0
 70
     8
 71
     3
 72
    15
 73
    11
 74
     0
 42
0.00000001
 43
0.00000001
 40
0.0
 40
0.0
 40
0.0
 40
0.0
 40
0.1203969716547336
 40
0.2407933190589451
 40
0.3612955072028615
 40
0.4817982483628453
 40
0.6113057324163224
 40
0.7408138661147203
 40
0.8704068237473349
 40
1.0
 40
1.0
 40
1.0
 40
1.0
 10
374.043728316141
 20
412.1861703046078
 30
0.0
 10
374.0248052107002
 20
398.7346760798275
 30
0.0
 10
373.9869590979339
 20
371.8317573753958
 30
0.0
 10
373.9685948876763
 20
331.4509436068573
 30
0.0
 10
373.9812875301704
 20
291.0584441288557
 30
0.0
 10
374.0270370613711
 20
249.6559881622523
 30
0.0
 10
374.1051192144327
 20
207.2640186183705
 30
0.0
 10
374.2159708734224
 20
163.8820166556655
 30
0.0
 10
374.352992668934
 20
120.5171046658922
 30
0.0
 10
374.4671113473703
 20
91.63108854043239
 30
0.0
 10
374.5241707347174
 20
77.18806829521763
 30
0.0
  0
LINE
  5
A8
330
1F
100
AcDbEntity
  8
0
  6
Continuous
 62
     7
370
    25
100
AcDbLine
 10
374.0526723108
 20
412.1880682952
 30
0.0
 11
374.0437283161
 21
412.1861703046
 31
0.0
  0
LINE
  5
A9
330
1F
100
AcDbEntity
  8
0
  6
Continuous
 62
     7
370
    25
100
AcDbLine
 10
381.8957272913
 20
77.1880682952
 30
0.0
 11
374.5241707347
 21
77.1880682952
 31
0.0
  0
SPLINE
  5
AA
330
1F
100
AcDbEntity
  8
0
  6
Continuous
 62
     7
370
    25
100
AcDbSpline
210
0.0
220
0.0
230
1.0
 70
     8
 71
     3
 72
    15
 73
    11
 74
     0
 42
0.00000001
 43
0.00000001
 40
0.0
 40
0.0
 40
0.0
 40
0.0
 40
0.1277272255748705
 40
0.2500006214609049
 40
0.3758169311157532
 40
0.5000000007328521
 40
0.6241812950806352
 40
0.7499993797184937
 40
0.8722718134307305
 40
1.0
 40
1.0
 40
1.0
 40
1.0
 10
374.5241707347174
 20
77.18806829521763
 30
0.0
 10
374.4533188817329
 20
76.01587343712491
 30
0.0
 10
374.3146404817437
 20
73.72153531400755
 30
0.0
 10
373.2580118464526
 20
70.40795862335652
 30
0.0
 10
371.643582385237
 20
67.37905135874811
 30
0.0
 10
369.4467990909924
 20
64.71151690625115
 30
0.0
 10
366.7792557210506
 20
62.51472007293463
 30
0.0
 10
363.7503577867865
 20
60.90029026281118
 30
0.0
 10
360.4367666585622
 20
59.84365447209527
 30
0.0
 10
358.1424284632054
 20
59.70497515749307
 30
0.0
 10
356.9702247433126
 20
59.63412230381282
 30
0.0
  0
LINE
  5
AB
330
1F
100
AcDbEntity
  8
0
  6
Continuous
 62
     7
370
    25
100
AcDbLine
 10
356.9702247433
 20
52.2625657473
 30
0.0
 11
356.9702247433
 21
59.6341223038
 31
0.0
  0
SPLINE
  5
AC
330
1F
100
AcDbEntity
  8
0
  6
Continuous
 62
     7
370
    25
100
AcDbSpline
210
0.0
220
0.0
230
1.0
 70
     8
 71
     3
 72
    15
 73
    11
 74
     0
 42
0.00000001
 43
0.00000001
 40
0.0
 40
0.0
 40
0.0
 40
0.0
 40
0.1277272255720585
 40
0.2500006214609082
 40
0.3758169317197235
 40
0.500000000732819
 40
0.6241812956716675
 40
0.749999379718506
 40
0.8722718134135486
 40
0.9999999999999999
 40
0.9999999999999999
 40
0.9999999999999999
 40
0.9999999999999999
 10
66.97022474331254
 20
59.63412230381271
 30
0.0
 10
65.79802988524447
 20
59.70497415679765
 30
0.0
 10
63.50369176212462
 20
59.84365255679069
 30
0.0
 10
60.19011506616418
 20
60.90028119372614
 30
0.0
 10
57.16120780207707
 20
62.51471065651687
 30
0.0
 10
54.49367334662014
 20
64.71149395528036
 30
0.0
 10
52.2968765178739
 20
67.37903732214274
 30
0.0
 10
50.68244670935568
 20
70.4079352568009
 30
0.0
 10
49.6258109202144
 20
73.72152637981233
 30
0.0
 10
49.48713160560258
 20
76.01586457516768
 30
0.0
 10
49.41627875190774
 20
77.18806829521763
 30
0.0
  0
LINE
  5
AD
330
1F
100
AcDbEntity
  8
0
  6
Continuous
 62
     7
370
    25
100
AcDbLine
 10
66.9702247433
 20
52.2625657473
 30
0.0
 11
66.9702247433
 21
59.6341223038
 31
0.0
  0
LINE
  5
AE
330
1F
100
AcDbEntity
  8
0
  6
Continuous
 62
     7
370
    25
100
AcDbLine
 10
66.9744010126
 20
59.6470098471
 30
0.0
 11
66.9702247433
 21
59.6341223038
 31
0.0
  0
SPLINE
  5
AF
330
1F
100
AcDbEntity
  8
0
  6
Continuous
 62
     7
370
    25
100
AcDbSpline
210
0.0
220
0.0
230
1.0
 70
     8
 71
     3
 72
    13
 73
     9
 74
     0
 42
0.00000001
 43
0.00000001
 40
0.0
 40
0.0
 40
0.0
 40
0.0
 40
0.1664861396825427
 40
0.3329812993316086
 40
0.4994660550566636
 40
0.6663067480585367
 40
0.833157913551422
 40
1.0
 40
1.0
 40
1.0
 40
1.0
 10
356.9660484676791
 20
59.6470098470826
 30
0.0
 10
340.8808987452301
 20
59.68209200581553
 30
0.0
 10
308.709727831318
 20
59.75225822397967
 30
0.0
 10
260.4222660962077
 20
59.80962218638808
 30
0.0
 10
212.0907118560074
 20
59.83066300896623
 30
0.0
 10
163.7246912115328
 20
59.80981754905024
 30
0.0
 10
115.3339199426177
 20
59.75245983957356
 30
0.0
 10
83.09394826349303
 20
59.68215920699538
 30
0.0
 10
66.97440101255886
 20
59.64700984706728
 30
0.0
  0
LINE
  5
B0
330
1F
100
AcDbEntity
  8
0
  6
Continuous
 62
     7
370
    25
100
AcDbLine
 10
356.9702247433
 20
59.6341223038
 30
0.0
 11
356.9660484677
 21
59.6470098471
 31
0.0
  0
LINE
  5
B1
330
1F
100
AcDbEntity
  8
0
  6
Continuous
 62
     7
370
    25
100
AcDbLine
 10
188.7202247433
 20
434.261153641
 30
0.0
 11
188.7202247433
 21
435.0600572688
 31
0.0
  0
ARC
  5
B2
330
1F
100
AcDbEntity
  8
0
  6
Continuous
 62
     7
370
    25
100
AcDbCircle
 10
188.4709095064
 20
439.8761398883
 30
0.0
 40
4.822531480998803
100
AcDbArc
 50
261.0448095014
 51
272.9633983003
  0
LINE
  5
B3
330
1F
100
AcDbEntity
  8
0
  6
Continuous
 62
     7
370
    25
100
AcDbLine
 10
235.2202247433
 20
434.261153641
 30
0.0
 11
235.2202247433
 21
435.0600572688
 31
0.0
  0
ARC
  5
B4
330
1F
100
AcDbEntity
  8
0
  6
Continuous
 62
     7
370
    25
100
AcDbCircle
 10
235.4695399802
 20
439.8761398883
 30
0.0
 40
4.822531480999598
100
AcDbArc
 50
267.0366016998
 51
278.9551904986
  0
LINE
  5
B5
330
1F
100
AcDbEntity
  8
0
  6
Continuous
 62
     7
370
    25
100
AcDbLine
 10
188.7202247433
 20
435.0600572688
 30
0.0
 11
235.2202247433
 21
435.0600572688
 31
0.0
  0
LINE
  5
B6
330
1F
100
AcDbEntity
  8
0
  6
Continuous
 62
     7
370
    25
100
AcDbLine
 10
49.4162787519
 20
77.1880682952
 30
0.0
 11
49.473097804
 21
77.1425638082
 31
0.0
  0
SPLINE
  5
B7
330
1F
100
AcDbEntity
  8
0
  6
Continuous
 62
     7
370
    25
100
AcDbSpline
210
0.0
220
0.0
230
1.0
 70
     8
 71
     3
 72
    20
 73
    16
 74
     0
 42
0.00000001
 43
0.00000001
 40
0.0
 40
0.0
 40
0.0
 40
0.0
 40
0.1238994817808106
 40
0.2498468348127757
 40
0.3327161568940898
 40
0.415849342686512
 40
0.5003138827336928
 40
0.5610643330988646
 40
0.6244975982562637
 40
0.6852560657042416
 40
0.7501883124678861
 40
0.8087829264722662
 40
0.8744877433555898
 40
0.9261458689734453
 40
1.0
 40
1.0
 40
1.0
 40
1.0
 10
49.89672117049921
 20
412.186170295267
 30
0.0
 10
50.06270579194294
 20
412.1800217559605
 30
0.0
 10
50.39741850985968
 20
412.1676230512816
 30
0.0
 10
51.82002720131812
 20
411.8227610755171
 30
0.0
 10
53.5249907853721
 20
411.3572088785726
 30
0.0
 10
55.31360635502713
 20
410.8404047944994
 30
0.0
 10
57.2026461577782
 20
410.2731284375419
 30
0.0
 10
59.10705158220009
 20
409.6865442255271
 30
0.0
 10
60.91553615929685
 20
409.1200848838096
 30
0.0
 10
62.87096261013442
 20
408.4982156499399
 30
0.0
 10
64.86606147902695
 20
407.8567335194636
 30
0.0
 10
66.98737932111565
 20
407.1674008229085
 30
0.0
 10
69.01548145533471
 20
406.5044534386476
 30
0.0
 10
71.2575916857503
 20
405.7662396728909
 30
0.0
 10
72.75170592938679
 20
405.2731976208001
 30
0.0
 10
73.63087512025534
 20
404.9830809956176
 30
0.0
  0
SPLINE
  5
B8
330
1F
100
AcDbEntity
  8
0
  6
Continuous
 62
     7
370
    25
100
AcDbSpline
210
0.0
220
0.0
230
1.0
 70
     8
 71
     3
 72
    14
 73
    10
 74
     0
 42
0.00000001
 43
0.00000001
 40
0.0
 40
0.0
 40
0.0
 40
0.0
 40
0.1285392505246245
 40
0.2736230611079025
 40
0.418718319014612
 40
0.5638047450221954
 40
0.7092001461728283
 40
0.8546029035485716
 40
1.0
 40
1.0
 40
1.0
 40
1.0
 10
73.6308751202554
 20
404.9830809956177
 30
0.0
 10
73.63220839225015
 20
391.1675835849666
 30
0.0
 10
73.6350465445112
 20
361.7583667364021
 30
0.0
 10
73.63625098498511
 20
316.7389888753387
 30
0.0
 10
73.63949526486164
 20
269.9455536610346
 30
0.0
 10
73.62456132260303
 20
223.1341964183025
 30
0.0
 10
73.57065280760428
 20
176.3165308315667
 30
0.0
 10
73.47656024918898
 20
129.4948261889083
 30
0.0
 10
73.37968954309493
 20
98.31400460895928
 30
0.0
 10
73.33125513292616
 20
82.72389731341346
 30
0.0
  0
SPLINE
  5
B9
330
1F
100
AcDbEntity
  8
0
  6
Continuous
 62
     7
370
    25
100
AcDbSpline
210
0.0
220
0.0
230
1.0
 70
     8
 71
     3
 72
    17
 73
    13
 74
     0
 42
0.00000001
 43
0.00000001
 40
0.0
 40
0.0
 40
0.0
 40
0.0
 40
0.1266199350159226
 40
0.250090672395771
 40
0.3749952093690859
 40
0.5003472215493736
 40
0.6244895802648469
 40
0.7500856353975273
 40
0.8087095798011491
 40
0.8744284842895982
 40
0.9260769690972768
 40
1.0
 40
1.0
 40
1.0
 40
1.0
 10
49.4730978039935
 20
77.14256380819396
 30
0.0
 10
49.69040095208804
 20
77.08333259027872
 30
0.0
 10
50.11960264464837
 20
76.966343309615
 30
0.0
 10
51.8111101966891
 20
77.13666168368255
 30
0.0
 10
54.1716973413649
 20
77.5499486756635
 30
0.0
 10
57.19638046208581
 20
78.21732540335397
 30
0.0
 10
60.74735970483808
 20
79.10418347980975
 30
0.0
 10
64.00231773181719
 20
79.98692956068531
 30
0.0
 10
66.77260248768208
 20
80.77290032228673
 30
0.0
 10
68.77631563928249
 20
81.35524602080518
 30
0.0
 10
70.98993811515992
 20
82.0126547648935
 30
0.0
 10
72.46367627828681
 20
82.4603452224657
 30
0.0
 10
73.33125513292622
 20
82.72389731342156
 30
0.0
  0
SPLINE
  5
BA
330
1F
100
AcDbEntity
  8
0
  6
Continuous
 62
     7
370
    25
100
AcDbSpline
210
0.0
220
0.0
230
1.0
 70
     8
 71
     3
 72
    20
 73
    16
 74
     0
 42
0.00000001
 43
0.00000001
 40
0.0
 40
0.0
 40
0.0
 40
0.0
 40
0.1265688428651984
 40
0.2499873607253458
 40
0.3327598806448848
 40
0.4158800365020131
 40
0.5003308538271357
 40
0.5611043053137654
 40
0.6245378460982787
 40
0.6852967388849882
 40
0.7501963666869306
 40
0.808793912891759
 40
0.8744838204705
 40
0.9261733936587748
 40
1.0
 40
1.0
 40
1.0
 40
1.0
 10
66.9744010125592
 20
59.64700984706728
 30
0.0
 10
66.9660673788699
 20
59.81289833244396
 30
0.0
 10
66.94960753737888
 20
60.14054630405563
 30
0.0
 10
67.22862335932584
 20
61.51751012530266
 30
0.0
 10
67.61704155895026
 20
63.14589461344305
 30
0.0
 10
68.06199604479556
 20
64.8709468272206
 30
0.0
 10
68.55776065200797
 20
66.6970428307101
 30
0.0
 10
69.07557271982483
 20
68.54176519061073
 30
0.0
 10
69.5791881514255
 20
70.29683810837773
 30
0.0
 10
70.13536278673082
 20
72.19756860715343
 30
0.0
 10
70.7123611530881
 20
74.14069795201766
 30
0.0
 10
71.33559530012657
 20
76.21077739286109
 30
0.0
 10
71.9382306573183
 20
78.19472796553862
 30
0.0
 10
72.61200476115192
 20
80.39179564085475
 30
0.0
 10
73.06488073755601
 20
81.86020339353733
 30
0.0
 10
73.33125513292649
 20
82.72389731341335
 30
0.0
  0
SPLINE
  5
BB
330
1F
100
AcDbEntity
  8
0
  6
Continuous
 62
     7
370
    25
100
AcDbSpline
210
0.0
220
0.0
230
1.0
 70
     8
 71
     3
 72
    13
 73
     9
 74
     0
 42
0.00000001
 43
0.00000001
 40
0.0
 40
0.0
 40
0.0
 40
0.0
 40
0.1532153516038963
 40
0.3335117285126599
 40
0.5138077669700617
 40
0.694287912504337
 40
0.8747684420969073
 40
1.0
 40
1.0
 40
1.0
 40
1.0
 10
73.33125513292622
 20
82.72389731341346
 30
0.0
 10
87.4857302667188
 20
82.74418567571217
 30
0.0
 10
118.2965035909538
 20
82.78834839640609
 30
0.0
 10
165.7917924364095
 20
82.82093092716192
 30
0.0
 10
215.8172667568049
 20
82.83112006992849
 30
0.0
 10
265.8587959165362
 20
82.81722773857115
 30
0.0
 10
310.7985983488247
 20
82.78220179741996
 30
0.0
 10
339.0402966289677
 20
82.74084050643388
 30
0.0
 10
350.6091943536989
 20
82.72389731341346
 30
0.0
  0
SPLINE
  5
BC
330
1F
100
AcDbEntity
  8
0
  6
Continuous
 62
     7
370
    25
100
AcDbSpline
210
0.0
220
0.0
230
1.0
 70
     8
 71
     3
 72
    17
 73
    13
 74
     0
 42
0.00000001
 43
0.00000001
 40
0.0
 40
0.0
 40
0.0
 40
0.0
 40
0.1266242002821636
 40
0.2500966973960739
 40
0.3750011391746749
 40
0.5003518892705945
 40
0.6244925771319211
 40
0.7500871058679381
 40
0.8087091135100976
 40
0.8744289188915361
 40
0.9261485744346043
 40
1.0
 40
1.0
 40
1.0
 40
1.0
 10
356.9660484676791
 20
59.6470098470826
 30
0.0
 10
356.9743136748864
 20
59.81313110597297
 30
0.0
 10
356.9906383665427
 20
60.14123883042988
 30
0.0
 10
356.6773390509832
 20
61.68892367189827
 30
0.0
 10
356.1335597443909
 20
63.91814343807628
 30
0.0
 10
355.3519055085887
 20
66.82768332041105
 30
0.0
 10
354.3702125206495
 20
70.2830326491905
 30
0.0
 10
353.4276504618226
 20
73.47758285201
 30
0.0
 10
352.6049009747372
 20
76.2106778111949
 30
0.0
 10
352.0021878133608
 20
78.19481685551382
 30
0.0
 10
351.3284225973397
 20
80.39187706041217
 30
0.0
 10
350.8755435837115
 20
81.86028857133093
 30
0.0
 10
350.6091943536989
 20
82.7238973134134
 30
0.0
  0
SPLINE
  5
BD
330
1F
100
AcDbEntity
  8
0
  6
Continuous
 62
     7
370
    25
100
AcDbSpline
210
0.0
220
0.0
230
1.0
 70
     8
 71
     3
 72
    19
 73
    15
 74
     0
 42
0.00000001
 43
0.00000001
 40
0.0
 40
0.0
 40
0.0
 40
0.0
 40
0.0609285033155422
 40
0.1075851967377229
 40
0.1526973776839511
 40
0.2035645507327422
 40
0.2498915470303186
 40
0.3355022901934875
 40
0.4181341588158124
 40
0.4997559269722188
 40
0.6250820973863811
 40
0.7499608846711104
 40
0.8734061679748673
 40
1.0
 40
1.0
 40
1.0
 40
1.0
 10
350.6091943536989
 20
82.72389731341346
 30
0.0
 10
351.32444128881
 20
82.50638641406654
 30
0.0
 10
352.5873966880499
 20
82.1223140731187
 30
0.0
 10
354.3610806268427
 20
81.5932083355661
 30
0.0
 10
355.9988651095733
 20
81.11183993872561
 30
0.0
 10
357.6062688193403
 20
80.64820525845062
 30
0.0
 10
359.6263260511457
 20
80.07663314799679
 30
0.0
 10
361.9148412147397
 20
79.44970754801605
 30
0.0
 10
364.4157921481798
 20
78.79716374163786
 30
0.0
 10
367.086647894543
 20
78.14177869642901
 30
0.0
 10
369.7690023595832
 20
77.54988070649732
 30
0.0
 10
372.1292735799187
 20
77.13667961844206
 30
0.0
 10
373.8208636781029
 20
76.96633877089798
 30
0.0
 10
374.2500541933037
 20
77.08333106890997
 30
0.0
 10
374.4673516826052
 20
77.14256381456764
 30
0.0
  0
SPLINE
  5
BE
330
1F
100
AcDbEntity
  8
0
  6
Continuous
 62
     7
370
    25
100
AcDbSpline
210
0.0
220
0.0
230
1.0
 70
     8
 71
     3
 72
    15
 73
    11
 74
     0
 42
0.00000001
 43
0.00000001
 40
0.0
 40
0.0
 40
0.0
 40
0.0
 40
0.1297941873541711
 40
0.2595881683953803
 40
0.389456831038737
 40
0.5193249251085722
 40
0.6394460709200769
 40
0.7595667430326073
 40
0.8797831318606988
 40
1.0
 40
1.0
 40
1.0
 40
1.0
 10
350.6091943536989
 20
82.72389731341335
 30
0.0
 10
350.5654648866716
 20
96.64066026782398
 30
0.0
 10
350.4780060221266
 20
124.4741640554036
 30
0.0
 10
350.3872634650449
 20
166.2734489955342
 30
0.0
 10
350.329833502348
 20
208.1049237491695
 30
0.0
 10
350.3060117473232
 20
248.9201444772124
 30
0.0
 10
350.3047887014966
 20
288.70292173925
 30
0.0
 10
350.3090030154669
 20
327.4559971197938
 30
0.0
 10
350.3038755920428
 20
366.2203148280279
 30
0.0
 10
350.3076747724028
 20
392.0621417675912
 30
0.0
 10
350.3095743663696
 20
404.9830809956176
 30
0.0
  0
SPLINE
  5
BF
330
1F
100
AcDbEntity
  8
0
  6
Continuous
 62
     7
370
    25
100
AcDbSpline
210
0.0
220
0.0
230
1.0
 70
     8
 71
     3
 72
    19
 73
    15
 74
     0
 42
0.00000001
 43
0.00000001
 40
0.0
 40
0.0
 40
0.0
 40
0.0
 40
0.0608916764531309
 40
0.1075592781701953
 40
0.1527038169053569
 40
0.2035793155923135
 40
0.2499014344020672
 40
0.3355488354049045
 40
0.4181785294457008
 40
0.4997722410757782
 40
0.6250900273305322
 40
0.7500927226125577
 40
0.8760709826323961
 40
1.0
 40
1.0
 40
1.0
 40
1.0
 10
350.3095743663697
 20
404.9830809956176
 30
0.0
 10
351.0343153464101
 20
405.2222888998852
 30
0.0
 10
352.3145004425374
 20
405.6448266097056
 30
0.0
 10
354.1113512841237
 20
406.2366985457369
 30
0.0
 10
355.7700367009224
 20
406.7809099522687
 30
0.0
 10
357.3964744803189
 20
407.311620638274
 30
0.0
 10
359.4384261396645
 20
407.9744723392093
 30
0.0
 10
361.7480712047862
 20
408.7159814807204
 30
0.0
 10
364.2650032664254
 20
409.510643038725
 30
0.0
 10
366.9425201065568
 20
410.3378256528057
 30
0.0
 10
369.6142094422335
 20
411.1337555522419
 30
0.0
 10
371.9432316415088
 20
411.779960662555
 30
0.0
 10
373.5423363497825
 20
412.1674150710231
 30
0.0
 10
373.8775138137541
 20
412.1799528300039
 30
0.0
 10
374.0437283161409
 20
412.1861703046078
 30
0.0
  0
LINE
  5
C0
330
1F
100
AcDbEntity
  8
0
  6
Continuous
 62
     7
370
    25
100
AcDbLine
 10
374.4673516826
 20
77.1425638146
 30
0.0
 11
374.5241707347
 21
77.1880682952
 31
0.0
  0
SPLINE
  5
C1
330
1F
100
AcDbEntity
  8
0
  6
Continuous
 62
     7
370
    25
100
AcDbSpline
210
0.0
220
0.0
230
1.0
 70
     8
 71
     3
 72
    15
 73
    11
 74
     0
 42
0.00000001
 43
0.00000001
 40
0.0
 40
0.0
 40
0.0
 40
0.0
 40
0.125048563739057
 40
0.2500560404331595
 40
0.3750352282041665
 40
0.5000000004149735
 40
0.6249647726227974
 40
0.7499439603618179
 40
0.8749514375442686
 40
1.0
 40
1.0
 40
1.0
 40
1.0
 10
66.9744010125588
 20
59.6470098470675
 30
0.0
 10
65.83348491379726
 20
59.71668696559551
 30
0.0
 10
63.5520275856018
 20
59.85601830893073
 30
0.0
 10
60.26030942695543
 20
60.90341321621795
 30
0.0
 10
57.22452794970617
 20
62.52315904386374
 30
0.0
 10
54.56141649988238
 20
64.71456636064194
 30
0.0
 10
52.36806430336522
 20
67.3780273289189
 30
0.0
 10
50.74410529269346
 20
70.41649125354188
 30
0.0
 10
49.69053089671144
 20
73.71296145732109
 30
0.0
 10
49.54558344006116
 20
75.99923780958606
 30
0.0
 10
49.47309780399345
 20
77.14256380819396
 30
0.0
  0
SPLINE
  5
C2
330
1F
100
AcDbEntity
  8
0
  6
Continuous
 62
     7
370
    25
100
AcDbSpline
210
0.0
220
0.0
230
1.0
 70
     8
 71
     3
 72
    15
 73
    11
 74
     0
 42
0.00000001
 43
0.00000001
 40
0.0
 40
0.0
 40
0.0
 40
0.0
 40
0.1250485647648287
 40
0.2500560396443414
 40
0.3750352273637312
 40
0.499999999557935
 40
0.6249647717823644
 40
0.7499439595730045
 40
0.8749514385700546
 40
0.9999999999999999
 40
0.9999999999999999
 40
0.9999999999999999
 40
0.9999999999999999
 10
356.9660484676818
 20
59.64700984708271
 30
0.0
 10
358.1069645762702
 20
59.71668696665511
 30
0.0
 10
360.3884218982042
 20
59.85601831049614
 30
0.0
 10
363.6801400497432
 20
60.90341321600046
 30
0.0
 10
366.7159215149762
 20
62.52315903218708
 30
0.0
 10
369.3790329682731
 20
64.71456634591071
 30
0.0
 10
371.5723851694237
 20
67.37802731263342
 30
0.0
 10
373.1963441927402
 20
70.41649125147875
 30
0.0
 10
374.2499185912856
 20
73.71296146477219
 30
0.0
 10
374.3948660475525
 20
75.99923782497525
 30
0.0
 10
374.4673516826052
 20
77.14256381456764
 30
0.0
  0
LINE
  5
C3
330
1F
100
AcDbEntity
  8
0
  6
Continuous
 62
     7
370
    25
100
AcDbLine
 10
66.9510289071
 20
429.2364314539
 30
0.0
 11
66.9702247433
 21
429.2705158627
 31
0.0
  0
LINE
  5
C4
330
1F
100
AcDbEntity
  8
0
  6
Continuous
 62
     7
370
    25
100
AcDbLine
 10
356.9894205888
 20
429.2364314539
 30
0.0
 11
356.9702247433
 21
429.2705158627
 31
0.0
  0
SPLINE
  5
C5
330
1F
100
AcDbEntity
  8
0
  6
Continuous
 62
     7
370
    25
100
AcDbSpline
210
0.0
220
0.0
230
1.0
 70
     8
 71
     3
 72
    19
 73
    15
 74
     0
 42
0.00000001
 43
0.00000001
 40
0.0
 40
0.0
 40
0.0
 40
0.0
 40
0.0571951907011284
 40
0.1012386229203444
 40
0.1527044771278974
 40
0.2035799468192301
 40
0.24990491116945
 40
0.3355521358503315
 40
0.4181835141861109
 40
0.4997809440829086
 40
0.6251008314803089
 40
0.7501036376053366
 40
0.8760744652838776
 40
1.0
 40
1.0
 40
1.0
 40
1.0
 10
350.3095743663697
 20
404.9830809956176
 30
0.0
 10
350.5328145445984
 20
405.665154168652
 30
0.0
 10
350.9279618978516
 20
406.8724610754467
 30
0.0
 10
351.5125182843132
 20
408.6785380953036
 30
0.0
 10
352.0616167938454
 20
410.3916463356309
 30
0.0
 10
352.6031453801346
 20
412.1025227476583
 30
0.0
 10
353.2471977798728
 20
414.1626702267858
 30
0.0
 10
353.9618364705074
 20
416.4985590666666
 30
0.0
 10
354.7184325361061
 20
419.0529757890702
 30
0.0
 10
355.4943442579514
 20
421.7812820367651
 30
0.0
 10
356.2218642338316
 20
424.5210847058747
 30
0.0
 10
356.7796613190327
 20
426.9384970518097
 30
0.0
 10
357.0711229061101
 20
428.6339572962444
 30
0.0
 10
357.0165056885293
 20
429.0367055076298
 30
0.0
 10
356.9894205888161
 20
429.2364314539125
 30
0.0
  0
SPLINE
  5
C6
330
1F
100
AcDbEntity
  8
0
  6
Continuous
 62
     7
370
    25
100
AcDbSpline
210
0.0
220
0.0
230
1.0
 70
     8
 71
     3
 72
    14
 73
    10
 74
     0
 42
0.00000001
 43
0.00000001
 40
0.0
 40
0.0
 40
0.0
 40
0.0
 40
0.214532213421905
 40
0.3218404806755494
 40
0.4291479606400776
 40
0.5717931378587127
 40
0.7144401314222913
 40
0.857219584373937
 40
1.0
 40
1.0
 40
1.0
 40
1.0
 10
350.3095743663696
 20
404.9830809956176
 30
0.0
 10
330.534572169249
 20
404.9627775064158
 30
0.0
 10
300.8681826281826
 20
404.9323182825076
 30
0.0
 10
261.2838502464629
 20
404.9669458639829
 30
0.0
 10
228.3231614858514
 20
405.0087401441131
 30
0.0
 10
192.0957624632198
 20
405.0014188549929
 30
0.0
 10
152.60287311772
 20
404.9526524461255
 30
0.0
 10
113.1108650346469
 20
404.9386511668296
 30
0.0
 10
86.79090133485245
 20
404.9682710194037
 30
0.0
 10
73.63087512025534
 20
404.9830809956176
 30
0.0
  0
SPLINE
  5
C7
330
1F
100
AcDbEntity
  8
0
  6
Continuous
 62
     7
370
    25
100
AcDbSpline
210
0.0
220
0.0
230
1.0
 70
     8
 71
     3
 72
    19
 73
    15
 74
     0
 42
0.00000001
 43
0.00000001
 40
0.0
 40
0.0
 40
0.0
 40
0.0
 40
0.0572170919384331
 40
0.1012397191517101
 40
0.1527050890721189
 40
0.2035808683506738
 40
0.249904906793554
 40
0.3355531512428723
 40
0.4181845737194174
 40
0.4997809419083412
 40
0.6251008305048669
 40
0.7501036373914051
 40
0.8760750143916497
 40
1.0
 40
1.0
 40
1.0
 40
1.0
 10
73.6308751202553
 20
404.9830809956176
 30
0.0
 10
73.40755018422146
 20
405.6654155861838
 30
0.0
 10
73.01239983600094
 20
406.872735986017
 30
0.0
 10
72.4278420879027
 20
408.6788145162425
 30
0.0
 10
71.87882331806311
 20
410.3916771979905
 30
0.0
 10
71.33729840531377
 20
412.1025402280429
 30
0.0
 10
70.69324536624028
 20
414.1626918656808
 30
0.0
 10
69.97860578346638
 20
416.4985814125803
 30
0.0
 10
69.22201180335769
 20
419.052996096811
 30
0.0
 10
68.44610285095042
 20
421.7812907636198
 30
0.0
 10
67.71858564898903
 20
424.5210847447219
 30
0.0
 10
67.16078688875626
 20
426.9385005770326
 30
0.0
 10
66.8693286423918
 20
428.6339592387961
 30
0.0
 10
66.92394456811068
 20
429.0367067432979
 30
0.0
 10
66.95102890714644
 20
429.2364314538864
 30
0.0
  0
SPLINE
  5
C8
330
1F
100
AcDbEntity
  8
0
  6
Continuous
 62
     7
370
    25
100
AcDbSpline
210
0.0
220
0.0
230
1.0
 70
     8
 71
     3
 72
    15
 73
    11
 74
     0
 42
0.00000001
 43
0.00000001
 40
0.0
 40
0.0
 40
0.0
 40
0.0
 40
0.1250258700962928
 40
0.2500298668122468
 40
0.3750187806357309
 40
0.499999999559929
 40
0.624981218505434
 40
0.7499701323940445
 40
0.8749741324286368
 40
1.0
 40
1.0
 40
1.0
 40
1.0
 10
374.0437283161409
 20
412.1861703046128
 30
0.0
 10
373.9764164175615
 20
413.2989333737508
 30
0.0
 10
373.8418043966754
 20
415.5242648331989
 30
0.0
 10
372.8217611143164
 20
418.7349067854377
 30
0.0
 10
371.2429568426196
 20
421.6955804865977
 30
0.0
 10
369.1061068380037
 20
424.2918998939287
 30
0.0
 10
366.5086526063592
 20
426.4287613923821
 30
0.0
 10
363.5457176982778
 20
428.0087492187986
 30
0.0
 10
360.3318435130314
 20
429.0310201157976
 30
0.0
 10
358.1036265232831
 20
429.1679570157208
 30
0.0
 10
356.9894205888162
 20
429.2364314539124
 30
0.0
  0
SPLINE
  5
C9
330
1F
100
AcDbEntity
  8
0
  6
Continuous
 62
     7
370
    25
100
AcDbSpline
210
0.0
220
0.0
230
1.0
 70
     8
 71
     3
 72
    15
 73
    11
 74
     0
 42
0.00000001
 43
0.00000001
 40
0.0
 40
0.0
 40
0.0
 40
0.0
 40
0.1250258690640295
 40
0.2500298676061404
 40
0.3750187814816459
 40
0.5000000004225789
 40
0.6249812193513493
 40
0.7499701331879438
 40
0.8749741313963799
 40
1.0
 40
1.0
 40
1.0
 40
1.0
 10
49.89672117049921
 20
412.1861702952671
 30
0.0
 10
49.96403306812019
 20
413.2989333557734
 30
0.0
 10
50.09864508862849
 20
415.5242648233988
 30
0.0
 10
51.11868837366645
 20
418.7349067855465
 30
0.0
 10
52.69749265805002
 20
421.6955805011949
 30
0.0
 10
54.83434266761694
 20
424.2918999074775
 30
0.0
 10
57.43179690315675
 20
426.4287614033235
 30
0.0
 10
60.39473179998323
 20
428.008749218782
 30
0.0
 10
63.60860597882378
 20
429.0310201142123
 30
0.0
 10
65.83682296281917
 20
429.1679570146532
 30
0.0
 10
66.95102890714638
 20
429.2364314538864
 30
0.0
  0
CIRCLE
  5
CA
330
1F
100
AcDbEntity
  8
0
  6
Continuous
 62
     7
370
    25
100
AcDbCircle
 10
211.9702247433
 20
327.1880682952
 30
0.0
 40
70.0
  0
CIRCLE
  5
CB
330
1F
100
AcDbEntity
  8
0
  6
Continuous
 62
     7
370
    25
100
AcDbCircle
 10
211.9702247433
 20
327.1880682952
 30
0.0
 40
58.94765075494627
  0
CIRCLE
  5
CC
330
1F
100
AcDbEntity
  8
0
  6
Continuous
 62
     7
370
    25
100
AcDbCircle
 10
211.9702247433
 20
327.1880682952
 30
0.0
 40
57.5
  0
CIRCLE
  5
CD
330
1F
100
AcDbEntity
  8
0
  6
Continuous
 62
     7
370
    25
100
AcDbCircle
 10
211.9702247433
 20
327.1880682952
 30
0.0
 40
8.100000000000339
  0
CIRCLE
  5
CE
330
1F
100
AcDbEntity
  8
0
  6
Continuous
 62
     7
370
    25
100
AcDbCircle
 10
211.9702247433
 20
327.1880682952
 30
0.0
 40
55.99540163538695
  0
CIRCLE
  5
CF
330
1F
100
AcDbEntity
  8
0
  6
Continuous
 62
     7
370
    25
100
AcDbCircle
 10
211.9702247433
 20
327.1880682952
 30
0.0
 40
56.58542857502282
  0
SPLINE
  5
D0
330
1F
100
AcDbEntity
  8
0
  6
Continuous
 62
     7
370
    25
100
AcDbSpline
210
0.0
220
0.0
230
1.0
 70
     8
 71
     3
 72
    17
 73
    13
 74
     0
 42
0.00000001
 43
0.00000001
 40
0.0
 40
0.0
 40
0.0
 40
0.0
 40
0.107341583126567
 40
0.2147340135530365
 40
0.3221186568153725
 40
0.429488279141756
 40
0.5368445105544688
 40
0.6441943157236969
 40
0.751547150844727
 40
0.8589113006667354
 40
0.9662906002105798
 40
1.0
 40
1.0
 40
1.0
 40
1.0
 10
200.6228247312548
 20
376.9498660216525
 30
0.0
 10
200.6031895239731
 20
377.1749075752388
 30
0.0
 10
200.5639098082866
 20
377.6250972837397
 30
0.0
 10
200.7925931183911
 20
378.2769278951117
 30
0.0
 10
201.2079449086081
 20
378.8177056661939
 30
0.0
 10
201.7832064366916
 20
379.1901173835718
 30
0.0
 10
202.448121853476
 20
379.3511990547878
 30
0.0
 10
203.1289890852328
 20
379.2831305766769
 30
0.0
 10
203.7494435241811
 20
378.9934968461621
 30
0.0
 10
204.2369527710868
 20
378.515088675656
 30
0.0
 10
204.4758725930156
 20
378.0416312690963
 30
0.0
 10
204.5393901413609
 20
377.7543181032231
 30
0.0
 10
204.5545659735923
 20
377.6856722483889
 30
0.0
  0
ARC
  5
D1
330
1F
100
AcDbEntity
  8
0
  6
Continuous
 62
     7
370
    25
100
AcDbCircle
 10
211.9702247433
 20
327.1880682952
 30
0.0
 40
47.00000000000254
100
AcDbArc
 50
103.038866703
 51
149.5897287496
  0
SPLINE
  5
D2
330
1F
100
AcDbEntity
  8
0
  6
Continuous
 62
     7
370
    25
100
AcDbSpline
210
0.0
220
0.0
230
1.0
 70
     8
 71
     3
 72
    17
 73
    13
 74
     0
 42
0.00000001
 43
0.00000001
 40
0.0
 40
0.0
 40
0.0
 40
0.0
 40
0.1073415831263703
 40
0.2147340135528273
 40
0.3221186568154287
 40
0.4294882791418397
 40
0.5368445105545306
 40
0.6441943157236955
 40
0.751547150844546
 40
0.8589113006665391
 40
0.9662906002103869
 40
1.0
 40
1.0
 40
1.0
 40
1.0
 10
165.98989647145
 20
349.342287126222
 30
0.0
 10
165.8017095484957
 20
349.4672468166598
 30
0.0
 10
165.4252465591569
 20
349.7172253904661
 30
0.0
 10
165.0582065776551
 20
350.3024269405507
 30
0.0
 10
164.8943770965887
 20
350.9643314717843
 30
0.0
 10
164.9618835876642
 20
351.6462839529707
 30
0.0
 10
165.2505128473227
 20
352.2665685382609
 30
0.0
 10
165.7282447018939
 20
352.7564519734978
 30
0.0
 10
166.3415364859958
 20
353.060959110056
 30
0.0
 10
167.019528098925
 20
353.1438265718439
 30
0.0
 10
167.538656077416
 20
353.0354257458098
 30
0.0
 10
167.8028890994556
 20
352.9059489359325
 30
0.0
 10
167.866020566537
 20
352.8750138889141
 30
0.0
  0
ARC
  5
D3
330
1F
100
AcDbEntity
  8
0
  6
Continuous
 62
     7
370
    25
100
AcDbCircle
 10
211.9702247433
 20
327.1880682952
 30
0.0
 40
47.00000000000158
100
AcDbArc
 50
154.4674381315
 51
201.0183001782
  0
SPLINE
  5
D4
330
1F
100
AcDbEntity
  8
0
  6
Continuous
 62
     7
370
    25
100
AcDbSpline
210
0.0
220
0.0
230
1.0
 70
     8
 71
     3
 72
    17
 73
    13
 74
     0
 42
0.00000001
 43
0.00000001
 40
0.0
 40
0.0
 40
0.0
 40
0.0
 40
0.1073415831263994
 40
0.2147340135528783
 40
0.3221186568152374
 40
0.4294882791417779
 40
0.5368445105546246
 40
0.6441943157238056
 40
0.7515471508446759
 40
0.8589113006667074
 40
0.9662906002105753
 40
1.0
 40
1.0
 40
1.0
 40
1.0
 10
165.9810932281249
 20
305.0521295873384
 30
0.0
 10
165.766063180796
 20
304.9829102190155
 30
0.0
 10
165.3359012272217
 20
304.8444386934178
 30
0.0
 10
164.6495265464363
 20
304.9223424790646
 30
0.0
 10
164.0298827348412
 20
305.2069461580382
 30
0.0
 10
163.5388004242472
 20
305.684915275404
 30
0.0
 10
163.2337998072924
 20
306.2973158305453
 30
0.0
 10
163.1486544542327
 20
306.9762589605969
 30
0.0
 10
163.2929623611867
 20
307.6456068795841
 30
0.0
 10
163.6508948270956
 20
308.2273490847521
 30
0.0
 10
164.0593170060635
 20
308.56563287222
 30
0.0
 10
164.3252926468301
 20
308.6914910970235
 30
0.0
 10
164.3888404664018
 20
308.7215615791864
 30
0.0
  0
ARC
  5
D5
330
1F
100
AcDbEntity
  8
0
  6
Continuous
 62
     7
370
    25
100
AcDbCircle
 10
211.9702247433
 20
327.1880682952
 30
0.0
 40
47.00000000000154
100
AcDbArc
 50
205.8960095601
 51
252.4468716068
  0
SPLINE
  5
D6
330
1F
100
AcDbEntity
  8
0
  6
Continuous
 62
     7
370
    25
100
AcDbSpline
210
0.0
220
0.0
230
1.0
 70
     8
 71
     3
 72
    17
 73
    13
 74
     0
 42
0.00000001
 43
0.00000001
 40
0.0
 40
0.0
 40
0.0
 40
0.0
 40
0.1073415831264279
 40
0.2147340135529404
 40
0.322118656815339
 40
0.4294882791417768
 40
0.5368445105545303
 40
0.6441943157237517
 40
0.7515471508446491
 40
0.8589113006666654
 40
0.9662906002105661
 40
1.0
 40
1.0
 40
1.0
 40
1.0
 10
200.6030440230546
 20
277.430785386349
 30
0.0
 10
200.5230928628033
 20
277.2195105554302
 30
0.0
 10
200.3631526697399
 20
276.796860813508
 30
0.0
 10
199.8742974237938
 20
276.308803695178
 30
0.0
 10
199.2654437102319
 20
276.0017941467679
 30
0.0
 10
198.5855675940999
 20
275.9158594061438
 30
0.0
 10
197.916608785978
 20
276.0592258224194
 30
0.0
 10
197.3327024127902
 20
276.4159706224407
 30
0.0
 10
196.8993596453145
 20
276.9461266886499
 30
0.0
 10
196.6677025168841
 20
277.5886798913286
 30
0.0
 10
196.6578686652721
 20
278.1189137006041
 30
0.0
 10
196.7253018423541
 20
278.40533314977
 30
0.0
 10
196.7414132101395
 20
278.4737654747189
 30
0.0
  0
ARC
  5
D7
330
1F
100
AcDbEntity
  8
0
  6
Continuous
 62
     7
370
    25
100
AcDbCircle
 10
211.9702247433
 20
327.1880682952
 30
0.0
 40
47.0000000000018
100
AcDbArc
 50
257.3245809887
 51
303.8754430353
  0
SPLINE
  5
D8
330
1F
100
AcDbEntity
  8
0
  6
Continuous
 62
     7
370
    25
100
AcDbSpline
210
0.0
220
0.0
230
1.0
 70
     8
 71
     3
 72
    17
 73
    13
 74
     0
 42
0.00000001
 43
0.00000001
 40
0.0
 40
0.0
 40
0.0
 40
0.0
 40
0.10734158312647
 40
0.2147340135529643
 40
0.3221186568153386
 40
0.4294882791417607
 40
0.5368445105544919
 40
0.6441943157236973
 40
0.7515471508445815
 40
0.8589113006666289
 40
0.9662906002105651
 40
1.0
 40
1.0
 40
1.0
 40
1.0
 10
243.7847137485691
 20
287.2776900793375
 30
0.0
 10
243.9000463297711
 20
287.0834540427258
 30
0.0
 10
244.1307661247807
 20
286.6948899606298
 30
0.0
 10
244.207548284701
 20
286.0083889029762
 30
0.0
 10
244.0679639338369
 20
285.340950578989
 30
0.0
 10
243.7112545945589
 20
284.7558225928143
 30
0.0
 10
243.1820772220584
 20
284.3221970346274
 30
0.0
 10
242.5391032372719
 20
284.0881073939346
 30
0.0
 10
241.854425737858
 20
284.079853276298
 30
0.0
 10
241.207621557738
 20
284.2993618091728
 30
0.0
 10
240.7869367663843
 20
284.6222687670733
 30
0.0
 10
240.6050489220529
 20
284.8535697534879
 30
0.0
 10
240.5615916494975
 20
284.9088329847713
 30
0.0
  0
ARC
  5
D9
330
1F
100
AcDbEntity
  8
0
  6
Continuous
 62
     7
370
    25
100
AcDbCircle
 10
211.9702247433
 20
327.1880682952
 30
0.0
 40
47.00000000000183
100
AcDbArc
 50
308.7531524172
 51
355.3040144639
  0
SPLINE
  5
DA
330
1F
100
AcDbEntity
  8
0
  6
Continuous
 62
     7
370
    25
100
AcDbSpline
210
0.0
220
0.0
230
1.0
 70
     8
 71
     3
 72
    17
 73
    13
 74
     0
 42
0.00000001
 43
0.00000001
 40
0.0
 40
0.0
 40
0.0
 40
0.0
 40
0.1073415831264254
 40
0.2147340135529549
 40
0.3221186568153365
 40
0.429488279141774
 40
0.5368445105545172
 40
0.6441943157237329
 40
0.7515471508446258
 40
0.8589113006666825
 40
0.9662906002105592
 40
1.0
 40
1.0
 40
1.0
 40
1.0
 10
263.0094243558181
 20
327.1779235922346
 30
0.0
 10
263.2331928924723
 20
327.1469900471918
 30
0.0
 10
263.6808359640867
 20
327.0851083040035
 30
0.0
 10
264.2654369973821
 20
326.7171126055077
 30
0.0
 10
264.7002318724181
 20
326.1918401771666
 30
0.0
 10
264.9352987180152
 20
325.5481322534666
 30
0.0
 10
264.9443841358799
 20
324.8640436104811
 30
0.0
 10
264.7265150643182
 20
324.2153938030746
 30
0.0
 10
264.3060789548999
 20
323.6749450205253
 30
0.0
 10
263.7311844631237
 20
323.3061144811843
 30
0.0
 10
263.2164329603233
 20
323.1785390623085
 30
0.0
 10
262.9221893511958
 20
323.1805472255213
 30
0.0
 10
262.8518876509006
 20
323.1810270228183
 30
0.0
  0
ARC
  5
DB
330
1F
100
AcDbEntity
  8
0
  6
Continuous
 62
     7
370
    25
100
AcDbCircle
 10
211.9702247433
 20
327.1880682952
 30
0.0
 40
47.00000000000178
100
AcDbArc
 50
0.1817238458
 51
46.7325858925
  0
SPLINE
  5
DC
330
1F
100
AcDbEntity
  8
0
  6
Continuous
 62
     7
370
    25
100
AcDbSpline
210
0.0
220
0.0
230
1.0
 70
     8
 71
     3
 72
    17
 73
    13
 74
     0
 42
0.00000001
 43
0.00000001
 40
0.0
 40
0.0
 40
0.0
 40
0.0
 40
0.1073415831264095
 40
0.2147340135528979
 40
0.3221186568152595
 40
0.4294882791416787
 40
0.5368445105543993
 40
0.6441943157237884
 40
0.7515471508446717
 40
0.8589113006667002
 40
0.9662906002105753
 40
1.0
 40
1.0
 40
1.0
 40
1.0
 10
243.8005766449154
 20
367.085796273392
 30
0.0
 10
243.964278864875
 20
367.2414588102645
 30
0.0
 10
244.2917608499139
 20
367.5528576207619
 30
0.0
 10
244.9439642548259
 20
367.7804755481371
 30
0.0
 10
245.625728946661
 20
367.7929098675875
 30
0.0
 10
246.2755618479085
 20
367.5753472021571
 30
0.0
 10
246.8160685511778
 20
367.155928175406
 30
0.0
 10
247.1873642474466
 20
366.5811647363074
 30
0.0
 10
247.3477664937497
 20
365.915490245251
 30
0.0
 10
247.277688968335
 20
365.2360575525895
 30
0.0
 10
247.0564891347135
 20
364.7540666494156
 30
0.0
 10
246.8714611999388
 20
364.5252698015683
 30
0.0
 10
246.8272536861195
 20
364.4706048677282
 30
0.0
  0
ARC
  5
DD
330
1F
100
AcDbEntity
  8
0
  6
Continuous
 62
     7
370
    25
100
AcDbCircle
 10
211.9702247433
 20
327.1880682952
 30
0.0
 40
47.00000000000257
100
AcDbArc
 50
51.6102952744
 51
98.1611573211
  0
LINE
  5
DE
330
1F
100
AcDbEntity
  8
0
  6
Continuous
 62
     7
370
    25
100
AcDbLine
 10
169.6895794181
 20
306.6613288833
 30
0.0
 11
165.9810932281
 21
305.0521295873
 31
0.0
  0
LINE
  5
DF
330
1F
100
AcDbEntity
  8
0
  6
Continuous
 62
     7
370
    25
100
AcDbLine
 10
241.3906446281
 20
290.5351162476
 30
0.0
 11
243.7847137486
 21
287.2776900793
 31
0.0
  0
LINE
  5
E0
330
1F
100
AcDbEntity
  8
0
  6
Continuous
 62
     7
370
    25
100
AcDbLine
 10
201.3664622306
 20
372.9762787928
 30
0.0
 11
200.6228247313
 21
376.9498660217
 31
0.0
  0
LINE
  5
E1
330
1F
100
AcDbEntity
  8
0
  6
Continuous
 62
     7
370
    25
100
AcDbLine
 10
201.6571246717
 20
281.3335159922
 30
0.0
 11
200.6030440231
 21
277.4307853863
 31
0.0
  0
LINE
  5
E2
330
1F
100
AcDbEntity
  8
0
  6
Continuous
 62
     7
370
    25
100
AcDbLine
 10
169.5602224624
 20
347.4461952208
 30
0.0
 11
165.9898964715
 21
349.3422871262
 31
0.0
  0
LINE
  5
E3
330
1F
100
AcDbEntity
  8
0
  6
Continuous
 62
     7
370
    25
100
AcDbLine
 10
241.1575514482
 20
364.0269059509
 30
0.0
 11
243.8005766449
 21
367.0857962734
 31
0.0
  0
LINE
  5
E4
330
1F
100
AcDbEntity
  8
0
  6
Continuous
 62
     7
370
    25
100
AcDbLine
 10
258.9699883441
 20
327.3371369789
 30
0.0
 11
263.0094243558
 21
327.1779235922
 31
0.0
  0
LINE
  5
E5
330
1F
100
AcDbEntity
  8
0
  6
Continuous
 62
     7
370
    25
100
AcDbLine
 10
246.8272536861
 20
364.4706048677
 30
0.0
 11
244.1842284894
 21
361.4117145452
 31
0.0
  0
LINE
  5
E6
330
1F
100
AcDbEntity
  8
0
  6
Continuous
 62
     7
370
    25
100
AcDbLine
 10
262.8518876509
 20
323.1810270228
 30
0.0
 11
258.8124516392
 21
323.3402404095
 31
0.0
  0
LINE
  5
E7
330
1F
100
AcDbEntity
  8
0
  6
Continuous
 62
     7
370
    25
100
AcDbLine
 10
240.5615916495
 20
284.9088329848
 30
0.0
 11
238.167522529
 21
288.1662591531
 31
0.0
  0
LINE
  5
E8
330
1F
100
AcDbEntity
  8
0
  6
Continuous
 62
     7
370
    25
100
AcDbLine
 10
204.5545659736
 20
377.6856722484
 30
0.0
 11
205.2982034729
 21
373.7120850196
 31
0.0
  0
LINE
  5
E9
330
1F
100
AcDbEntity
  8
0
  6
Continuous
 62
     7
370
    25
100
AcDbLine
 10
196.7414132101
 20
278.4737654747
 30
0.0
 11
197.7954938588
 21
282.3764960805
 31
0.0
  0
LINE
  5
EA
330
1F
100
AcDbEntity
  8
0
  6
Continuous
 62
     7
370
    25
100
AcDbLine
 10
167.8660205665
 20
352.8750138889
 30
0.0
 11
171.4363465575
 21
350.9789219835
 31
0.0
  0
LINE
  5
EB
330
1F
100
AcDbEntity
  8
0
  6
Continuous
 62
     7
370
    25
100
AcDbLine
 10
164.3888404664
 20
308.7215615792
 30
0.0
 11
168.0973266564
 21
310.3307608751
 31
0.0
  0
ARC
  5
EC
330
1F
100
AcDbEntity
  8
0
  6
Continuous
 62
     7
370
    25
100
AcDbCircle
 10
211.9702247433
 20
327.1880682952
 30
0.0
 40
32.28988981635895
100
AcDbArc
 50
52.7225507547
 51
97.0489018408
  0
SPLINE
  5
ED
330
1F
100
AcDbEntity
  8
0
  6
Continuous
 62
     7
370
    25
100
AcDbSpline
210
0.0
220
0.0
230
1.0
 70
    24
 71
     3
 72
    14
 73
    10
 74
     0
 42
0.00000001
 43
0.00000001
 40
0.0
 40
0.0
 40
0.0
 40
0.0
 40
0.1599365945527865
 40
0.3204782349631133
 40
0.4327831140154766
 40
0.5446248701611351
 40
0.6577837919875533
 40
0.7712520390671123
 40
1.0
 40
1.0
 40
1.0
 40
1.0
 10
231.5274123783524
 20
352.8815187478211
 30
0.0
 10
231.9857614045629
 20
353.4119864112911
 30
0.0
 10
232.9041934077433
 20
354.4749285163749
 30
0.0
 10
233.9577123270955
 20
355.6942127029058
 30
0.0
 10
234.9771963583611
 20
356.8741068034383
 30
0.0
 10
236.0173221300803
 20
358.0778905060033
 30
0.0
 10
237.2197615913869
 20
359.4695270428533
 30
0.0
 10
238.9342931086767
 20
361.4538304359306
 30
0.0
 10
240.2668373903761
 20
362.996043053742
 30
0.0
 10
241.1575514481989
 20
364.0269059509092
 30
0.0
  0
SPLINE
  5
EE
330
1F
100
AcDbEntity
  8
0
  6
Continuous
 62
     7
370
    25
100
AcDbSpline
210
0.0
220
0.0
230
1.0
 70
    24
 71
     3
 72
    13
 73
     9
 74
     0
 42
0.00000001
 43
0.00000001
 40
0.0
 40
0.0
 40
0.0
 40
0.0
 40
0.1649272304776891
 40
0.3291782252302943
 40
0.5219202432988995
 40
0.6820453210982773
 40
0.8413177176944826
 40
1.0
 40
1.0
 40
1.0
 40
1.0
 10
205.2982034729175
 20
373.7120850195681
 30
0.0
 10
205.478318866761
 20
372.7496480400728
 30
0.0
 10
205.8378111441145
 20
370.8287202715736
 30
0.0
 10
206.3990688035999
 20
367.8296699683909
 30
0.0
 10
206.9109194431603
 20
365.0946234352818
 30
0.0
 10
207.2956264319333
 20
363.0389622040864
 30
0.0
 10
207.6234339167958
 20
361.2873404306511
 30
0.0
 10
207.879786281054
 20
359.9175352747535
 30
0.0
 10
208.0077245720566
 20
359.2339038553245
 30
0.0
  0
ARC
  5
EF
330
1F
100
AcDbEntity
  8
0
  6
Continuous
 62
     7
370
    25
100
AcDbCircle
 10
211.9702247433
 20
327.1880682952
 30
0.0
 40
32.28988981635912
100
AcDbArc
 50
104.1511221832
 51
148.4774732693
  0
SPLINE
  5
F0
330
1F
100
AcDbEntity
  8
0
  6
Continuous
 62
     7
370
    25
100
AcDbSpline
210
0.0
220
0.0
230
1.0
 70
    24
 71
     3
 72
    14
 73
    10
 74
     0
 42
0.00000001
 43
0.00000001
 40
0.0
 40
0.0
 40
0.0
 40
0.0
 40
0.1599365945528015
 40
0.3204782349631353
 40
0.4327831140154489
 40
0.5446248701610705
 40
0.6577837919875199
 40
0.7712520390670983
 40
1.0
 40
1.0
 40
1.0
 40
1.0
 10
204.0759833297184
 20
358.4980976285881
 30
0.0
 10
203.9470229535205
 20
359.1871905056273
 30
0.0
 10
203.6886143394092
 20
360.567983122706
 30
0.0
 10
203.3921978785856
 20
362.1518686371005
 30
0.0
 10
203.1053574214626
 20
363.6845852875733
 30
0.0
 10
202.8127092360326
 20
365.2483352238231
 30
0.0
 10
202.4743927208485
 20
367.0561114390538
 30
0.0
 10
201.991994773369
 20
369.6337790863317
 30
0.0
 10
201.6170721662693
 20
371.6371579970506
 30
0.0
 10
201.3664622305803
 20
372.9762787928317
 30
0.0
  0
SPLINE
  5
F1
330
1F
100
AcDbEntity
  8
0
  6
Continuous
 62
     7
370
    25
100
AcDbSpline
210
0.0
220
0.0
230
1.0
 70
    24
 71
     3
 72
    13
 73
     9
 74
     0
 42
0.00000001
 43
0.00000001
 40
0.0
 40
0.0
 40
0.0
 40
0.0
 40
0.1649272304777256
 40
0.3291782252303458
 40
0.5219202432989465
 40
0.68204532109832
 40
0.8413177176945061
 40
1.0
 40
1.0
 40
1.0
 40
1.0
 10
171.4363465574712
 20
350.9789219834647
 30
0.0
 10
172.3011101991512
 20
350.5196722272014
 30
0.0
 10
174.027091772888
 20
349.6030557335736
 30
0.0
 10
176.7217821443265
 20
348.1719873622394
 30
0.0
 10
179.1792612837666
 20
346.8668946855663
 30
0.0
 10
181.0263028358083
 20
345.8859869071878
 30
0.0
 10
182.6001605074405
 20
345.0501588065919
 30
0.0
 10
183.8309503879655
 20
344.3965236103386
 30
0.0
 10
184.4452031737867
 20
344.0703125758133
 30
0.0
  0
ARC
  5
F2
330
1F
100
AcDbEntity
  8
0
  6
Continuous
 62
     7
370
    25
100
AcDbCircle
 10
211.9702247433
 20
327.1880682952
 30
0.0
 40
32.28988981635797
100
AcDbArc
 50
1.2939793261
 51
45.6203304122
  0
SPLINE
  5
F3
330
1F
100
AcDbEntity
  8
0
  6
Continuous
 62
     7
370
    25
100
AcDbSpline
210
0.0
220
0.0
230
1.0
 70
    24
 71
     3
 72
    14
 73
    10
 74
     0
 42
0.00000001
 43
0.00000001
 40
0.0
 40
0.0
 40
0.0
 40
0.0
 40
0.1599365945527927
 40
0.320478234963116
 40
0.4327831140154239
 40
0.544624870161042
 40
0.6577837919874925
 40
0.7712520390670699
 40
1.0
 40
1.0
 40
1.0
 40
1.0
 10
244.2518802438754
 20
327.9172476253708
 30
0.0
 10
244.9523925071416
 20
327.8896371051103
 30
0.0
 10
246.3560670966205
 20
327.8343116130036
 30
0.0
 10
247.9662001620065
 20
327.770848610348
 30
0.0
 10
249.5243164124336
 20
327.7094358377865
 30
0.0
 10
251.113980220499
 20
327.6467796259236
 30
0.0
 10
252.9517142186373
 20
327.5743457879314
 30
0.0
 10
255.5720979981087
 20
327.4710639994072
 30
0.0
 10
257.6086761455381
 20
327.3907927676955
 30
0.0
 10
258.9699883440766
 20
327.3371369789113
 30
0.0
  0
SPLINE
  5
F4
330
1F
100
AcDbEntity
  8
0
  6
Continuous
 62
     7
370
    25
100
AcDbSpline
210
0.0
220
0.0
230
1.0
 70
    24
 71
     3
 72
    13
 73
     9
 74
     0
 42
0.00000001
 43
0.00000001
 40
0.0
 40
0.0
 40
0.0
 40
0.0
 40
0.16492723047769
 40
0.3291782252302857
 40
0.5219202432987894
 40
0.6820453210981792
 40
0.841317717694439
 40
1.0
 40
1.0
 40
1.0
 40
1.0
 10
244.184228489403
 20
361.4117145452454
 30
0.0
 10
243.5440650701612
 20
360.6708250182145
 30
0.0
 10
242.2663630339783
 20
359.1920837643088
 30
0.0
 10
240.2715495163496
 20
356.8833975770514
 30
0.0
 10
238.4523376845897
 20
354.7779430117183
 30
0.0
 10
237.0850179009558
 20
353.1954831626434
 30
0.0
 10
235.9199294768928
 20
351.8470746383393
 30
0.0
 10
235.0088057659625
 20
350.7925907441214
 30
0.0
 10
234.5540894195558
 20
350.2663273421583
 30
0.0
  0
ARC
  5
F5
330
1F
100
AcDbEntity
  8
0
  6
Continuous
 62
     7
370
    25
100
AcDbCircle
 10
211.9702247433
 20
327.1880682952
 30
0.0
 40
32.28988981635867
100
AcDbArc
 50
155.5796936118
 51
199.9060446979
  0
SPLINE
  5
F6
330
1F
100
AcDbEntity
  8
0
  6
Continuous
 62
     7
370
    25
100
AcDbSpline
210
0.0
220
0.0
230
1.0
 70
    24
 71
     3
 72
    14
 73
    10
 74
     0
 42
0.00000001
 43
0.00000001
 40
0.0
 40
0.0
 40
0.0
 40
0.0
 40
0.1599365945527837
 40
0.3204782349631068
 40
0.4327831140154222
 40
0.5446248701610482
 40
0.6577837919874999
 40
0.7712520390670867
 40
1.0
 40
1.0
 40
1.0
 40
1.0
 10
182.5690790787005
 20
340.5375858131219
 30
0.0
 10
181.9499190936833
 20
340.8664029123866
 30
0.0
 10
180.7092568192809
 20
341.5252810377634
 30
0.0
 10
179.2861126190763
 20
342.2810697823058
 30
0.0
 10
177.9089443882568
 20
343.0124420831906
 30
0.0
 10
176.5038922982414
 20
343.758622656443
 30
0.0
 10
174.8795790428994
 20
344.6212461880725
 30
0.0
 10
172.5635071242274
 20
345.8512417763142
 30
0.0
 10
170.7634419985019
 20
346.8072017986864
 30
0.0
 10
169.5602224623858
 20
347.4461952207719
 30
0.0
  0
SPLINE
  5
F7
330
1F
100
AcDbEntity
  8
0
  6
Continuous
 62
     7
370
    25
100
AcDbSpline
210
0.0
220
0.0
230
1.0
 70
    24
 71
     3
 72
    13
 73
     9
 74
     0
 42
0.00000001
 43
0.00000001
 40
0.0
 40
0.0
 40
0.0
 40
0.0
 40
0.1649272304776667
 40
0.3291782252302136
 40
0.5219202432988973
 40
0.6820453210982972
 40
0.841317717694493
 40
1.0
 40
1.0
 40
1.0
 40
1.0
 10
168.0973266563945
 20
310.3307608751386
 30
0.0
 10
168.9955538857625
 20
310.7205227755613
 30
0.0
 10
170.7883254272506
 20
311.4984484720754
 30
0.0
 10
173.5872916992837
 20
312.7129857046799
 30
0.0
 10
176.1398674231652
 20
313.8206082890148
 30
0.0
 10
178.058383577008
 20
314.6530975274456
 30
0.0
 10
179.6931445078256
 20
315.362458707223
 30
0.0
 10
180.9715620210442
 20
315.9171941051208
 30
0.0
 10
181.6095844254876
 20
316.1940470179892
 30
0.0
  0
ARC
  5
F8
330
1F
100
AcDbEntity
  8
0
  6
Continuous
 62
     7
370
    25
100
AcDbCircle
 10
211.9702247433
 20
327.1880682952
 30
0.0
 40
32.28988981635806
100
AcDbArc
 50
309.8654078975
 51
354.1917589836
  0
SPLINE
  5
F9
330
1F
100
AcDbEntity
  8
0
  6
Continuous
 62
     7
370
    25
100
AcDbSpline
210
0.0
220
0.0
230
1.0
 70
    24
 71
     3
 72
    14
 73
    10
 74
     0
 42
0.00000001
 43
0.00000001
 40
0.0
 40
0.0
 40
0.0
 40
0.0
 40
0.1599365945527986
 40
0.3204782349631351
 40
0.4327831140154405
 40
0.544624870161051
 40
0.6577837919874996
 40
0.7712520390670718
 40
1.0
 40
1.0
 40
1.0
 40
1.0
 10
232.6676030917087
 20
302.4038895947672
 30
0.0
 10
233.0827785699452
 20
301.8389921756843
 30
0.0
 10
233.9147001501018
 20
300.7070603103778
 30
0.0
 10
234.8689843225574
 20
299.4086390539451
 30
0.0
 10
235.792439475795
 20
298.1521644786199
 30
0.0
 10
236.7345920495005
 20
296.8702497578148
 30
0.0
 10
237.8237694009307
 20
295.388289702371
 30
0.0
 10
239.3768030105531
 20
293.275196025569
 30
0.0
 10
240.583830140075
 20
291.6328868190473
 30
0.0
 10
241.3906446281215
 20
290.5351162476443
 30
0.0
  0
SPLINE
  5
FA
330
1F
100
AcDbEntity
  8
0
  6
Continuous
 62
     7
370
    25
100
AcDbSpline
210
0.0
220
0.0
230
1.0
 70
    24
 71
     3
 72
    13
 73
     9
 74
     0
 42
0.00000001
 43
0.00000001
 40
0.0
 40
0.0
 40
0.0
 40
0.0
 40
0.1649272304776907
 40
0.3291782252302839
 40
0.521920243298902
 40
0.6820453210982683
 40
0.8413177176944777
 40
1.0
 40
1.0
 40
1.0
 40
1.0
 10
258.8124516391593
 20
323.3402404094958
 30
0.0
 10
257.8340655184754
 20
323.3788032601755
 30
0.0
 10
255.8813048623738
 20
323.4557708458786
 30
0.0
 10
252.8325554331846
 20
323.5759365621661
 30
0.0
 10
250.0521847445791
 20
323.6855241957522
 30
0.0
 10
247.9624578738559
 20
323.7678902714486
 30
0.0
 10
246.181808887659
 20
323.8380741175974
 30
0.0
 10
244.7893038394072
 20
323.8929593649569
 30
0.0
 10
244.0943435389588
 20
323.9203510559551
 30
0.0
  0
ARC
  5
FB
330
1F
100
AcDbEntity
  8
0
  6
Continuous
 62
     7
370
    25
100
AcDbCircle
 10
211.9702247433
 20
327.1880682952
 30
0.0
 40
32.2898898163582
100
AcDbArc
 50
207.0082650404
 51
251.3346161265
  0
SPLINE
  5
FC
330
1F
100
AcDbEntity
  8
0
  6
Continuous
 62
     7
370
    25
100
AcDbSpline
210
0.0
220
0.0
230
1.0
 70
    24
 71
     3
 72
    14
 73
    10
 74
     0
 42
0.00000001
 43
0.00000001
 40
0.0
 40
0.0
 40
0.0
 40
0.0
 40
0.1599365945527987
 40
0.320478234963135
 40
0.4327831140154515
 40
0.5446248701610811
 40
0.6577837919875368
 40
0.771252039067116
 40
0.9999999999999999
 40
0.9999999999999999
 40
0.9999999999999999
 40
0.9999999999999999
 10
183.2018371872096
 20
312.5246150261426
 30
0.0
 10
182.5587176906532
 20
312.2455503652401
 30
0.0
 10
181.2700457534829
 20
311.6863653318419
 30
0.0
 10
179.7918304235023
 20
311.0449329666118
 30
0.0
 10
178.3613701859052
 20
310.4242226580657
 30
0.0
 10
176.9019470729249
 20
309.7909446773518
 30
0.0
 10
175.2147780886502
 20
309.05884241175
 30
0.0
 10
172.8090815928032
 20
308.0149541756721
 30
0.0
 10
170.9393597027598
 20
307.2036379148212
 30
0.0
 10
169.6895794181176
 20
306.6613288832906
 30
0.0
  0
SPLINE
  5
FD
330
1F
100
AcDbEntity
  8
0
  6
Continuous
 62
     7
370
    25
100
AcDbSpline
210
0.0
220
0.0
230
1.0
 70
    24
 71
     3
 72
    13
 73
     9
 74
     0
 42
0.00000001
 43
0.00000001
 40
0.0
 40
0.0
 40
0.0
 40
0.0
 40
0.1649272304777388
 40
0.3291782252303675
 40
0.5219202432990009
 40
0.6820453210983978
 40
0.8413177176945434
 40
1.0
 40
1.0
 40
1.0
 40
1.0
 10
197.795493858793
 20
282.3764960805364
 30
0.0
 10
198.0508012516385
 20
283.3217709769333
 30
0.0
 10
198.5603692242628
 20
285.2084449473226
 30
0.0
 10
199.3559327055412
 20
288.1540164756701
 30
0.0
 10
200.0814634307269
 20
290.8402919236281
 30
0.0
 10
200.6267723919279
 20
292.8592968026423
 30
0.0
 10
201.0914282579796
 20
294.57968382609
 30
0.0
 10
201.4547989414732
 20
295.9250627489818
 30
0.0
 10
201.6361470807075
 20
296.5965037190836
 30
0.0
  0
ARC
  5
FE
330
1F
100
AcDbEntity
  8
0
  6
Continuous
 62
     7
370
    25
100
AcDbCircle
 10
211.9702247433
 20
327.1880682952
 30
0.0
 40
32.28988981635769
100
AcDbArc
 50
258.436836469
 51
302.763187555
  0
SPLINE
  5
FF
330
1F
100
AcDbEntity
  8
0
  6
Continuous
 62
     7
370
    25
100
AcDbSpline
210
0.0
220
0.0
230
1.0
 70
    24
 71
     3
 72
    14
 73
    10
 74
     0
 42
0.00000001
 43
0.00000001
 40
0.0
 40
0.0
 40
0.0
 40
0.0
 40
0.1599365945528451
 40
0.3204782349632374
 40
0.4327831140154914
 40
0.5446248701610643
 40
0.6577837919874908
 40
0.7712520390670501
 40
1.0
 40
1.0
 40
1.0
 40
1.0
 10
205.4977778936233
 20
295.5535236307144
 30
0.0
 10
205.3149809836816
 20
294.8767185911859
 30
0.0
 10
204.9486956365499
 20
293.5205481344573
 30
0.0
 10
204.5285354703672
 20
291.9649063133099
 30
0.0
 10
204.1219489609739
 20
290.4595209178498
 30
0.0
 10
203.7071301959094
 20
288.9236556191639
 30
0.0
 10
203.2275781398361
 20
287.1481154944937
 30
0.0
 10
202.5437955954524
 20
284.6164125673017
 30
0.0
 10
202.0123556596701
 20
282.6487577154833
 30
0.0
 10
201.6571246717091
 20
281.3335159921666
 30
0.0
  0
SPLINE
  5
100
330
1F
100
AcDbEntity
  8
0
  6
Continuous
 62
     7
370
    25
100
AcDbSpline
210
0.0
220
0.0
230
1.0
 70
    24
 71
     3
 72
    13
 73
     9
 74
     0
 42
0.00000001
 43
0.00000001
 40
0.0
 40
0.0
 40
0.0
 40
0.0
 40
0.1649272304776953
 40
0.3291782252302956
 40
0.521920243298899
 40
0.6820453210982745
 40
0.841317717694485
 40
1.0
 40
1.0
 40
1.0
 40
1.0
 10
238.1675225290499
 20
288.166259153078
 30
0.0
 10
237.5876584112386
 20
288.9552357683681
 30
0.0
 10
236.4303077383206
 20
290.5299540317931
 30
0.0
 10
234.6233929009058
 20
292.9884844163287
 30
0.0
 10
232.9755391931998
 20
295.2305925255617
 30
0.0
 10
231.7370121917008
 20
296.9157611910696
 30
0.0
 10
230.6816676485965
 20
298.3516875400317
 30
0.0
 10
229.8563659662832
 20
299.4746122182518
 30
0.0
 10
229.4444809926372
 20
300.0350325002009
 30
0.0
  0
CIRCLE
  5
101
330
1F
100
AcDbEntity
  8
0
  6
Continuous
 62
     7
370
    25
100
AcDbCircle
 10
211.9702247433
 20
327.1880682952
 30
0.0
 40
57.00000000000217
  0
SPLINE
  5
102
330
1F
100
AcDbEntity
  8
0
  6
Continuous
 62
     7
370
    25
100
AcDbSpline
210
0.0
220
0.0
230
1.0
 70
     8
 71
     3
 72
    17
 73
    13
 74
     0
 42
0.00000001
 43
0.00000001
 40
0.0
 40
0.0
 40
0.0
 40
0.0
 40
0.1455223921505486
 40
0.2624588275807686
 40
0.3598828361522681
 40
0.4578119450664818
 40
0.5434089571658558
 40
0.6239661829574299
 40
0.7083342836252758
 40
0.8033999298611172
 40
0.9148734637124044
 40
1.0
 40
1.0
 40
1.0
 40
1.0
 10
242.8674048038239
 20
323.9687105474032
 30
0.0
 10
242.593688519991
 20
324.0112872001328
 30
0.0
 10
242.1000239101471
 20
324.088076883099
 30
0.0
 10
241.5014877151731
 20
324.5317897940569
 30
0.0
 10
241.108934265636
 20
325.0887072807781
 30
0.0
 10
240.9262154003546
 20
325.7195416756355
 30
0.0
 10
240.9534795627317
 20
326.3462588840105
 30
0.0
 10
241.1452199601636
 20
326.8952717385442
 30
0.0
 10
241.477761848537
 20
327.3658249710082
 30
0.0
 10
241.9544996884658
 20
327.7396901456774
 30
0.0
 10
242.4945991253449
 20
327.9494675791255
 30
0.0
 10
242.8646932073196
 20
327.9607303926837
 30
0.0
 10
243.0249415087407
 20
327.9656071168191
 30
0.0
  0
SPLINE
  5
103
330
1F
100
AcDbEntity
  8
0
  6
Continuous
 62
     7
370
    25
100
AcDbSpline
210
0.0
220
0.0
230
1.0
 70
     8
 71
     3
 72
    17
 73
    13
 74
     0
 42
0.00000001
 43
0.00000001
 40
0.0
 40
0.0
 40
0.0
 40
0.0
 40
0.1455223921505355
 40
0.2624588275806866
 40
0.3598828361521931
 40
0.4578119450664056
 40
0.54340895716578
 40
0.623966182957432
 40
0.7083342836252551
 40
0.8033999298610933
 40
0.914873463712402
 40
1.0
 40
1.0
 40
1.0
 40
1.0
 10
228.7173061766659
 20
301.0244434801299
 30
0.0
 10
228.5799346326153
 20
301.2649895968688
 30
0.0
 10
228.3321763745107
 20
301.6988297148422
 30
0.0
 10
228.3059038838653
 20
302.4434346304044
 30
0.0
 10
228.4965664356499
 20
303.0975776492514
 30
0.0
 10
228.8758492766633
 20
303.6337518224246
 30
0.0
 10
229.3828354479739
 20
304.0031876300063
 30
0.0
 10
229.9316191643302
 20
304.1955828667239
 30
0.0
 10
230.5068489717397
 20
304.2289762908276
 30
0.0
 10
231.0963897168502
 20
304.0893487623636
 30
0.0
 10
231.5971468095154
 20
303.7978761093636
 30
0.0
 10
231.8367023175758
 20
303.5155471539945
 30
0.0
 10
231.9404282757375
 20
303.3933005746962
 30
0.0
  0
SPLINE
  5
104
330
1F
100
AcDbEntity
  8
0
  6
Continuous
 62
     7
370
    25
100
AcDbSpline
210
0.0
220
0.0
230
1.0
 70
     8
 71
     3
 72
    17
 73
    13
 74
     0
 42
0.00000001
 43
0.00000001
 40
0.0
 40
0.0
 40
0.0
 40
0.0
 40
0.1455223921505172
 40
0.2624588275809515
 40
0.359882836152464
 40
0.4578119450666523
 40
0.5434089571660053
 40
0.6239661829576378
 40
0.708334283625445
 40
0.8033999298612754
 40
0.914873463712425
 40
1.0
 40
1.0
 40
1.0
 40
1.0
 10
201.956313651988
 20
297.7819195393004
 30
0.0
 10
202.0587304222591
 20
298.0392989878978
 30
0.0
 10
202.2434455375947
 20
298.5034990833198
 30
0.0
 10
202.8092204725938
 20
298.9882933148951
 30
0.0
 10
203.4395262354002
 20
299.247078830591
 30
0.0
 10
204.0952030674649
 20
299.2848426937205
 30
0.0
 10
204.700140320079
 20
299.1188044022824
 30
0.0
 10
205.1927220237959
 20
298.8097044837888
 30
0.0
 10
205.5774799727129
 20
298.38079217008
 30
0.0
 10
205.8358874174958
 20
297.8328143152983
 30
0.0
 10
205.9202218615873
 20
297.2595764285184
 30
0.0
 10
205.8488486121223
 20
296.8962551660763
 30
0.0
 10
205.8179444649046
 20
296.7389394509317
 30
0.0
  0
SPLINE
  5
105
330
1F
100
AcDbEntity
  8
0
  6
Continuous
 62
     7
370
    25
100
AcDbSpline
210
0.0
220
0.0
230
1.0
 70
     8
 71
     3
 72
    17
 73
    13
 74
     0
 42
0.00000001
 43
0.00000001
 40
0.0
 40
0.0
 40
0.0
 40
0.0
 40
0.1455223921505712
 40
0.2624588275806775
 40
0.3598828361522037
 40
0.4578119450664256
 40
0.543408957165811
 40
0.6239661829574771
 40
0.7083342836253143
 40
0.8033999298611652
 40
0.9148734637123865
 40
1.0
 40
1.0
 40
1.0
 40
1.0
 10
182.7360004256388
 20
316.6828253877951
 30
0.0
 10
183.0010835932958
 20
316.7632261938732
 30
0.0
 10
183.4791778327212
 20
316.9082341269338
 30
0.0
 10
184.2109601276058
 20
316.7681577301464
 30
0.0
 10
184.8062760061449
 20
316.4367149711089
 30
0.0
 10
185.2446088013465
 20
315.9476315650158
 30
0.0
 10
185.4919670455743
 20
315.3711493945748
 30
0.0
 10
185.5574226669177
 20
314.793312863985
 30
0.0
 10
185.4619781741752
 20
314.2250745329031
 30
0.0
 10
185.1946662421596
 20
313.6813848531662
 30
0.0
 10
184.7990724811672
 20
313.258041553273
 30
0.0
 10
184.4705159867729
 20
313.0873163047796
 30
0.0
 10
184.3282531873607
 20
313.0133933959484
 30
0.0
  0
SPLINE
  5
106
330
1F
100
AcDbEntity
  8
0
  6
Continuous
 62
     7
370
    25
100
AcDbSpline
210
0.0
220
0.0
230
1.0
 70
     8
 71
     3
 72
    17
 73
    13
 74
     0
 42
0.00000001
 43
0.00000001
 40
0.0
 40
0.0
 40
0.0
 40
0.0
 40
0.145522392150534
 40
0.2624588275806738
 40
0.3598828361521824
 40
0.4578119450664697
 40
0.543408957165839
 40
0.6239661829574804
 40
0.7083342836253008
 40
0.8033999298611285
 40
0.9148734637124133
 40
1.0
 40
1.0
 40
1.0
 40
1.0
 10
185.5296543799953
 20
343.4943934134826
 30
0.0
 10
185.7577909130814
 20
343.3372721301869
 30
0.0
 10
186.1692495629648
 20
343.0538939696692
 30
0.0
 10
186.515992224048
 20
342.3944273283379
 30
0.0
 10
186.6280332195498
 20
341.7223394523223
 30
0.0
 10
186.5189484427422
 20
341.074698557279
 30
0.0
 10
186.2224618754915
 20
340.5218753402698
 30
0.0
 10
185.8115019965382
 20
340.110424890835
 30
0.0
 10
185.3077267118847
 20
339.8307555956345
 30
0.0
 10
184.7159867400465
 20
339.7007635090318
 30
0.0
 10
184.1383549446399
 20
339.7461009354749
 30
0.0
 10
183.8000249469263
 20
339.8965312952065
 30
0.0
 10
183.653530284909
 20
339.961666650791
 30
0.0
  0
SPLINE
  5
107
330
1F
100
AcDbEntity
  8
0
  6
Continuous
 62
     7
370
    25
100
AcDbSpline
210
0.0
220
0.0
230
1.0
 70
     8
 71
     3
 72
    17
 73
    13
 74
     0
 42
0.00000001
 43
0.00000001
 40
0.0
 40
0.0
 40
0.0
 40
0.0
 40
0.1455223921505283
 40
0.262458827580672
 40
0.3598828361521741
 40
0.4578119450663736
 40
0.5434089571657441
 40
0.6239661829574673
 40
0.7083342836252905
 40
0.803399929861124
 40
0.9148734637124052
 40
1.0
 40
1.0
 40
1.0
 40
1.0
 10
208.2335971072739
 20
358.0269660367023
 30
0.0
 10
208.2529955432381
 20
357.7506381950448
 30
0.0
 10
208.2879818479903
 20
357.2522634756799
 30
0.0
 10
207.9885805792148
 20
356.5699984213941
 30
0.0
 10
207.5329775368469
 20
356.0633613071353
 30
0.0
 10
206.9586182498898
 20
355.7448497265748
 30
0.0
 10
206.3415473035242
 20
355.6319726209447
 30
0.0
 10
205.7636330951797
 20
355.6967388331482
 30
0.0
 10
205.230880083102
 20
355.9162352573289
 30
0.0
 10
204.7603043395309
 20
356.2978274564278
 30
0.0
 10
204.4356030331935
 20
356.7777056023814
 30
0.0
 10
204.3422689211129
 20
357.1360144412397
 30
0.0
 10
204.3018558649362
 20
357.2911598099657
 30
0.0
  0
SPLINE
  5
108
330
1F
100
AcDbEntity
  8
0
  6
Continuous
 62
     7
370
    25
100
AcDbSpline
210
0.0
220
0.0
230
1.0
 70
     8
 71
     3
 72
    17
 73
    13
 74
     0
 42
0.00000001
 43
0.00000001
 40
0.0
 40
0.0
 40
0.0
 40
0.0
 40
0.1455223921505268
 40
0.2624588275807062
 40
0.3598828361521977
 40
0.4578119450664048
 40
0.5434089571657815
 40
0.6239661829574417
 40
0.7083342836252582
 40
0.8033999298611042
 40
0.9148734637124178
 40
0.9999999999999999
 40
0.9999999999999999
 40
0.9999999999999999
 40
0.9999999999999999
 10
233.7512966578033
 20
349.3372196617114
 30
0.0
 10
233.5473495787088
 20
349.1497657625209
 30
0.0
 10
233.179518137261
 20
348.8116808129822
 30
0.0
 10
232.4594282006873
 20
348.6203768472898
 30
0.0
 10
231.7792595039609
 20
348.660698575338
 30
0.0
 10
231.1721299647276
 20
348.9111620258756
 30
0.0
 10
230.6991416478139
 20
349.3232297944368
 30
0.0
 10
230.3894542962634
 20
349.8154423895001
 30
0.0
 10
230.228897441037
 20
350.368819248743
 30
0.0
 10
230.233839058638
 20
350.9746490245595
 30
0.0
 10
230.4065749477409
 20
351.5277098583898
 30
0.0
 10
230.6285192113593
 20
351.8240833125465
 30
0.0
 10
230.7246196166002
 20
351.9524110673744
 30
0.0
  0
SPLINE
  5
109
330
1F
100
AcDbEntity
  8
0
  6
Continuous
 62
     7
370
    25
100
AcDbSpline
210
0.0
220
0.0
230
1.0
 70
    11
 71
     3
 72
    26
 73
    22
 74
     0
 42
0.00000001
 43
0.00000001
 40
0.0
 40
0.0
 40
0.0
 40
0.0
 40
0.0535972164200141
 40
0.1071921782484014
 40
0.1608597534174727
 40
0.214709497766412
 40
0.2686478624799102
 40
0.3224381663529171
 40
0.3759329881741684
 40
0.429242772214562
 40
0.4826449979174881
 40
0.5363313024995328
 40
0.5902427041024123
 40
0.6441475424480705
 40
0.6978798079301035
 40
0.7514722617449131
 40
0.8050492353698567
 40
0.8586625397261011
 40
0.9122900741654494
 40
0.9659177767677211
 40
1.0
 40
1.0
 40
1.0
 40
1.0
 10
221.5859520038502
 20
340.1105219846755
 30
0.0
 10
221.6091383656818
 20
340.2782601218854
 30
0.0
 10
221.6555101139999
 20
340.6137293403231
 30
0.0
 10
221.9309109050654
 20
341.0515907998486
 30
0.0
 10
222.3239450525308
 20
341.3776826800683
 30
0.0
 10
222.8066677214654
 20
341.5547452080584
 30
0.0
 10
223.3208139382395
 20
341.5620065596173
 30
0.0
 10
223.8081341949036
 20
341.3982300128088
 30
0.0
 10
224.2123998307795
 20
341.0833216294386
 30
0.0
 10
224.4893467059314
 20
340.6540466642839
 30
0.0
 10
224.6095708456685
 20
340.1577181468876
 30
0.0
 10
224.5593464480882
 20
339.6481131875325
 30
0.0
 10
224.3425710981039
 20
339.1822582165395
 30
0.0
 10
223.9829399185177
 20
338.8142078896276
 30
0.0
 10
223.5219895594117
 20
338.5865444609757
 30
0.0
 10
223.0124174905193
 20
338.5244846304096
 30
0.0
 10
222.511511108133
 20
338.634352452667
 30
0.0
 10
222.0743737917515
 20
338.90393515483
 30
0.0
 10
221.7534969208614
 20
339.3026401397102
 30
0.0
 10
221.5951901856847
 20
339.7281151008952
 30
0.0
 10
221.5885372096945
 20
340.0035095304376
 30
0.0
 10
221.5859520038502
 20
340.1105219846755
 30
0.0
  0
SPLINE
  5
10A
330
1F
100
AcDbEntity
  8
0
  6
Continuous
 62
     7
370
    25
100
AcDbSpline
210
0.0
220
0.0
230
1.0
 70
    11
 71
     3
 72
    26
 73
    22
 74
     0
 42
0.00000001
 43
0.00000001
 40
0.0
 40
0.0
 40
0.0
 40
0.0
 40
0.053597216420019
 40
0.1071921782484098
 40
0.1608597534174796
 40
0.2147094977664256
 40
0.2686478624799163
 40
0.3224381663529181
 40
0.3759329881741704
 40
0.4292427722145702
 40
0.4826449979175009
 40
0.5363313024995364
 40
0.5902427041024172
 40
0.6441475424480793
 40
0.6978798079301023
 40
0.751472261744924
 40
0.8050492353698635
 40
0.858662539726101
 40
0.9122900741654495
 40
0.9659177767677242
 40
1.0
 40
1.0
 40
1.0
 40
1.0
 10
197.2320633368994
 20
333.6871927334577
 30
0.0
 10
197.0633712941062
 20
333.672472517837
 30
0.0
 10
196.7259943046286
 20
333.6430327058085
 30
0.0
 10
196.2378285048284
 20
333.8140952831386
 30
0.0
 10
195.8324541032955
 20
334.1247129742009
 30
0.0
 10
195.5524150034233
 20
334.5559326588912
 30
0.0
 10
195.4309274127616
 20
335.0555723538363
 30
0.0
 10
195.4821587809575
 20
335.5671181843855
 30
0.0
 10
195.6992141868235
 20
336.0313217443152
 30
0.0
 10
196.0560998550385
 20
336.3968476492626
 30
0.0
 10
196.5132319924015
 20
336.6245010040504
 30
0.0
 10
197.0212360713202
 20
336.6889336084815
 30
0.0
 10
197.523648138907
 20
336.5812557523424
 30
0.0
 10
197.9624961416625
 20
336.31254017976
 30
0.0
 10
198.2870226772541
 20
335.9138066873087
 30
0.0
 10
198.4609169909864
 20
335.4308202655362
 30
0.0
 10
198.4652659404499
 20
334.9180247615373
 30
0.0
 10
198.2997144433786
 20
334.4318595956769
 30
0.0
 10
197.982407645888
 20
334.0303075722642
 30
0.0
 10
197.6028267928574
 20
333.7812928317159
 30
0.0
 10
197.3358175030681
 20
333.7135256340559
 30
0.0
 10
197.2320633368994
 20
333.6871927334577
 30
0.0
  0
SPLINE
  5
10B
330
1F
100
AcDbEntity
  8
0
  6
Continuous
 62
     7
370
    25
100
AcDbSpline
210
0.0
220
0.0
230
1.0
 70
    11
 71
     3
 72
    26
 73
    22
 74
     0
 42
0.00000001
 43
0.00000001
 40
0.0
 40
0.0
 40
0.0
 40
0.0
 40
0.0535972164200069
 40
0.1071921782483836
 40
0.1608597534174572
 40
0.2147094977663987
 40
0.2686478624798945
 40
0.3224381663529058
 40
0.3759329881741534
 40
0.4292427722145554
 40
0.4826449979174771
 40
0.5363313024995235
 40
0.5902427041024072
 40
0.6441475424480669
 40
0.6978798079300949
 40
0.7514722617449111
 40
0.8050492353698546
 40
0.8586625397260974
 40
0.9122900741654455
 40
0.965917776767721
 40
1.0
 40
1.0
 40
1.0
 40
1.0
 10
208.9135963646838
 20
311.3732321259686
 30
0.0
 10
208.9654850246789
 20
311.2120451010145
 30
0.0
 10
209.0692601619488
 20
310.8896778315131
 30
0.0
 10
209.0111135902773
 20
310.3756863630426
 30
0.0
 10
208.7984880236741
 20
309.911356605386
 30
0.0
 10
208.4403944788353
 20
309.5423832634403
 30
0.0
 10
207.9803153263374
 20
309.31276132876
 30
0.0
 10
207.4701949658758
 20
309.2488785636179
 30
0.0
 10
206.9693305867327
 20
309.3571969275853
 30
0.0
 10
206.533554647167
 20
309.6237975612318
 30
0.0
 10
206.2098875671352
 20
310.0188108043766
 30
0.0
 10
206.0340288805261
 20
310.4997405571013
 30
0.0
 10
206.0272098254897
 20
311.0135166823233
 30
0.0
 10
206.1915352702
 20
311.5011566895944
 30
0.0
 10
206.5080577337191
 20
311.9062732165262
 30
0.0
 10
206.9402395524087
 20
312.1832822264145
 30
0.0
 10
207.4392104702022
 20
312.3016298731138
 30
0.0
 10
207.9500251340762
 20
312.2484110244797
 30
0.0
 10
208.4121168148226
 20
312.0284135021629
 30
0.0
 10
208.7393529218561
 20
311.7137605262494
 30
0.0
 10
208.8648362109241
 20
311.4685253369368
 30
0.0
 10
208.9135963646838
 20
311.3732321259686
 30
0.0
  0
SPLINE
  5
10C
330
1F
100
AcDbEntity
  8
0
  6
Continuous
 62
     7
370
    25
100
AcDbSpline
210
0.0
220
0.0
230
1.0
 70
    11
 71
     3
 72
    26
 73
    22
 74
     0
 42
0.00000001
 43
0.00000001
 40
0.0
 40
0.0
 40
0.0
 40
0.0
 40
0.0564885541921882
 40
0.1128994301864924
 40
0.1712256558511391
 40
0.2300375349558821
 40
0.2867064896554901
 40
0.3395363008404609
 40
0.3890615100951957
 40
0.4374690463182138
 40
0.4871682267512884
 40
0.5398630249433566
 40
0.5960305847835581
 40
0.6545948261960601
 40
0.7132408736151703
 40
0.7696720731028553
 40
0.8229238449445878
 40
0.8735646339153575
 40
0.9230009993633915
 40
0.9728027922198355
 40
1.0
 40
1.0
 40
1.0
 40
1.0
 10
226.6621490349375
 20
345.3875147186665
 30
0.0
 10
226.6789112796295
 20
345.5041247896583
 30
0.0
 10
226.7124127190171
 20
345.7371845795086
 30
0.0
 10
226.9083699808749
 20
346.034947843088
 30
0.0
 10
227.188890356658
 20
346.2541263521367
 30
0.0
 10
227.5359993696332
 20
346.3622420010502
 30
0.0
 10
227.89554358621
 20
346.3416028620778
 30
0.0
 10
228.2144653175823
 20
346.2035256068648
 30
0.0
 10
228.4584463112148
 20
345.9796807143641
 30
0.0
 10
228.6150379127396
 20
345.6998365981315
 30
0.0
 10
228.6778472438826
 20
345.3850737900852
 30
0.0
 10
228.6375440289266
 20
345.0569679703617
 30
0.0
 10
228.4861371290744
 20
344.7472428703775
 30
0.0
 10
228.2290509391434
 20
344.4986525468119
 30
0.0
 10
227.8955229650864
 20
344.3535255020125
 30
0.0
 10
227.5356077845873
 20
344.3352186676805
 30
0.0
 10
227.2019003139776
 20
344.438517990705
 30
0.0
 10
226.9311103892919
 20
344.6390075415249
 30
0.0
 10
226.7451795698257
 20
344.9078543761589
 30
0.0
 10
226.6646129101679
 20
345.1699084362145
 30
0.0
 10
226.6627921536037
 20
345.3307153075551
 30
0.0
 10
226.6621490349375
 20
345.3875147186665
 30
0.0
  0
SPLINE
  5
10D
330
1F
100
AcDbEntity
  8
0
  6
Continuous
 62
     7
370
    25
100
AcDbSpline
210
0.0
220
0.0
230
1.0
 70
    11
 71
     3
 72
    26
 73
    22
 74
     0
 42
0.00000001
 43
0.00000001
 40
0.0
 40
0.0
 40
0.0
 40
0.0
 40
0.0564885541921632
 40
0.1128994301864533
 40
0.1712256558510452
 40
0.2300375349559252
 40
0.2867064896555229
 40
0.3395363008404766
 40
0.3890615100952027
 40
0.4374690463182085
 40
0.487168226751269
 40
0.5398630249433211
 40
0.5960305847835204
 40
0.6545948261961327
 40
0.7132408736152248
 40
0.7696720731028992
 40
0.8229238449446219
 40
0.8735646339153759
 40
0.9230009993633965
 40
0.9728027922198264
 40
1.0
 40
1.0
 40
1.0
 40
1.0
 10
190.957815723847
 20
337.4618775551508
 30
0.0
 10
190.8403993604516
 20
337.4522713534659
 30
0.0
 10
190.6057280945379
 20
337.4330721597181
 30
0.0
 10
190.271825784728
 20
337.5578578043884
 30
0.0
 10
189.9957208824924
 20
337.7825731421388
 30
0.0
 10
189.8130768968719
 20
338.0969214122856
 30
0.0
 10
189.7531924546679
 20
338.4520437451707
 30
0.0
 10
189.8168410632886
 20
338.7936945226749
 30
0.0
 10
189.9807828184163
 20
339.0813685779499
 30
0.0
 10
190.2187657489703
 20
339.2963052751956
 30
0.0
 10
190.5116604052243
 20
339.4275811592936
 30
0.0
 10
190.8405082360554
 20
339.4612988435239
 30
0.0
 10
191.1761590858961
 20
339.3826083492791
 30
0.0
 10
191.4757237901286
 20
339.1872843978517
 30
0.0
 10
191.6914291532039
 20
338.8944124720009
 30
0.0
 10
191.7893656590878
 20
338.5475947703877
 30
0.0
 10
191.7629131637898
 20
338.1992677809503
 30
0.0
 10
191.6277067315419
 20
337.8906540029397
 30
0.0
 10
191.4069739479543
 20
337.6495608085731
 30
0.0
 10
191.1694178986582
 20
337.512701609091
 30
0.0
 10
191.0130479477688
 20
337.475143607498
 30
0.0
 10
190.957815723847
 20
337.4618775551508
 30
0.0
  0
SPLINE
  5
10E
330
1F
100
AcDbEntity
  8
0
  6
Continuous
 62
     7
370
    25
100
AcDbSpline
210
0.0
220
0.0
230
1.0
 70
    11
 71
     3
 72
    26
 73
    22
 74
     0
 42
0.00000001
 43
0.00000001
 40
0.0
 40
0.0
 40
0.0
 40
0.0
 40
0.056488554192176
 40
0.1128994301864703
 40
0.1712256558510654
 40
0.2300375349559433
 40
0.2867064896555391
 40
0.3395363008404946
 40
0.3890615100952073
 40
0.4374690463182027
 40
0.4871682267512703
 40
0.5398630249433349
 40
0.5960305847835118
 40
0.6545948261961327
 40
0.7132408736152334
 40
0.7696720731029115
 40
0.8229238449446373
 40
0.8735646339153853
 40
0.9230009993634076
 40
0.9728027922198408
 40
0.9999999999999999
 40
0.9999999999999999
 40
0.9999999999999999
 40
0.9999999999999999
 10
206.6297022110559
 20
304.41634660815
 30
0.0
 10
206.665195164053
 20
304.3040116990995
 30
0.0
 10
206.7361322631931
 20
304.0794963542972
 30
0.0
 10
206.6887755089931
 20
303.726198254325
 30
0.0
 10
206.5311333746405
 20
303.4070120116151
 30
0.0
 10
206.2653085821899
 20
303.1589982213807
 30
0.0
 10
205.9324154496299
 20
303.0215930539883
 30
0.0
 10
205.5851674225871
 20
303.007621409007
 30
0.0
 10
205.2682254840238
 20
303.1034393025983
 30
0.0
 10
205.0057215145539
 20
303.2876275896056
 30
0.0
 10
204.8125617984901
 20
303.5439671329811
 30
0.0
 10
204.7065139605539
 20
303.857067171533
 30
0.0
 10
204.7085421792266
 20
304.2018128360632
 30
0.0
 10
204.8323095336246
 20
304.5373304958194
 30
0.0
 10
205.0698395899802
 20
304.8127978095589
 30
0.0
 10
205.386168924964
 20
304.9854530416421
 30
0.0
 10
205.7316488634919
 20
305.0371738126411
 30
0.0
 10
206.0626113113392
 20
304.9740303140508
 30
0.0
 10
206.3467774611227
 20
304.8124800449787
 30
0.0
 10
206.5330665086931
 20
304.6113340587014
 30
0.0
 10
206.6044784402865
 20
304.467242070545
 30
0.0
 10
206.6297022110559
 20
304.41634660815
 30
0.0
  0
SPLINE
  5
10F
330
1F
100
AcDbEntity
  8
0
  6
Continuous
 62
     7
370
    25
100
AcDbSpline
210
0.0
220
0.0
230
1.0
 70
     8
 71
     3
 72
    22
 73
    18
 74
     0
 42
0.00000001
 43
0.00000001
 40
0.0
 40
0.0
 40
0.0
 40
0.0
 40
0.0397003211011823
 40
0.1134355243094362
 40
0.1881134770779246
 40
0.261971198670156
 40
0.3345451212260982
 40
0.4061624874474167
 40
0.4772648119815631
 40
0.5481500003000338
 40
0.6189863431575796
 40
0.6899037124886706
 40
0.7610902340069063
 40
0.8328685008582288
 40
0.9056663168670499
 40
0.9797188782555417
 40
1.0
 40
1.0
 40
1.0
 40
1.0
 10
203.7057877471498
 20
329.9881631456065
 30
0.0
 10
203.5890836616597
 20
329.9493282448917
 30
0.0
 10
203.2556256754414
 20
329.838365481823
 30
0.0
 10
202.6622806799564
 20
329.9012046626933
 30
0.0
 10
202.0231687785656
 20
330.1684267045442
 30
0.0
 10
201.5115395384333
 20
330.6483131719468
 30
0.0
 10
201.1940106007468
 20
331.2647734791478
 30
0.0
 10
201.101199221838
 20
331.9464375197136
 30
0.0
 10
201.2385811778252
 20
332.6160812571139
 30
0.0
 10
201.5880878683752
 20
333.2010225714795
 30
0.0
 10
202.109689495683
 20
333.6374274569618
 30
0.0
 10
202.7453820675682
 20
333.8778163670326
 30
0.0
 10
203.4233639196787
 20
333.8957142069348
 30
0.0
 10
204.0754405767065
 20
333.6904968514422
 30
0.0
 10
204.6095987103251
 20
333.2751584876256
 30
0.0
 10
204.9381992203567
 20
332.8528838304347
 30
0.0
 10
204.9993023757922
 20
332.5671781277824
 30
0.0
 10
205.012439152532
 20
332.5057532798793
 30
0.0
  0
SPLINE
  5
110
330
1F
100
AcDbEntity
  8
0
  6
Continuous
 62
     7
370
    25
100
AcDbSpline
210
0.0
220
0.0
230
1.0
 70
     8
 71
     3
 72
    22
 73
    18
 74
     0
 42
0.00000001
 43
0.00000001
 40
0.0
 40
0.0
 40
0.0
 40
0.0
 40
0.0319521395347305
 40
0.1074697491138684
 40
0.1839528974061808
 40
0.2595959870150103
 40
0.3339242442211078
 40
0.4072728221875019
 40
0.4800939083269701
 40
0.5526926094013987
 40
0.6252412842700661
 40
0.6978729442710484
 40
0.7707802626943719
 40
0.8442936307532782
 40
0.9188511936048
 40
0.9946938328862317
 40
1.0
 40
1.0
 40
1.0
 40
1.0
 10
204.5975368262244
 20
322.4002580831846
 30
0.0
 10
204.5636087385513
 20
322.3098690714684
 30
0.0
 10
204.4494929665486
 20
322.0058492295034
 30
0.0
 10
204.0442501349229
 20
321.6031951304814
 30
0.0
 10
203.4385584692609
 20
321.269168107456
 30
0.0
 10
202.74391868244
 20
321.1686191495282
 30
0.0
 10
202.0640932998823
 20
321.3046549702169
 30
0.0
 10
201.4732489248654
 20
321.6571207301494
 30
0.0
 10
201.0353642315843
 20
322.1820396633727
 30
0.0
 10
200.7959527454852
 20
322.8200086607531
 30
0.0
 10
200.7799626308537
 20
323.4998789889266
 30
0.0
 10
200.9884000560678
 20
324.146867977251
 30
0.0
 10
201.3969964179733
 20
324.6877023920028
 30
0.0
 10
201.9644791513131
 20
325.0710493238687
 30
0.0
 10
202.6204383987321
 20
325.2240560569899
 30
0.0
 10
203.1118593679218
 20
325.233069244649
 30
0.0
 10
203.3331558398999
 20
325.1288303504044
 30
0.0
 10
203.3476259980472
 20
325.1220143660766
 30
0.0
  0
SPLINE
  5
111
330
1F
100
AcDbEntity
  8
0
  6
Continuous
 62
     7
370
    25
100
AcDbSpline
210
0.0
220
0.0
230
1.0
 70
     8
 71
     3
 72
    22
 73
    18
 74
     0
 42
0.00000001
 43
0.00000001
 40
0.0
 40
0.0
 40
0.0
 40
0.0
 40
0.0241217545282278
 40
0.0992478720112386
 40
0.1753345227421324
 40
0.2505854697517332
 40
0.3245284006031348
 40
0.3974967309862479
 40
0.46994030412161
 40
0.5421626450620538
 40
0.6143352191384331
 40
0.6865903481425089
 40
0.7591197065235181
 40
0.8322519727081081
 40
0.9064230204577209
 40
0.9818724826511506
 40
1.0
 40
1.0
 40
1.0
 40
1.0
 10
211.1497328587273
 20
318.3776312895629
 30
0.0
 10
211.1867959374596
 20
318.3145257705505
 30
0.0
 10
211.3392903047353
 20
318.0548809562887
 30
0.0
 10
211.3933883926128
 20
317.5085692650422
 30
0.0
 10
211.27880017256
 20
316.82753181485
 30
0.0
 10
210.9238072482555
 20
316.2215439959735
 30
0.0
 10
210.3937179398185
 20
315.7749059027126
 30
0.0
 10
209.74972927009
 20
315.5327094559891
 30
0.0
 10
209.0663226508368
 20
315.5176442683812
 30
0.0
 10
208.4182690903061
 20
315.7282253741445
 30
0.0
 10
207.8767420522154
 20
316.1396372585619
 30
0.0
 10
207.5009164646894
 20
316.7059127003329
 30
0.0
 10
207.3326341626892
 20
317.3628657565041
 30
0.0
 10
207.3874850205599
 20
318.0444393425149
 30
0.0
 10
207.674008071813
 20
318.6569377198778
 30
0.0
 10
208.0062293761162
 20
319.0670469715915
 30
0.0
 10
208.2636889349039
 20
319.1876860991569
 30
0.0
 10
208.3135634087476
 20
319.2110560336066
 30
0.0
  0
SPLINE
  5
112
330
1F
100
AcDbEntity
  8
0
  6
Continuous
 62
     7
370
    25
100
AcDbSpline
210
0.0
220
0.0
230
1.0
 70
     8
 71
     3
 72
    22
 73
    18
 74
     0
 42
0.00000001
 43
0.00000001
 40
0.0
 40
0.0
 40
0.0
 40
0.0
 40
0.0367931029533964
 40
0.1104093009909673
 40
0.1849667270350628
 40
0.2587052457176768
 40
0.3311620373556223
 40
0.4026638164961491
 40
0.4736513852026971
 40
0.5444221681412729
 40
0.6151441844532226
 40
0.6859470964657642
 40
0.7570187262664239
 40
0.8286811463508605
 40
0.9013614700881284
 40
0.9752945141046816
 40
1.0
 40
1.0
 40
1.0
 40
1.0
 10
218.2271875437869
 20
321.0748269425528
 30
0.0
 10
218.3403596431384
 20
321.06005287846
 30
0.0
 10
218.6799681941463
 20
321.0157186430098
 30
0.0
 10
219.179068327451
 20
320.7045816271212
 30
0.0
 10
219.6391203167289
 20
320.1871173795107
 30
0.0
 10
219.8918208858244
 20
319.5326092186783
 30
0.0
 10
219.9104446120895
 20
318.8394683352343
 30
0.0
 10
219.698298766201
 20
318.1850300519257
 30
0.0
 10
219.2839747329202
 20
317.6413126011153
 30
0.0
 10
218.7152851401609
 20
317.2659430383525
 30
0.0
 10
218.0559826596278
 20
317.0990710647737
 30
0.0
 10
217.3789677600499
 20
317.1583026125296
 30
0.0
 10
216.7602670656127
 20
317.4363505838652
 30
0.0
 10
216.2621645383921
 20
317.9041400264904
 30
0.0
 10
215.959749572811
 20
318.5102255934377
 30
0.0
 10
215.8479254872155
 20
319.046883995339
 30
0.0
 10
215.921677918121
 20
319.3441096316337
 30
0.0
 10
215.9401503106345
 20
319.4185542099518
 30
0.0
  0
SPLINE
  5
113
330
1F
100
AcDbEntity
  8
0
  6
Continuous
 62
     7
370
    25
100
AcDbSpline
210
0.0
220
0.0
230
1.0
 70
     8
 71
     3
 72
    22
 73
    18
 74
     0
 42
0.00000001
 43
0.00000001
 40
0.0
 40
0.0
 40
0.0
 40
0.0
 40
0.0393941738690639
 40
0.1132739451622148
 40
0.1880983144067858
 40
0.2621008442981927
 40
0.3348170580873834
 40
0.4065748400806917
 40
0.4778165705762102
 40
0.5488407391304068
 40
0.6198159664554289
 40
0.6908723791175859
 40
0.7621984716770637
 40
0.8341174697683578
 40
0.9070580159845785
 40
0.9812557676826755
 40
1.0
 40
1.0
 40
1.0
 40
1.0
 10
220.6338001395927
 20
328.2534084029719
 30
0.0
 10
220.7212656176085
 20
328.3381770336765
 30
0.0
 10
220.972763714593
 20
328.5819206201731
 30
0.0
 10
221.5336152163642
 20
328.782129774853
 30
0.0
 10
222.2253317219156
 20
328.8187380189916
 30
0.0
 10
222.894521066023
 20
328.608345155676
 30
0.0
 10
223.4480736216467
 20
328.1907088966391
 30
0.0
 10
223.8274575449592
 20
327.6168189129211
 30
0.0
 10
223.994228109513
 20
326.9538834121679
 30
0.0
 10
223.9331295759438
 20
326.2752236453939
 30
0.0
 10
223.6525334719914
 20
325.6557238431308
 30
0.0
 10
223.1840885292107
 20
325.1633173049969
 30
0.0
 10
222.5810382497868
 20
324.8530526748636
 30
0.0
 10
221.9044036406509
 20
324.7549230607107
 30
0.0
 10
221.243291115441
 20
324.8977433101076
 30
0.0
 10
220.7675117293469
 20
325.1323136938369
 30
0.0
 10
220.5910955613577
 20
325.3589534450458
 30
0.0
 10
220.5555165313601
 20
325.4046614014014
 30
0.0
  0
SPLINE
  5
114
330
1F
100
AcDbEntity
  8
0
  6
Continuous
 62
     7
370
    25
100
AcDbSpline
210
0.0
220
0.0
230
1.0
 70
     8
 71
     3
 72
    22
 73
    18
 74
     0
 42
0.00000001
 43
0.00000001
 40
0.0
 40
0.0
 40
0.0
 40
0.0
 40
0.0295746948304085
 40
0.1055178899162454
 40
0.1824320650856223
 40
0.2585014473538643
 40
0.3332485873765845
 40
0.40701052709918
 40
0.4802420022726219
 40
0.5532498391122721
 40
0.6262073678194908
 40
0.6992483493283451
 40
0.7725665427545527
 40
0.8464942012573549
 40
0.921471939195741
 40
0.9977419957147363
 40
1.0
 40
1.0
 40
1.0
 40
1.0
 10
216.5343558860527
 20
334.723524793431
 30
0.0
 10
216.5266032230213
 20
334.8120166905721
 30
0.0
 10
216.4989429327289
 20
335.1277419521363
 30
0.0
 10
216.68860051069
 20
335.6587851271277
 30
0.0
 10
217.0887414271395
 20
336.2225727551958
 30
0.0
 10
217.6711333552455
 20
336.6145465449667
 30
0.0
 10
218.3426141753314
 20
336.786950495142
 30
0.0
 10
219.0278874063193
 20
336.7257467144096
 30
0.0
 10
219.650158510912
 20
336.4428028658678
 30
0.0
 10
220.1426662784116
 20
335.971887399277
 30
0.0
 10
220.4520563075694
 20
335.3662905750459
 30
0.0
 10
220.5449825759903
 20
334.6929086780819
 30
0.0
 10
220.4114947933309
 20
334.0284531380491
 30
0.0
 10
220.0665930835191
 20
333.4364592773305
 30
0.0
 10
219.5417733869444
 20
333.0154764243151
 30
0.0
 10
219.1120896233795
 20
332.7946837983611
 30
0.0
 10
218.8768931040008
 20
332.7913372337404
 30
0.0
 10
218.8701302380495
 20
332.7912410062622
 30
0.0
  0
SPLINE
  5
115
330
1F
100
AcDbEntity
  8
0
  6
Continuous
 62
     7
370
    25
100
AcDbSpline
210
0.0
220
0.0
230
1.0
 70
     8
 71
     3
 72
    22
 73
    18
 74
     0
 42
0.00000001
 43
0.00000001
 40
0.0
 40
0.0
 40
0.0
 40
0.0
 40
0.0247942514909513
 40
0.0997154160290269
 40
0.1755944933665493
 40
0.2506401468814792
 40
0.3243813526611845
 40
0.3971506167980964
 40
0.4693965552871721
 40
0.541421865128954
 40
0.6133975438765605
 40
0.6854555523322526
 40
0.757787042034658
 40
0.8307197947367636
 40
0.9046884950847751
 40
0.979932122210701
 40
1.0
 40
1.0
 40
1.0
 40
1.0
 10
208.8921925663753
 20
335.4780646672517
 30
0.0
 10
208.829514436589
 20
335.5200471628985
 30
0.0
 10
208.577440854539
 20
335.6888888002787
 30
0.0
 10
208.2900459478999
 20
336.1591504445331
 30
0.0
 10
208.0979385789796
 20
336.8226202914969
 30
0.0
 10
208.1548098742117
 20
337.5225801032134
 30
0.0
 10
208.43862479745
 20
338.1549952385681
 30
0.0
 10
208.9137507730445
 20
338.6526200538357
 30
0.0
 10
209.5229432139051
 20
338.962712983722
 30
0.0
 10
210.1981860830603
 20
339.0541661029208
 30
0.0
 10
210.864592846485
 20
338.9184549880539
 30
0.0
 10
211.4488872763887
 20
338.5713291967734
 30
0.0
 10
211.885584781093
 20
338.0524267757887
 30
0.0
 10
212.1317415077271
 20
337.4146387880839
 30
0.0
 10
212.1399105687132
 20
336.7381456430563
 30
0.0
 10
212.0154660269255
 20
336.219352127643
 30
0.0
 10
211.8313955925034
 20
335.9946200314938
 30
0.0
 10
211.7926394844566
 20
335.9473025933223
 30
0.0
  0
SPLINE
  5
116
330
1F
100
AcDbEntity
  8
0
  6
Continuous
 62
     7
370
    25
100
AcDbSpline
210
0.0
220
0.0
230
1.0
 70
    11
 71
     3
 72
    26
 73
    22
 74
     0
 42
0.00000001
 43
0.00000001
 40
0.0
 40
0.0
 40
0.0
 40
0.0
 40
0.0535972164200035
 40
0.1071921782483937
 40
0.1608597534174591
 40
0.2147094977663956
 40
0.2686478624798922
 40
0.3224381663528951
 40
0.3759329881741397
 40
0.429242772214531
 40
0.4826449979174546
 40
0.5363313024994949
 40
0.5902427041024086
 40
0.6441475424480629
 40
0.6978798079300871
 40
0.7514722617448959
 40
0.8050492353698357
 40
0.8586625397260718
 40
0.9122900741654164
 40
0.9659177767677254
 40
1.0
 40
1.0
 40
1.0
 40
1.0
 10
228.0687137528661
 20
327.7272080864727
 30
0.0
 10
228.2143131694914
 20
327.813663276762
 30
0.0
 10
228.5055058780356
 20
327.9865700205634
 30
0.0
 10
229.0195493367054
 20
328.0442551664528
 30
0.0
 10
229.519551017565
 20
327.9402836580653
 30
0.0
 10
229.95895673752
 20
327.6732725586845
 30
0.0
 10
230.2851988135969
 20
327.2758242384633
 30
0.0
 10
230.4609923634812
 20
326.7927089130401
 30
0.0
 10
230.4668425764799
 20
326.2802991460812
 30
0.0
 10
230.3038954464005
 20
325.7961247971491
 30
0.0
 10
229.9908087109166
 20
325.3926740107818
 30
0.0
 10
229.5610691103751
 20
325.1142075308636
 30
0.0
 10
229.0616918077789
 20
324.9932335005446
 30
0.0
 10
228.5497121021638
 20
325.044928853422
 30
0.0
 10
228.0843198181716
 20
325.2633685300055
 30
0.0
 10
227.7180865005717
 20
325.6230743445887
 30
0.0
 10
227.4916746018193
 20
326.0832001908375
 30
0.0
 10
227.429892186723
 20
326.5930499725022
 30
0.0
 10
227.5415488394672
 20
327.0925101041832
 30
0.0
 10
227.7754959241755
 20
327.4815585928761
 30
0.0
 10
227.9866598966063
 20
327.6584657172658
 30
0.0
 10
228.0687137528661
 20
327.7272080864727
 30
0.0
  0
SPLINE
  5
117
330
1F
100
AcDbEntity
  8
0
  6
Continuous
 62
     7
370
    25
100
AcDbSpline
210
0.0
220
0.0
230
1.0
 70
    11
 71
     3
 72
    26
 73
    22
 74
     0
 42
0.00000001
 43
0.00000001
 40
0.0
 40
0.0
 40
0.0
 40
0.0
 40
0.0564885541921618
 40
0.1128994301864412
 40
0.171225655851025
 40
0.2300375349560441
 40
0.2867064896556409
 40
0.3395363008405329
 40
0.3890615100952734
 40
0.4374690463182728
 40
0.4871682267513396
 40
0.5398630249433837
 40
0.5960305847836183
 40
0.6545948261961704
 40
0.7132408736152587
 40
0.7696720731029267
 40
0.8229238449446435
 40
0.8735646339153935
 40
0.9230009993634176
 40
0.9728027922198436
 40
0.9999999999999999
 40
0.9999999999999999
 40
0.9999999999999999
 40
0.9999999999999999
 10
235.3593898861638
 20
327.0486285904841
 30
0.0
 10
235.4610103994597
 20
327.1082285299245
 30
0.0
 10
235.6641116862679
 20
327.2273464520983
 30
0.0
 10
236.0190897344248
 20
327.2597932537694
 30
0.0
 10
236.3653519865952
 20
327.1771291576866
 30
0.0
 10
236.6662991343842
 20
326.9731574080141
 30
0.0
 10
236.8743349581186
 20
326.6791861274863
 30
0.0
 10
236.9652262600821
 20
326.3437533169618
 30
0.0
 10
236.9423369373125
 20
326.0134362873439
 30
0.0
 10
236.8211792636657
 20
325.7165280908003
 30
0.0
 10
236.6142487682543
 20
325.471170377499
 30
0.0
 10
236.3325966653062
 20
325.2981100672679
 30
0.0
 10
235.9960431732388
 20
325.2233743070153
 30
0.0
 10
235.6413968144186
 20
325.2693788524274
 30
0.0
 10
235.3199806313775
 20
325.4396562904226
 30
0.0
 10
235.081264327377
 20
325.7096351850448
 30
0.0
 10
234.9539637855061
 20
326.0349442659468
 30
0.0
 10
234.9418780717553
 20
326.3716595445168
 30
0.0
 10
235.0361450212455
 20
326.6846493723928
 30
0.0
 10
235.1907946448392
 20
326.9110269573309
 30
0.0
 10
235.315383296301
 20
327.0127119264843
 30
0.0
 10
235.3593898861638
 20
327.0486285904841
 30
0.0
  0
SPLINE
  5
118
330
1F
100
AcDbEntity
  8
0
  6
Continuous
 62
     7
370
    25
100
AcDbSpline
210
0.0
220
0.0
230
1.0
 70
    11
 71
     3
 72
    26
 73
    22
 74
     0
 42
0.00000001
 43
0.00000001
 40
0.0
 40
0.0
 40
0.0
 40
0.0
 40
0.0564885541922391
 40
0.1128994301865178
 40
0.1712256558510964
 40
0.2300375349560017
 40
0.2867064896555845
 40
0.3395363008405375
 40
0.38906151009525
 40
0.4374690463182556
 40
0.4871682267513154
 40
0.5398630249433198
 40
0.5960305847835073
 40
0.6545948261961094
 40
0.7132408736152744
 40
0.7696720731029355
 40
0.8229238449446605
 40
0.873564633915404
 40
0.9230009993634142
 40
0.9728027922198341
 40
0.9999999999999999
 40
0.9999999999999999
 40
0.9999999999999999
 40
0.9999999999999999
 10
226.4441123328029
 20
308.8147434040178
 30
0.0
 10
226.5540687955103
 20
308.7724532418909
 30
0.0
 10
226.7738305182614
 20
308.6879310714282
 30
0.0
 10
227.0205236422231
 20
308.4306283077387
 30
0.0
 10
227.1717852324324
 20
308.1083693569148
 30
0.0
 10
227.199951174549
 20
307.745905096425
 30
0.0
 10
227.0998233870105
 20
307.3999680445002
 30
0.0
 10
226.8942412553419
 20
307.1197674265721
 30
0.0
 10
226.6217177430729
 20
306.9317137203786
 30
0.0
 10
226.3140449936767
 20
306.841319371345
 30
0.0
 10
225.9931975553689
 20
306.8501261152896
 30
0.0
 10
225.6822863426046
 20
306.9624292579423
 30
0.0
 10
225.4140179022892
 20
307.1789603892237
 30
0.0
 10
225.2288673162378
 20
307.4849174425953
 30
0.0
 10
225.1615958657377
 20
307.8423769795487
 30
0.0
 10
225.2238366840734
 20
308.1973419889088
 30
0.0
 10
225.3988029754278
 20
308.4996964546732
 30
0.0
 10
225.6545222615701
 20
308.7190839884902
 30
0.0
 10
225.9580020443552
 20
308.8405290853886
 30
0.0
 10
226.231413630357
 20
308.8607632564896
 30
0.0
 10
226.3885938941486
 20
308.8267554676879
 30
0.0
 10
226.4441123328028
 20
308.8147434040177
 30
0.0
  0
SPLINE
  5
119
330
1F
100
AcDbEntity
  8
0
  6
Continuous
 62
     7
370
    25
100
AcDbSpline
210
0.0
220
0.0
230
1.0
 70
    11
 71
     3
 72
    26
 73
    22
 74
     0
 42
0.00000001
 43
0.00000001
 40
0.0
 40
0.0
 40
0.0
 40
0.0
 40
0.0564885541921573
 40
0.112899430186453
 40
0.171225655851023
 40
0.2300375349560341
 40
0.2867064896556148
 40
0.339536300840552
 40
0.389061510095259
 40
0.4374690463182512
 40
0.4871682267514075
 40
0.5398630249434435
 40
0.5960305847836517
 40
0.6545948261962442
 40
0.7132408736153237
 40
0.7696720731029775
 40
0.8229238449446867
 40
0.8735646339154266
 40
0.9230009993634251
 40
0.9728027922198448
 40
1.0
 40
1.0
 40
1.0
 40
1.0
 10
190.8368144829047
 20
317.1655207011137
 30
0.0
 10
190.7711170086605
 20
317.0677315228693
 30
0.0
 10
190.6398124016841
 20
316.8722876376415
 30
0.0
 10
190.3340663711374
 20
316.6890348766335
 30
0.0
 10
189.9862282547028
 20
316.6132750930107
 30
0.0
 10
189.6265842182389
 20
316.6664712156376
 30
0.0
 10
189.3116010592565
 20
316.8410668263785
 30
0.0
 10
189.0841719837719
 20
317.1038450879846
 30
0.0
 10
188.9614753630894
 20
317.4113817531574
 30
0.0
 10
188.9418110166621
 20
317.7314551393334
 30
0.0
 10
189.0217922287783
 20
318.0422985776033
 30
0.0
 10
189.2004639506181
 20
318.3204247969491
 30
0.0
 10
189.4712615382507
 20
318.5337844778066
 30
0.0
 10
189.8107474908421
 20
318.6462111028382
 30
0.0
 10
190.1742140768874
 20
318.632253687609
 30
0.0
 10
190.5064294873338
 20
318.4925862311317
 30
0.0
 10
190.7622696328174
 20
318.2547265118919
 30
0.0
 10
190.9192537687371
 20
317.9566003232252
 30
0.0
 10
190.970123378799
 20
317.6337053358188
 30
0.0
 10
190.9290104355135
 20
317.3626462224606
 30
0.0
 10
190.8608793938809
 20
317.2169742409719
 30
0.0
 10
190.8368144829048
 20
317.1655207011138
 30
0.0
  0
SPLINE
  5
11A
330
1F
100
AcDbEntity
  8
0
  6
Continuous
 62
     7
370
    25
100
AcDbSpline
210
0.0
220
0.0
230
1.0
 70
    11
 71
     3
 72
    26
 73
    22
 74
     0
 42
0.00000001
 43
0.00000001
 40
0.0
 40
0.0
 40
0.0
 40
0.0
 40
0.0564885541921698
 40
0.1128994301864574
 40
0.1712256558510408
 40
0.2300375349559208
 40
0.2867064896555175
 40
0.3395363008404658
 40
0.389061510095192
 40
0.4374690463181995
 40
0.4871682267512583
 40
0.5398630249433121
 40
0.5960305847835042
 40
0.6545948261961201
 40
0.7132408736152546
 40
0.7696720731029235
 40
0.8229238449446468
 40
0.8735646339154
 40
0.9230009993634141
 40
0.9728027922198337
 40
1.0
 40
1.0
 40
1.0
 40
1.0
 10
206.9015895314781
 20
350.0218464889417
 30
0.0
 10
206.8208711954257
 20
350.1076569296161
 30
0.0
 10
206.6595455202292
 20
350.2791598118324
 30
0.0
 10
206.5489221808089
 20
350.6180177265809
 30
0.0
 10
206.5524631156687
 20
350.973992953021
 30
0.0
 10
206.6843538273237
 20
351.3127827117311
 30
0.0
 10
206.9246623082964
 20
351.5810174069223
 30
0.0
 10
207.2314599005365
 20
351.7442706964584
 30
0.0
 10
207.5585885460604
 20
351.7954577107317
 30
0.0
 10
207.875012752922
 20
351.7434060021127
 30
0.0
 10
208.1602652031918
 20
351.5962609137716
 30
0.0
 10
208.3916600191256
 20
351.3601799589465
 30
0.0
 10
208.5394121952149
 20
351.048694836759
 30
0.0
 10
208.5734773187947
 20
350.6927032281801
 30
0.0
 10
208.4789909209168
 20
350.3414553253717
 30
0.0
 10
208.2689003357666
 20
350.0486481817289
 30
0.0
 10
207.9800744681792
 20
349.8521512497163
 30
0.0
 10
207.6544906689547
 20
349.7654423517773
 30
0.0
 10
207.3283717798876
 20
349.7876990432138
 30
0.0
 10
207.0732571749611
 20
349.8880975262365
 30
0.0
 10
206.9463980772005
 20
349.9869354457823
 30
0.0
 10
206.9015895314781
 20
350.0218464889417
 30
0.0
  0
SPLINE
  5
11B
330
1F
100
AcDbEntity
  8
0
  6
Continuous
 62
     7
370
    25
100
AcDbSpline
210
0.0
220
0.0
230
1.0
 70
    11
 71
     3
 72
    26
 73
    22
 74
     0
 42
0.00000001
 43
0.00000001
 40
0.0
 40
0.0
 40
0.0
 40
0.0
 40
0.053597216420004
 40
0.1071921782484034
 40
0.1608597534174719
 40
0.2147094977664127
 40
0.268647862479907
 40
0.3224381663529158
 40
0.3759329881741625
 40
0.4292427722145567
 40
0.4826449979174869
 40
0.536331302499533
 40
0.5902427041024123
 40
0.6441475424480747
 40
0.6978798079301
 40
0.751472261744914
 40
0.8050492353698602
 40
0.8586625397260996
 40
0.9122900741654475
 40
0.9659177767677213
 40
1.0
 40
1.0
 40
1.0
 40
1.0
 10
222.4289849283578
 20
314.9379109290073
 30
0.0
 10
222.5873580693713
 20
314.8779806507238
 30
0.0
 10
222.9040976893592
 20
314.7581226151517
 30
0.0
 10
223.269698606679
 20
314.3921933559875
 30
0.0
 10
223.5001563570705
 20
313.9364511254411
 30
0.0
 10
223.5653636586761
 20
313.4264312025567
 30
0.0
 10
223.4580346566444
 20
312.9235599021503
 30
0.0
 10
223.1899253711512
 20
312.484901491913
 30
0.0
 10
222.7929548315621
 20
312.1608453471397
 30
0.0
 10
222.3128162087168
 20
311.9863647745328
 30
0.0
 10
221.802179295637
 20
311.9795983902253
 30
0.0
 10
221.3165271764323
 20
312.1419613288032
 30
0.0
 10
220.9105892155199
 20
312.4569641514096
 30
0.0
 10
220.631792144687
 20
312.8894775289664
 30
0.0
 10
220.512407817927
 20
313.3895307789604
 30
0.0
 10
220.5652944095708
 20
313.9001364236506
 30
0.0
 10
220.7838697721737
 20
314.3640361468085
 30
0.0
 10
221.143965677062
 20
314.7302257233414
 30
0.0
 10
221.6040761165433
 20
314.9543373355369
 30
0.0
 10
222.0541100947001
 20
315.0139979046093
 30
0.0
 10
222.3240802373512
 20
314.9592030509331
 30
0.0
 10
222.4289849283578
 20
314.9379109290073
 30
0.0
  0
SPLINE
  5
11C
330
1F
100
AcDbEntity
  8
0
  6
Continuous
 62
     7
370
    25
100
AcDbSpline
210
0.0
220
0.0
230
1.0
 70
    11
 71
     3
 72
    26
 73
    22
 74
     0
 42
0.00000001
 43
0.00000001
 40
0.0
 40
0.0
 40
0.0
 40
0.0
 40
0.0535972164200072
 40
0.1071921782484018
 40
0.1608597534174694
 40
0.2147094977664134
 40
0.2686478624799096
 40
0.3224381663529145
 40
0.3759329881741663
 40
0.4292427722145603
 40
0.4826449979174887
 40
0.5363313024995352
 40
0.5902427041024131
 40
0.6441475424480732
 40
0.6978798079300995
 40
0.7514722617449182
 40
0.8050492353698567
 40
0.8586625397260979
 40
0.9122900741654468
 40
0.965917776767725
 40
1.0
 40
1.0
 40
1.0
 40
1.0
 10
197.6999113139732
 20
319.7174475222413
 30
0.0
 10
197.6062422736379
 20
319.5763808680233
 30
0.0
 10
197.4189081331986
 20
319.2942534936209
 30
0.0
 10
196.9807996269784
 20
319.0192458751177
 30
0.0
 10
196.4852021318039
 20
318.8959783684672
 30
0.0
 10
195.9734594835612
 20
318.9458960596301
 30
0.0
 10
195.5070791663323
 20
319.1624334909237
 30
0.0
 10
195.1390787668891
 20
319.521431396
 30
0.0
 10
194.911481641458
 20
319.9805583313484
 30
0.0
 10
194.8482165558741
 20
320.4874844564506
 30
0.0
 10
194.9552472217592
 20
320.9868242981581
 30
0.0
 10
195.2216071456261
 20
321.4241709520487
 30
0.0
 10
195.6190418839915
 20
321.7498364784713
 30
0.0
 10
196.1027494327497
 20
321.925400243938
 30
0.0
 10
196.6168308156366
 20
321.9305190401569
 30
0.0
 10
197.1028661369962
 20
321.7653379808434
 30
0.0
 10
197.50649733173
 20
321.4490153592674
 30
0.0
 10
197.7833768939725
 20
321.0164629639544
 30
0.0
 10
197.8994853554297
 20
320.5180189285616
 30
0.0
 10
197.8575081283433
 20
320.065992516276
 30
0.0
 10
197.7440130877673
 20
319.8149840907656
 30
0.0
 10
197.6999113139732
 20
319.7174475222413
 30
0.0
  0
SPLINE
  5
11D
330
1F
100
AcDbEntity
  8
0
  6
Continuous
 62
     7
370
    25
100
AcDbSpline
210
0.0
220
0.0
230
1.0
 70
    11
 71
     3
 72
    26
 73
    22
 74
     0
 42
0.00000001
 43
0.00000001
 40
0.0
 40
0.0
 40
0.0
 40
0.0
 40
0.0535972164200099
 40
0.1071921782484013
 40
0.1608597534174741
 40
0.2147094977664143
 40
0.2686478624799108
 40
0.322438166352914
 40
0.3759329881741667
 40
0.4292427722145734
 40
0.4826449979174987
 40
0.536331302499542
 40
0.5902427041024214
 40
0.6441475424480829
 40
0.6978798079301103
 40
0.7514722617449229
 40
0.805049235369865
 40
0.858662539726099
 40
0.9122900741654527
 40
0.9659177767677255
 40
1.0
 40
1.0
 40
1.0
 40
1.0
 10
207.8623515025592
 20
342.7629646847012
 30
0.0
 10
207.7456650062221
 20
342.885675530278
 30
0.0
 10
207.5122969220191
 20
343.1310920595435
 30
0.0
 10
207.3416726326559
 20
343.6194112229364
 30
0.0
 10
207.3317765172499
 20
344.1300126548957
 30
0.0
 10
207.4943161197085
 20
344.6178171152628
 30
0.0
 10
207.8092038892775
 20
345.0243201927736
 30
0.0
 10
208.2410887599315
 20
345.303209504759
 30
0.0
 10
208.739349549354
 20
345.4229349406157
 30
0.0
 10
209.2476437840612
 20
345.3718121636134
 30
0.0
 10
209.7106475696716
 20
345.1563514120443
 30
0.0
 10
210.0777583708215
 20
344.7993509016935
 30
0.0
 10
210.3068212333984
 20
344.3394132848934
 30
0.0
 10
210.3703481932084
 20
343.8287666812152
 30
0.0
 10
210.2609447810694
 20
343.3264353525907
 30
0.0
 10
209.991752122136
 20
342.889342195081
 30
0.0
 10
209.5935439786813
 20
342.5662192822925
 30
0.0
 10
209.1102250762257
 20
342.3925336317397
 30
0.0
 10
208.5984415101771
 20
342.3902504841053
 30
0.0
 10
208.1670891555725
 20
342.5317605939024
 30
0.0
 10
207.947629057778
 20
342.6982647061294
 30
0.0
 10
207.8623515025592
 20
342.7629646847012
 30
0.0
  0
LINE
  5
11E
330
1F
100
AcDbEntity
  8
0
  6
Continuous
 62
     7
370
    25
100
AcDbLine
 10
184.3282531874
 20
313.0133933959
 30
0.0
 11
183.2018371872
 21
312.5246150261
 31
0.0
  0
LINE
  5
11F
330
1F
100
AcDbEntity
  8
0
  6
Continuous
 62
     7
370
    25
100
AcDbLine
 10
231.9404282757
 20
303.3933005747
 30
0.0
 11
232.6676030917
 21
302.4038895948
 31
0.0
  0
LINE
  5
120
330
1F
100
AcDbEntity
  8
0
  6
Continuous
 62
     7
370
    25
100
AcDbLine
 10
204.3018558649
 20
357.29115981
 30
0.0
 11
204.0759833297
 21
358.4980976286
 31
0.0
  0
LINE
  5
121
330
1F
100
AcDbEntity
  8
0
  6
Continuous
 62
     7
370
    25
100
AcDbLine
 10
205.8179444649
 20
296.7389394509
 30
0.0
 11
205.4977778936
 21
295.5535236307
 31
0.0
  0
LINE
  5
122
330
1F
100
AcDbEntity
  8
0
  6
Continuous
 62
     7
370
    25
100
AcDbLine
 10
183.6535302849
 20
339.9616666508
 30
0.0
 11
182.5690790787
 21
340.5375858131
 31
0.0
  0
LINE
  5
123
330
1F
100
AcDbEntity
  8
0
  6
Continuous
 62
     7
370
    25
100
AcDbLine
 10
230.7246196166
 20
351.9524110674
 30
0.0
 11
231.5274123784
 21
352.8815187478
 31
0.0
  0
LINE
  5
124
330
1F
100
AcDbEntity
  8
0
  6
Continuous
 62
     7
370
    25
100
AcDbLine
 10
243.0249415087
 20
327.9656071168
 30
0.0
 11
244.2518802439
 21
327.9172476254
 31
0.0
  0
LINE
  5
125
330
1F
100
AcDbEntity
  8
0
  6
Continuous
 62
     7
370
    25
100
AcDbLine
 10
234.5540894196
 20
350.2663273422
 30
0.0
 11
233.7512966578
 21
349.3372196617
 31
0.0
  0
LINE
  5
126
330
1F
100
AcDbEntity
  8
0
  6
Continuous
 62
     7
370
    25
100
AcDbLine
 10
244.094343539
 20
323.920351056
 30
0.0
 11
242.8674048038
 21
323.9687105474
 31
0.0
  0
LINE
  5
127
330
1F
100
AcDbEntity
  8
0
  6
Continuous
 62
     7
370
    25
100
AcDbLine
 10
229.4444809926
 20
300.0350325002
 30
0.0
 11
228.7173061767
 21
301.0244434801
 31
0.0
  0
LINE
  5
128
330
1F
100
AcDbEntity
  8
0
  6
Continuous
 62
     7
370
    25
100
AcDbLine
 10
208.0077245721
 20
359.2339038553
 30
0.0
 11
208.2335971073
 21
358.0269660367
 31
0.0
  0
LINE
  5
129
330
1F
100
AcDbEntity
  8
0
  6
Continuous
 62
     7
370
    25
100
AcDbLine
 10
201.6361470807
 20
296.5965037191
 30
0.0
 11
201.956313652
 21
297.7819195393
 31
0.0
  0
LINE
  5
12A
330
1F
100
AcDbEntity
  8
0
  6
Continuous
 62
     7
370
    25
100
AcDbLine
 10
184.4452031738
 20
344.0703125758
 30
0.0
 11
185.52965438
 21
343.4943934135
 31
0.0
  0
LINE
  5
12B
330
1F
100
AcDbEntity
  8
0
  6
Continuous
 62
     7
370
    25
100
AcDbLine
 10
181.6095844255
 20
316.194047018
 30
0.0
 11
182.7360004256
 21
316.6828253878
 31
0.0
  0
LINE
  5
12C
330
1F
100
AcDbEntity
  8
0
  6
HIDDEN
 62
     7
370
    18
100
AcDbLine
 10
41.2458185676
 20
412.1880682952
 30
0.0
 11
40.5467778932
 21
412.1880682952
 31
0.0
  0
LINE
  5
12D
330
1F
100
AcDbEntity
  8
0
  6
HIDDEN
 62
     7
370
    18
100
AcDbLine
 10
66.9702247433
 20
438.6115151453
 30
0.0
 11
66.9702247433
 21
437.912474471
 31
0.0
  0
ARC
  5
12E
330
1F
100
AcDbEntity
  8
0
  6
HIDDEN
 62
     7
370
    18
100
AcDbCircle
 10
66.9702247433
 20
412.1880682952
 30
0.0
 40
26.42344685007225
100
AcDbArc
 50
90.0
 51
180.0
  0
LINE
  5
12F
330
1F
100
AcDbEntity
  8
0
  6
HIDDEN
 62
     7
370
    18
100
AcDbLine
 10
66.9702247433
 20
438.6115151453
 30
0.0
 11
356.9702247433
 21
438.6115151453
 31
0.0
  0
LINE
  5
130
330
1F
100
AcDbEntity
  8
0
  6
HIDDEN
 62
     7
370
    18
100
AcDbLine
 10
383.3936715934
 20
412.1880682952
 30
0.0
 11
382.6946309191
 21
412.1880682952
 31
0.0
  0
LINE
  5
131
330
1F
100
AcDbEntity
  8
0
  6
HIDDEN
 62
     7
370
    18
100
AcDbLine
 10
356.9702247433
 20
438.6115151453
 30
0.0
 11
356.9702247433
 21
437.912474471
 31
0.0
  0
ARC
  5
132
330
1F
100
AcDbEntity
  8
0
  6
HIDDEN
 62
     7
370
    18
100
AcDbCircle
 10
356.9702247433
 20
412.1880682952
 30
0.0
 40
26.42344685007231
100
AcDbArc
 50
0.0
 51
90.0
  0
LINE
  5
133
330
1F
100
AcDbEntity
  8
0
  6
HIDDEN
 62
     7
370
    18
100
AcDbLine
 10
40.5467778932
 20
77.1880682952
 30
0.0
 11
40.5467778932
 21
412.1880682952
 31
0.0
  0
LINE
  5
134
330
1F
100
AcDbEntity
  8
0
  6
HIDDEN
 62
     7
370
    18
100
AcDbLine
 10
383.3936715934
 20
412.1880682952
 30
0.0
 11
383.3936715934
 21
77.1880682952
 31
0.0
  0
LINE
  5
135
330
1F
100
AcDbEntity
  8
0
  6
HIDDEN
 62
     7
370
    18
100
AcDbLine
 10
66.9702247433
 20
51.4636621195
 30
0.0
 11
66.9702247433
 21
50.7646214451
 31
0.0
  0
LINE
  5
136
330
1F
100
AcDbEntity
  8
0
  6
HIDDEN
 62
     7
370
    18
100
AcDbLine
 10
41.2458185676
 20
77.1880682952
 30
0.0
 11
40.5467778932
 21
77.1880682952
 31
0.0
  0
ARC
  5
137
330
1F
100
AcDbEntity
  8
0
  6
HIDDEN
 62
     7
370
    18
100
AcDbCircle
 10
66.9702247433
 20
77.1880682952
 30
0.0
 40
26.42344685007237
100
AcDbArc
 50
180.0
 51
270.0
  0
LINE
  5
138
330
1F
100
AcDbEntity
  8
0
  6
HIDDEN
 62
     7
370
    18
100
AcDbLine
 10
356.9702247433
 20
51.4636621195
 30
0.0
 11
356.9702247433
 21
50.7646214451
 31
0.0
  0
LINE
  5
139
330
1F
100
AcDbEntity
  8
0
  6
HIDDEN
 62
     7
370
    18
100
AcDbLine
 10
383.3936715934
 20
77.1880682952
 30
0.0
 11
382.6946309191
 21
77.1880682952
 31
0.0
  0
ARC
  5
13A
330
1F
100
AcDbEntity
  8
0
  6
HIDDEN
 62
     7
370
    18
100
AcDbCircle
 10
356.9702247433
 20
77.1880682952
 30
0.0
 40
26.42344685007237
100
AcDbArc
 50
270.0
 51
0.0
  0
LINE
  5
13B
330
1F
100
AcDbEntity
  8
0
  6
HIDDEN
 62
     7
370
    18
100
AcDbLine
 10
356.9702247433
 20
50.7646214451
 30
0.0
 11
66.9702247433
 21
50.7646214451
 31
0.0
  0
LINE
  5
13C
330
1F
100
AcDbEntity
  8
0
  6
HIDDEN
 62
     7
370
    18
100
AcDbLine
 10
356.9702247433
 20
437.912474471
 30
0.0
 11
356.9702247433
 21
430.0694194905
 31
0.0
  0
LINE
  5
13D
330
1F
100
AcDbEntity
  8
0
  6
HIDDEN
 62
     7
370
    18
100
AcDbLine
 10
66.9702247433
 20
437.912474471
 30
0.0
 11
66.9702247433
 21
430.0694194905
 31
0.0
  0
LINE
  5
13E
330
1F
100
AcDbEntity
  8
0
  6
HIDDEN
 62
     7
370
    18
100
AcDbLine
 10
41.2458185676
 20
412.1880682952
 30
0.0
 11
49.0888735481
 21
412.1880682952
 31
0.0
  0
LINE
  5
13F
330
1F
100
AcDbEntity
  8
0
  6
HIDDEN
 62
     7
370
    18
100
AcDbLine
 10
382.6946309191
 20
412.1880682952
 30
0.0
 11
374.8515759386
 21
412.1880682952
 31
0.0
  0
LINE
  5
140
330
1F
100
AcDbEntity
  8
0
  6
HIDDEN
 62
     7
370
    18
100
AcDbLine
 10
41.2458185676
 20
77.1880682952
 30
0.0
 11
48.6173751241
 21
77.1880682952
 31
0.0
  0
LINE
  5
141
330
1F
100
AcDbEntity
  8
0
  6
HIDDEN
 62
     7
370
    18
100
AcDbLine
 10
382.6946309191
 20
77.1880682952
 30
0.0
 11
375.3230743625
 21
77.1880682952
 31
0.0
  0
LINE
  5
142
330
1F
100
AcDbEntity
  8
0
  6
HIDDEN
 62
     7
370
    18
100
AcDbLine
 10
356.9702247433
 20
51.4636621195
 30
0.0
 11
356.9702247433
 21
58.835218676
 31
0.0
  0
LINE
  5
143
330
1F
100
AcDbEntity
  8
0
  6
HIDDEN
 62
     7
370
    18
100
AcDbLine
 10
66.9702247433
 20
51.4636621195
 30
0.0
 11
66.9702247433
 21
58.835218676
 31
0.0
  0
LINE
  5
144
330
1F
100
AcDbEntity
  8
0
  6
HIDDEN
 62
     7
370
    18
100
AcDbLine
 10
236.2202247433
 20
435.4648806346
 30
0.0
 11
236.2202247433
 21
436.2637842624
 31
0.0
  0
LINE
  5
145
330
1F
100
AcDbEntity
  8
0
  6
HIDDEN
 62
     7
370
    18
100
AcDbLine
 10
235.2202247433
 20
435.5172165908
 30
0.0
 11
235.2202247433
 21
436.3161202186
 31
0.0
  0
ARC
  5
146
330
1F
100
AcDbEntity
  8
0
  6
HIDDEN
 62
     7
370
    18
100
AcDbCircle
 10
235.4695399802
 20
431.5000375991
 30
0.0
 40
4.822531480999598
100
AcDbArc
 50
81.0448095014
 51
92.9633983002
  0
LINE
  5
147
330
1F
100
AcDbEntity
  8
0
  6
HIDDEN
 62
     7
370
    18
100
AcDbLine
 10
188.7202247433
 20
435.5172165908
 30
0.0
 11
188.7202247433
 21
436.3161202186
 31
0.0
  0
LINE
  5
148
330
1F
100
AcDbEntity
  8
0
  6
HIDDEN
 62
     7
370
    18
100
AcDbLine
 10
187.7202247433
 20
435.4648806346
 30
0.0
 11
187.7202247433
 21
436.2637842624
 31
0.0
  0
ARC
  5
149
330
1F
100
AcDbEntity
  8
0
  6
HIDDEN
 62
     7
370
    18
100
AcDbCircle
 10
188.4709095064
 20
431.5000375991
 30
0.0
 40
4.822531480994671
100
AcDbArc
 50
87.0366016997
 51
98.9551904986
  0
LINE
  5
14A
330
1F
100
AcDbEntity
  8
0
  6
HIDDEN
 62
     7
370
    18
100
AcDbLine
 10
235.2202247433
 20
436.3161202186
 30
0.0
 11
188.7202247433
 21
436.3161202186
 31
0.0
  0
SPLINE
  5
14B
330
1F
100
AcDbEntity
  8
0
  6
HIDDEN
 62
     7
370
    18
100
AcDbSpline
210
0.0
220
0.0
230
1.0
 70
     8
 71
     3
 72
    20
 73
    16
 74
     0
 42
0.00000001
 43
0.00000001
 40
0.0
 40
0.0
 40
0.0
 40
0.0
 40
0.1267435831819589
 40
0.250299026523283
 40
0.3331356308904593
 40
0.416293686217325
 40
0.5007540856274733
 40
0.5615163764343669
 40
0.6249229175817242
 40
0.685642298217985
 40
0.750486855845826
 40
0.8090250125015784
 40
0.8746401638736688
 40
0.926266494428971
 40
1.0
 40
1.0
 40
1.0
 40
1.0
 10
66.9744010125593
 20
58.84810621926351
 30
0.0
 10
66.96377626181128
 20
59.01927313157862
 30
0.0
 10
66.94279401795706
 20
59.35730138081918
 30
0.0
 10
67.21602393102555
 20
60.77813198191667
 30
0.0
 10
67.59981759655182
 20
62.45861083678255
 30
0.0
 10
68.04105489670825
 20
64.23874330138652
 30
0.0
 10
68.53379441801837
 20
66.123273579279
 30
0.0
 10
69.04915309972232
 20
68.02705750689358
 30
0.0
 10
69.55081447221833
 20
69.83825098019858
 30
0.0
 10
70.105251791232
 20
71.79977325352377
 30
0.0
 10
70.68082143522602
 20
73.80506323542518
 30
0.0
 10
71.30286018218219
 20
75.94137564466918
 30
0.0
 10
71.90464419629666
 20
77.98880693289296
 30
0.0
 10
72.57773951666951
 20
80.25618028183263
 30
0.0
 10
73.03041082020411
 20
81.7715777379876
 30
0.0
 10
73.29666070623136
 20
82.66289644283297
 30
0.0
  0
SPLINE
  5
14C
330
1F
100
AcDbEntity
  8
0
  6
HIDDEN
 62
     7
370
    18
100
AcDbSpline
210
0.0
220
0.0
230
1.0
 70
     8
 71
     3
 72
    17
 73
    13
 74
     0
 42
0.00000001
 43
0.00000001
 40
0.0
 40
0.0
 40
0.0
 40
0.0
 40
0.1267946651282625
 40
0.2504023263288154
 40
0.3753938535934902
 40
0.5007706933246884
 40
0.6248747893054016
 40
0.7503760079544198
 40
0.8089405860768739
 40
0.8745847639879362
 40
0.9261701073121398
 40
1.0
 40
1.0
 40
1.0
 40
1.0
 10
48.67600982239257
 20
77.14048631543157
 30
0.0
 10
48.90023042881136
 20
77.07734148405598
 30
0.0
 10
49.34303582130428
 20
76.9526389766112
 30
0.0
 10
51.08831414561121
 20
77.11189413068887
 30
0.0
 10
53.52407845451496
 20
77.51509815578511
 30
0.0
 10
56.64525349923627
 20
78.17369011184545
 30
0.0
 10
60.30970983693906
 20
79.05335019122023
 30
0.0
 10
63.66915031510339
 20
79.93173306713491
 30
0.0
 10
66.52826209348083
 20
80.71506675746947
 30
0.0
 10
68.59605455912138
 20
81.29595520257115
 30
0.0
 10
70.88047470961439
 20
81.95220314981371
 30
0.0
 10
72.40134771158935
 20
82.3995504333273
 30
0.0
 10
73.29666070623104
 20
82.66289644284109
 30
0.0
  0
SPLINE
  5
14D
330
1F
100
AcDbEntity
  8
0
  6
HIDDEN
 62
     7
370
    18
100
AcDbSpline
210
0.0
220
0.0
230
1.0
 70
     8
 71
     3
 72
    19
 73
    15
 74
     0
 42
0.00000001
 43
0.00000001
 40
0.0
 40
0.0
 40
0.0
 40
0.0
 40
0.0608516050745376
 40
0.1074506084909319
 40
0.1525094028913879
 40
0.2033205094952278
 40
0.249601238859171
 40
0.3351419883115498
 40
0.4177293704487012
 40
0.4993327546439482
 40
0.6246836943780177
 40
0.7496494010683985
 40
0.8732315275988238
 40
1.0
 40
1.0
 40
1.0
 40
1.0
 10
350.6437887803941
 20
82.66289644283253
 30
0.0
 10
351.3818983443082
 20
82.44554706813794
 30
0.0
 10
352.6852381934117
 20
82.06175567040187
 30
0.0
 10
354.5156286023044
 20
81.53348495110535
 30
0.0
 10
356.2057809740099
 20
81.0531379634451
 30
0.0
 10
357.8645737421683
 20
80.59080537467378
 30
0.0
 10
359.9493136461787
 20
80.02122902792314
 30
0.0
 10
362.3111368848437
 20
79.39720235902404
 30
0.0
 10
364.8920217084511
 20
78.74888113171336
 30
0.0
 10
367.6484661275119
 20
78.09918950259697
 30
0.0
 10
370.4166300171204
 20
77.51503042242908
 30
0.0
 10
372.8520672826014
 20
77.11191201534479
 30
0.0
 10
374.5974311116775
 20
76.95263444850403
 30
0.0
 10
375.040224922205
 20
77.0773399661147
 30
0.0
 10
375.264439664206
 20
77.14048632180526
 30
0.0
  0
SPLINE
  5
14E
330
1F
100
AcDbEntity
  8
0
  6
HIDDEN
 62
     7
370
    18
100
AcDbSpline
210
0.0
220
0.0
230
1.0
 70
     8
 71
     3
 72
    17
 73
    13
 74
     0
 42
0.00000001
 43
0.00000001
 40
0.0
 40
0.0
 40
0.0
 40
0.0
 40
0.1267990412624019
 40
0.2504085473704352
 40
0.3754000359398759
 40
0.5007756337678747
 40
0.6248780395278716
 40
0.7503776743181497
 40
0.8089402789187277
 40
0.8745853066690921
 40
0.9262416929452294
 40
1.0
 40
1.0
 40
1.0
 40
1.0
 10
356.9660484676791
 20
58.84810621927894
 30
0.0
 10
356.9766049760394
 20
59.01951317498045
 30
0.0
 10
356.9974524516788
 20
59.35801547246678
 30
0.0
 10
356.6906876968112
 20
60.95490468016418
 30
0.0
 10
356.1528701835206
 20
63.25514052819603
 30
0.0
 10
355.3764030412756
 20
66.25753472915763
 30
0.0
 10
354.3989377909076
 20
69.8233540041615
 30
0.0
 10
353.458875930868
 20
73.12049691866679
 30
0.0
 10
352.6376360073891
 20
75.94127269529876
 30
0.0
 10
352.0357743238175
 20
77.98889870368048
 30
0.0
 10
351.3626878626633
 20
80.25626427430204
 30
0.0
 10
350.9100135154168
 20
81.77166563288047
 30
0.0
 10
350.6437887803938
 20
82.66289644283297
 30
0.0
  0
LINE
  5
14F
330
1F
100
AcDbEntity
  8
0
  6
HIDDEN
 62
     7
370
    18
100
AcDbLine
 10
375.2644396642
 20
77.1404863218
 30
0.0
 11
375.3230743625
 21
77.1880682952
 31
0.0
  0
LINE
  5
150
330
1F
100
AcDbEntity
  8
0
  6
HIDDEN
 62
     7
370
    18
100
AcDbLine
 10
356.9702247433
 20
58.835218676
 30
0.0
 11
356.9660484677
 21
58.8481062193
 31
0.0
  0
LINE
  5
151
330
1F
100
AcDbEntity
  8
0
  6
HIDDEN
 62
     7
370
    18
100
AcDbLine
 10
48.6173751241
 20
77.1880682952
 30
0.0
 11
48.6760098224
 21
77.1404863154
 31
0.0
  0
LINE
  5
152
330
1F
100
AcDbEntity
  8
0
  6
HIDDEN
 62
     7
370
    18
100
AcDbLine
 10
66.9744010126
 20
58.8481062193
 30
0.0
 11
66.9702247433
 21
58.835218676
 31
0.0
  0
SPLINE
  5
153
330
1F
100
AcDbEntity
  8
0
  6
HIDDEN
 62
     7
370
    18
100
AcDbSpline
210
0.0
220
0.0
230
1.0
 70
     8
 71
     3
 72
    19
 73
    15
 74
     0
 42
0.00000001
 43
0.00000001
 40
0.0
 40
0.0
 40
0.0
 40
0.0
 40
0.0571136934037102
 40
0.1010956198480472
 40
0.1524926939111447
 40
0.2033050191843426
 40
0.2495779120705137
 40
0.3351464253451722
 40
0.4177279965712333
 40
0.4993051717050567
 40
0.6246538783153076
 40
0.74975556642956
 40
0.8758841626626005
 40
1.0
 40
1.0
 40
1.0
 40
1.0
 10
350.3493749989289
 20
405.0054628466517
 30
0.0
 10
350.5725536592791
 20
405.7093473055454
 30
0.0
 10
350.9675970133391
 20
406.9552768091807
 30
0.0
 10
351.5517180457364
 20
408.8191248268585
 30
0.0
 10
352.1002227764112
 20
410.5870398739582
 30
0.0
 10
352.6409262135294
 20
412.3526283984044
 30
0.0
 10
353.283759412414
 20
414.4787848259314
 30
0.0
 10
353.9965832301969
 20
416.8895523105397
 30
0.0
 10
354.7504403056847
 20
419.5256447180718
 30
0.0
 10
355.5226445632478
 20
422.3414456893817
 30
0.0
 10
356.2450160482614
 20
425.1689368551229
 30
0.0
 10
356.795936171121
 20
427.663330305451
 30
0.0
 10
357.0798536714428
 20
429.4126456136607
 30
0.0
 10
357.0200048732059
 20
429.828159328839
 30
0.0
 10
356.9903211611617
 20
430.0342451623926
 30
0.0
  0
SPLINE
  5
154
330
1F
100
AcDbEntity
  8
0
  6
HIDDEN
 62
     7
370
    18
100
AcDbSpline
210
0.0
220
0.0
230
1.0
 70
     8
 71
     3
 72
    19
 73
    15
 74
     0
 42
0.00000001
 43
0.00000001
 40
0.0
 40
0.0
 40
0.0
 40
0.0
 40
0.0608049768966837
 40
0.1074074936476018
 40
0.1524917846799707
 40
0.2033040671894721
 40
0.2495740592176936
 40
0.3351426613848718
 40
0.4177224959885807
 40
0.499295933079895
 40
0.6246425724823096
 40
0.7497442579449999
 40
0.8758804659469269
 40
1.0
 40
1.0
 40
1.0
 40
1.0
 10
350.3493749989288
 20
405.0054628466522
 30
0.0
 10
351.0973002814488
 20
405.2446534172523
 30
0.0
 10
352.4184549653432
 20
405.6671658661254
 30
0.0
 10
354.2727995455993
 20
406.2588291178631
 30
0.0
 10
355.9845652121172
 20
406.8027499792176
 30
0.0
 10
357.6630426734253
 20
407.3330537298054
 30
0.0
 10
359.7704446982998
 20
407.9952737689616
 30
0.0
 10
362.1541534064698
 20
408.7358131934785
 30
0.0
 10
364.7515903136208
 20
409.5289340006422
 30
0.0
 10
367.5150019761952
 20
410.3540322412305
 30
0.0
 10
370.2722222920024
 20
411.1469846405467
 30
0.0
 10
372.6754263489094
 20
411.7891104690945
 30
0.0
 10
374.3253284758899
 20
412.1720608345264
 30
0.0
 10
374.6711263197311
 20
412.1814924827463
 30
0.0
 10
374.8426319439446
 20
412.1861703046128
 30
0.0
  0
SPLINE
  5
155
330
1F
100
AcDbEntity
  8
0
  6
HIDDEN
 62
     7
370
    18
100
AcDbSpline
210
0.0
220
0.0
230
1.0
 70
     8
 71
     3
 72
    19
 73
    15
 74
     0
 42
0.00000001
 43
0.00000001
 40
0.0
 40
0.0
 40
0.0
 40
0.0
 40
0.057135564067579
 40
0.101096714546261
 40
0.1524933050831527
 40
0.2033059395422545
 40
0.2495779076806678
 40
0.3351474398313228
 40
0.417729055711151
 40
0.4993051695010208
 40
0.6246538772895394
 40
0.7497555661386375
 40
0.8758847126934716
 40
1.0
 40
1.0
 40
1.0
 40
1.0
 10
73.59107448769619
 20
405.0054628466517
 30
0.0
 10
73.36781110181889
 20
405.7096170818774
 30
0.0
 10
72.97276477368652
 20
406.9555604951767
 30
0.0
 10
72.38864242402549
 20
408.8194100811405
 30
0.0
 10
71.84021735042096
 20
410.5870717171001
 30
0.0
 10
71.29951758074226
 20
412.3526464413935
 30
0.0
 10
70.65668375009865
 20
414.4788071527767
 30
0.0
 10
69.94385903897604
 20
416.8895753847375
 30
0.0
 10
69.19000406377084
 20
419.5256656629734
 30
0.0
 10
68.41780256281315
 20
422.3414546919659
 30
0.0
 10
67.69543383485215
 20
425.1689368941238
 30
0.0
 10
67.14451204579447
 20
427.6633339480992
 30
0.0
 10
66.86059788961546
 20
429.4126476152966
 30
0.0
 10
66.92044539537505
 20
429.8281606031011
 30
0.0
 10
66.95012833480091
 20
430.0342451623666
 30
0.0
  0
LINE
  5
156
330
1F
100
AcDbEntity
  8
0
  6
HIDDEN
 62
     7
370
    18
100
AcDbLine
 10
66.9501283348
 20
430.0342451624
 30
0.0
 11
66.9702247433
 21
430.0694194905
 31
0.0
  0
LINE
  5
157
330
1F
100
AcDbEntity
  8
0
  6
HIDDEN
 62
     7
370
    18
100
AcDbLine
 10
49.0978175427
 20
412.1861702953
 30
0.0
 11
49.0888735481
 21
412.1880682952
 31
0.0
  0
LINE
  5
158
330
1F
100
AcDbEntity
  8
0
  6
HIDDEN
 62
     7
370
    18
100
AcDbLine
 10
356.9903211612
 20
430.0342451624
 30
0.0
 11
356.9702247433
 21
430.0694194905
 31
0.0
  0
LINE
  5
159
330
1F
100
AcDbEntity
  8
0
  6
HIDDEN
 62
     7
370
    18
100
AcDbLine
 10
374.8515759386
 20
412.1880682952
 30
0.0
 11
374.8426319439
 21
412.1861703046
 31
0.0
  0
SPLINE
  5
15A
330
1F
100
AcDbEntity
  8
0
  6
HIDDEN
 62
     7
370
    18
100
AcDbSpline
210
0.0
220
0.0
230
1.0
 70
     8
 71
     3
 72
    14
 73
    10
 74
     0
 42
0.00000001
 43
0.00000001
 40
0.0
 40
0.0
 40
0.0
 40
0.0
 40
0.2145291653715554
 40
0.321835916958822
 40
0.4291418820308049
 40
0.5717885877706821
 40
0.7144371130443999
 40
0.8572180752084715
 40
1.0
 40
1.0
 40
1.0
 40
1.0
 10
350.349374998929
 20
405.0054628466518
 30
0.0
 10
330.5689630729065
 20
404.986006462841
 30
0.0
 10
300.8944570494063
 20
404.9568180626829
 30
0.0
 10
261.2992978785883
 20
404.9943210924831
 30
0.0
 10
228.3292679667941
 20
405.0383357414259
 30
0.0
 10
192.0913048939283
 20
405.0307593711521
 30
0.0
 10
152.5866345483807
 20
404.9792411738227
 30
0.0
 10
113.0828429830268
 20
404.9626880727072
 30
0.0
 10
86.75502690300763
 20
404.9912045566274
 30
0.0
 10
73.59107448769603
 20
405.0054628466518
 30
0.0
  0
SPLINE
  5
15B
330
1F
100
AcDbEntity
  8
0
  6
HIDDEN
 62
     7
370
    18
100
AcDbSpline
210
0.0
220
0.0
230
1.0
 70
     8
 71
     3
 72
    15
 73
    11
 74
     0
 42
0.00000001
 43
0.00000001
 40
0.0
 40
0.0
 40
0.0
 40
0.0
 40
0.1297906863361804
 40
0.2595811663242606
 40
0.3894463341131011
 40
0.5193109338397504
 40
0.6394355841060951
 40
0.7595597610213269
 40
0.879779641032743
 40
1.0
 40
1.0
 40
1.0
 40
1.0
 10
350.6437887803941
 20
82.66289644283248
 30
0.0
 10
350.6003634636099
 20
96.58288546679373
 30
0.0
 10
350.5135128990816
 20
124.4228413839811
 30
0.0
 10
350.4239744129073
 20
166.23181734978
 30
0.0
 10
350.3680442321264
 20
208.0729909848885
 30
0.0
 10
350.3458262146003
 20
248.8983976912753
 30
0.0
 10
350.3459811696715
 20
288.691843925557
 30
0.0
 10
350.350789213073
 20
327.456071698623
 30
0.0
 10
350.3450604301962
 20
366.2315431553072
 30
0.0
 10
350.3479368074414
 20
392.0808057856666
 30
0.0
 10
350.3493749989289
 20
405.0054628466518
 30
0.0
  0
SPLINE
  5
15C
330
1F
100
AcDbEntity
  8
0
  6
HIDDEN
 62
     7
370
    18
100
AcDbSpline
210
0.0
220
0.0
230
1.0
 70
     8
 71
     3
 72
    12
 73
     8
 74
     0
 42
0.00000001
 43
0.00000001
 40
0.0
 40
0.0
 40
0.0
 40
0.0
 40
0.1859964930073708
 40
0.3893661190547149
 40
0.5927353690089379
 40
0.7963672829286413
 40
1.0
 40
1.0
 40
1.0
 40
1.0
 10
73.29666070623064
 20
82.66289644283282
 30
0.0
 10
90.48440983323974
 20
82.68649676516814
 30
0.0
 10
126.4653418640624
 20
82.73590181451912
 30
0.0
 10
181.2756386100825
 20
82.76516936411221
 30
0.0
 10
237.7231986078544
 20
82.76572618424954
 30
0.0
 10
294.1902097510912
 20
82.73951359746923
 30
0.0
 10
331.8259043639685
 20
82.68843552795468
 30
0.0
 10
350.6437887803942
 20
82.66289644283287
 30
0.0
  0
SPLINE
  5
15D
330
1F
100
AcDbEntity
  8
0
  6
HIDDEN
 62
     7
370
    18
100
AcDbSpline
210
0.0
220
0.0
230
1.0
 70
     8
 71
     3
 72
    14
 73
    10
 74
     0
 42
0.00000001
 43
0.00000001
 40
0.0
 40
0.0
 40
0.0
 40
0.0
 40
0.128541896431014
 40
0.2736252854461796
 40
0.4187201187016469
 40
0.5638061207672204
 40
0.7092010630867422
 40
0.8546033625986268
 40
1.0
 40
1.0
 40
1.0
 40
1.0
 10
73.59107448769613
 20
405.0054628466518
 30
0.0
 10
73.59189625005325
 20
391.1861070412099
 30
0.0
 10
73.5936455237588
 20
361.7690431738213
 30
0.0
 10
73.59460753278951
 20
316.7378285885246
 30
0.0
 10
73.59892814375551
 20
269.9324262749887
 30
0.0
 10
73.58578088840446
 20
223.1090972748652
 30
0.0
 10
73.53358840005708
 20
176.2794584734351
 30
0.0
 10
73.44091909410017
 20
129.4457822597327
 30
0.0
 10
73.34474621133053
 20
98.25698929074228
 30
0.0
 10
73.29666070623104
 20
82.66289644283265
 30
0.0
  0
CIRCLE
  5
15E
330
1F
100
AcDbEntity
  8
0
  6
HIDDEN
 62
     7
370
    18
100
AcDbCircle
 10
211.9702247433
 20
327.1880682952
 30
0.0
 40
70.02791959736209
  0
CIRCLE
  5
15F
330
1F
100
AcDbEntity
  8
0
  6
HIDDEN
 62
     7
370
    18
100
AcDbCircle
 10
211.9702247433
 20
327.1880682952
 30
0.0
 40
58.9755703523083
  0
CIRCLE
  5
160
330
1F
100
AcDbEntity
  8
0
  6
HIDDEN
 62
     7
370
    18
100
AcDbCircle
 10
211.9702247433
 20
327.1880682952
 30
0.0
 40
56.58715574274765
  0
CIRCLE
  5
161
330
1F
100
AcDbEntity
  8
0
  6
HIDDEN
 62
     7
370
    18
100
AcDbCircle
 10
211.9702247433
 20
327.1880682952
 30
0.0
 40
56.65688033694579
  0
ARC
  5
162
330
1F
100
AcDbEntity
  8
0
  6
HIDDEN
 62
     7
370
    18
100
AcDbCircle
 10
211.9702247433
 20
327.1880682952
 30
0.0
 40
47.0104714438642
100
AcDbArc
 50
257.3240374128
 51
303.8759866113
  0
ARC
  5
163
330
1F
100
AcDbEntity
  8
0
  6
HIDDEN
 62
     7
370
    18
100
AcDbCircle
 10
211.9702247433
 20
327.1880682952
 30
0.0
 40
47.01047144386421
100
AcDbArc
 50
205.8954659842
 51
252.4474151827
  0
ARC
  5
164
330
1F
100
AcDbEntity
  8
0
  6
HIDDEN
 62
     7
370
    18
100
AcDbCircle
 10
211.9702247433
 20
327.1880682952
 30
0.0
 40
47.01047144386435
100
AcDbArc
 50
154.4668945556
 51
201.0188437541
  0
ARC
  5
165
330
1F
100
AcDbEntity
  8
0
  6
HIDDEN
 62
     7
370
    18
100
AcDbCircle
 10
211.9702247433
 20
327.1880682952
 30
0.0
 40
47.01047144386476
100
AcDbArc
 50
103.038323127
 51
149.5902723255
  0
ARC
  5
166
330
1F
100
AcDbEntity
  8
0
  6
HIDDEN
 62
     7
370
    18
100
AcDbCircle
 10
211.9702247433
 20
327.1880682952
 30
0.0
 40
47.01047144386423
100
AcDbArc
 50
308.7526088413
 51
355.3045580398
  0
ARC
  5
167
330
1F
100
AcDbEntity
  8
0
  6
HIDDEN
 62
     7
370
    18
100
AcDbCircle
 10
211.9702247433
 20
327.1880682952
 30
0.0
 40
47.01047144386379
100
AcDbArc
 50
0.1811802699
 51
46.7331294684
  0
ARC
  5
168
330
1F
100
AcDbEntity
  8
0
  6
HIDDEN
 62
     7
370
    18
100
AcDbCircle
 10
211.9702247433
 20
327.1880682952
 30
0.0
 40
47.01047144386467
100
AcDbArc
 50
51.6097516985
 51
98.161700897
  0
CIRCLE
  5
169
330
1F
100
AcDbEntity
  8
0
  6
HIDDEN
 62
     7
370
    18
100
AcDbCircle
 10
211.9702247433
 20
327.1880682952
 30
0.0
 40
56.00587307924937
  0
SPLINE
  5
16A
330
1F
100
AcDbEntity
  8
0
  6
HIDDEN
 62
     7
370
    18
100
AcDbSpline
210
0.0
220
0.0
230
1.0
 70
     8
 71
     3
 72
    10
 73
     6
 74
     0
 42
0.00000001
 43
0.00000001
 40
0.0
 40
0.0
 40
0.0
 40
0.0
 40
0.4080791100763811
 40
0.815704924194707
 40
0.9999999999999999
 40
0.9999999999999999
 40
0.9999999999999999
 40
0.9999999999999999
 10
204.9047712179299
 20
330.9403164853894
 30
0.0
 10
204.7840655925407
 20
330.7604123589668
 30
0.0
 10
204.5427884220687
 20
330.4008039443671
 30
0.0
 10
204.0989200791632
 20
330.0798313934081
 30
0.0
 10
203.7991282040957
 20
330.0099277155502
 30
0.0
 10
203.7057877471498
 20
329.9881631456065
 30
0.0
  0
SPLINE
  5
16B
330
1F
100
AcDbEntity
  8
0
  6
HIDDEN
 62
     7
370
    18
100
AcDbSpline
210
0.0
220
0.0
230
1.0
 70
     8
 71
     3
 72
    10
 73
     6
 74
     0
 42
0.00000001
 43
0.00000001
 40
0.0
 40
0.0
 40
0.0
 40
0.0
 40
0.3146777426539645
 40
0.738674295212981
 40
0.9999999999999999
 40
0.9999999999999999
 40
0.9999999999999999
 40
0.9999999999999999
 10
205.0124391525321
 20
332.5057532798793
 30
0.0
 10
205.0629834011579
 20
332.3450688300014
 30
0.0
 10
205.1816309321711
 20
331.9678782738333
 30
0.0
 10
205.1147634839107
 20
331.4096298740859
 30
0.0
 10
204.9627403670776
 20
331.0698721987833
 30
0.0
 10
204.9047712179299
 20
330.9403164853894
 30
0.0
  0
ARC
  5
16C
330
1F
100
AcDbEntity
  8
0
  6
HIDDEN
 62
     7
370
    18
100
AcDbCircle
 10
211.9702247433
 20
327.1880682952
 30
0.0
 40
7.999999999999948
100
AcDbArc
 50
152.0285834406
 51
203.4571548692
  0
SPLINE
  5
16D
330
1F
100
AcDbEntity
  8
0
  6
HIDDEN
 62
     7
370
    18
100
AcDbSpline
210
0.0
220
0.0
230
1.0
 70
     8
 71
     3
 72
    10
 73
     6
 74
     0
 42
0.00000001
 43
0.00000001
 40
0.0
 40
0.0
 40
0.0
 40
0.0
 40
0.3884930549881593
 40
0.7765545702887477
 40
0.9999999999999999
 40
0.9999999999999999
 40
0.9999999999999999
 40
0.9999999999999999
 10
204.6313607596193
 20
324.0035627717731
 30
0.0
 10
204.6971515360863
 20
323.7968680330289
 30
0.0
 10
204.8286600083545
 20
323.3837081529085
 30
0.0
 10
204.7964806061922
 20
322.8109619857061
 30
0.0
 10
204.6507770824941
 20
322.5101684358719
 30
0.0
 10
204.5975368262243
 20
322.4002580831845
 30
0.0
  0
SPLINE
  5
16E
330
1F
100
AcDbEntity
  8
0
  6
HIDDEN
 62
     7
370
    18
100
AcDbSpline
210
0.0
220
0.0
230
1.0
 70
     8
 71
     3
 72
    10
 73
     6
 74
     0
 42
0.00000001
 43
0.00000001
 40
0.0
 40
0.0
 40
0.0
 40
0.0
 40
0.3697270817431728
 40
0.7596655984739922
 40
0.9999999999999999
 40
0.9999999999999999
 40
0.9999999999999999
 40
0.9999999999999999
 10
203.3476259980472
 20
325.1220143660766
 30
0.0
 10
203.549165622963
 20
325.0460573197139
 30
0.0
 10
203.9632622021371
 20
324.889990972582
 30
0.0
 10
204.395779733843
 20
324.4611766588212
 30
0.0
 10
204.5663277377801
 20
324.1298887940505
 30
0.0
 10
204.6313607596192
 20
324.003562771773
 30
0.0
  0
ARC
  5
16F
330
1F
100
AcDbEntity
  8
0
  6
HIDDEN
 62
     7
370
    18
100
AcDbCircle
 10
211.9702247433
 20
327.1880682952
 30
0.0
 40
8.000000000000579
100
AcDbArc
 50
203.4571548692
 51
254.8857262977
  0
SPLINE
  5
170
330
1F
100
AcDbEntity
  8
0
  6
HIDDEN
 62
     7
370
    18
100
AcDbSpline
210
0.0
220
0.0
230
1.0
 70
     8
 71
     3
 72
    10
 73
     6
 74
     0
 42
0.00000001
 43
0.00000001
 40
0.0
 40
0.0
 40
0.0
 40
0.0
 40
0.3726672021015684
 40
0.7449204439384338
 40
1.0
 40
1.0
 40
1.0
 40
1.0
 10
209.8842645665733
 20
319.4648066693845
 30
0.0
 10
210.0871612926383
 20
319.3875315263546
 30
0.0
 10
210.4927293662483
 20
319.2330670778425
 30
0.0
 10
210.9349150397449
 20
318.8324334377143
 30
0.0
 10
211.087635321613
 20
318.5091012644853
 30
0.0
 10
211.1497328587273
 20
318.3776312895629
 30
0.0
  0
SPLINE
  5
171
330
1F
100
AcDbEntity
  8
0
  6
HIDDEN
 62
     7
370
    18
100
AcDbSpline
210
0.0
220
0.0
230
1.0
 70
     8
 71
     3
 72
    10
 73
     6
 74
     0
 42
0.00000001
 43
0.00000001
 40
0.0
 40
0.0
 40
0.0
 40
0.0
 40
0.3244050222123465
 40
0.7423834818896681
 40
1.0
 40
1.0
 40
1.0
 40
1.0
 10
208.3135634087476
 20
319.2110560336066
 30
0.0
 10
208.4655170150408
 20
319.3002147668056
 30
0.0
 10
208.8132546873996
 20
319.5042497424104
 30
0.0
 10
209.3799199849886
 20
319.5652546744943
 30
0.0
 10
209.7450383615739
 20
319.4925357162739
 30
0.0
 10
209.8842645665733
 20
319.4648066693845
 30
0.0
  0
ARC
  5
172
330
1F
100
AcDbEntity
  8
0
  6
HIDDEN
 62
     7
370
    18
100
AcDbCircle
 10
211.9702247433
 20
327.1880682952
 30
0.0
 40
8.000000000000579
100
AcDbArc
 50
254.8857262977
 51
306.3142977263
  0
SPLINE
  5
173
330
1F
100
AcDbEntity
  8
0
  6
HIDDEN
 62
     7
370
    18
100
AcDbSpline
210
0.0
220
0.0
230
1.0
 70
     8
 71
     3
 72
    10
 73
     6
 74
     0
 42
0.00000001
 43
0.00000001
 40
0.0
 40
0.0
 40
0.0
 40
0.0
 40
0.4013027257659608
 40
0.8021596828094963
 40
1.0
 40
1.0
 40
1.0
 40
1.0
 10
216.7079389324454
 20
320.7418240970749
 30
0.0
 10
216.8947708439277
 20
320.8516888073449
 30
0.0
 10
217.2682271332348
 20
321.0712961897119
 30
0.0
 10
217.8162287496129
 20
321.1676723902564
 30
0.0
 10
218.1251155021571
 20
321.0978874647693
 30
0.0
 10
218.2271875437869
 20
321.0748269425528
 30
0.0
  0
SPLINE
  5
174
330
1F
100
AcDbEntity
  8
0
  6
HIDDEN
 62
     7
370
    18
100
AcDbSpline
210
0.0
220
0.0
230
1.0
 70
     8
 71
     3
 72
    10
 73
     6
 74
     0
 42
0.00000001
 43
0.00000001
 40
0.0
 40
0.0
 40
0.0
 40
0.0
 40
0.2965120832743103
 40
0.7317474025146575
 40
1.0
 40
1.0
 40
1.0
 40
1.0
 10
215.9401503106345
 20
319.4185542099518
 30
0.0
 10
215.9627662395804
 20
319.5714727457915
 30
0.0
 10
216.0185789642385
 20
319.9488527842756
 30
0.0
 10
216.315425819276
 20
320.4100226967058
 30
0.0
 10
216.5995842218875
 20
320.6502290815366
 30
0.0
 10
216.7079389324454
 20
320.7418240970749
 30
0.0
  0
ARC
  5
175
330
1F
100
AcDbEntity
  8
0
  6
HIDDEN
 62
     7
370
    18
100
AcDbCircle
 10
211.9702247433
 20
327.1880682952
 30
0.0
 40
8.000000000000387
100
AcDbArc
 50
306.3142977263
 51
357.7428691549
  0
SPLINE
  5
176
330
1F
100
AcDbEntity
  8
0
  6
HIDDEN
 62
     7
370
    18
100
AcDbSpline
210
0.0
220
0.0
230
1.0
 70
     8
 71
     3
 72
    10
 73
     6
 74
     0
 42
0.00000001
 43
0.00000001
 40
0.0
 40
0.0
 40
0.0
 40
0.0
 40
0.4071538836364235
 40
0.8138554990601272
 40
1.0
 40
1.0
 40
1.0
 40
1.0
 10
219.9640178821436
 20
326.8729948853839
 30
0.0
 10
219.9946982619875
 20
327.087470363341
 30
0.0
 10
220.0560249417827
 20
327.5161830790098
 30
0.0
 10
220.3174377518268
 20
327.9988642203564
 30
0.0
 10
220.5582034411489
 20
328.1925835370652
 30
0.0
 10
220.6338001395927
 20
328.2534084029719
 30
0.0
  0
SPLINE
  5
177
330
1F
100
AcDbEntity
  8
0
  6
HIDDEN
 62
     7
370
    18
100
AcDbSpline
210
0.0
220
0.0
230
1.0
 70
     8
 71
     3
 72
    10
 73
     6
 74
     0
 42
0.00000001
 43
0.00000001
 40
0.0
 40
0.0
 40
0.0
 40
0.0
 40
0.3208591359267425
 40
0.7410313716630399
 40
1.0
 40
1.0
 40
1.0
 40
1.0
 10
220.5555165313601
 20
325.4046614014014
 30
0.0
 10
220.4367968842176
 20
325.5309569043989
 30
0.0
 10
220.1626111961234
 20
325.822639201525
 30
0.0
 10
219.9783639219883
 20
326.3589806608878
 30
0.0
 10
219.9679781600117
 20
326.7310993393518
 30
0.0
 10
219.9640178821436
 20
326.8729948853839
 30
0.0
  0
ARC
  5
178
330
1F
100
AcDbEntity
  8
0
  6
HIDDEN
 62
     7
370
    18
100
AcDbCircle
 10
211.9702247433
 20
327.1880682952
 30
0.0
 40
8.000000000000387
100
AcDbArc
 50
357.7428691549
 51
49.1714405834
  0
SPLINE
  5
179
330
1F
100
AcDbEntity
  8
0
  6
HIDDEN
 62
     7
370
    18
100
AcDbSpline
210
0.0
220
0.0
230
1.0
 70
     8
 71
     3
 72
    10
 73
     6
 74
     0
 42
0.00000001
 43
0.00000001
 40
0.0
 40
0.0
 40
0.0
 40
0.0
 40
0.3831226590674571
 40
0.7658197439055704
 40
1.0
 40
1.0
 40
1.0
 40
1.0
 10
217.2006075546386
 20
333.2414223776241
 30
0.0
 10
217.0515403896126
 20
333.399094080414
 30
0.0
 10
216.7535716439821
 20
333.7142623436162
 30
0.0
 10
216.5324197444726
 20
334.2517879155163
 30
0.0
 10
216.5338231299471
 20
334.5937198739225
 30
0.0
 10
216.5343558860527
 20
334.723524793431
 30
0.0
  0
SPLINE
  5
17A
330
1F
100
AcDbEntity
  8
0
  6
HIDDEN
 62
     7
370
    18
100
AcDbSpline
210
0.0
220
0.0
230
1.0
 70
     8
 71
     3
 72
    10
 73
     6
 74
     0
 42
0.00000001
 43
0.00000001
 40
0.0
 40
0.0
 40
0.0
 40
0.0
 40
0.3795902700434597
 40
0.7634266095988644
 40
1.0
 40
1.0
 40
1.0
 40
1.0
 10
218.8701302380495
 20
332.7912410062622
 30
0.0
 10
218.6463623042617
 20
332.7711037159781
 30
0.0
 10
218.1963233846419
 20
332.7306038811263
 30
0.0
 10
217.6114070966932
 20
332.9311834075409
 30
0.0
 10
217.3140103021729
 20
333.1557797514816
 30
0.0
 10
217.2006075546385
 20
333.241422377624
 30
0.0
  0
SPLINE
  5
17B
330
1F
100
AcDbEntity
  8
0
  6
HIDDEN
 62
     7
370
    18
100
AcDbSpline
210
0.0
220
0.0
230
1.0
 70
     8
 71
     3
 72
    10
 73
     6
 74
     0
 42
0.00000001
 43
0.00000001
 40
0.0
 40
0.0
 40
0.0
 40
0.0
 40
0.3741393157301203
 40
0.7478630359656948
 40
1.0
 40
1.0
 40
1.0
 40
1.0
 10
210.4986122898399
 20
335.0515507798922
 30
0.0
 10
210.2822964839146
 20
335.0331635364158
 30
0.0
 10
209.8499051565532
 20
334.9964094740889
 30
0.0
 10
209.2797156238916
 20
335.1645268809555
 30
0.0
 10
209.0034786129885
 20
335.3880251714746
 30
0.0
 10
208.8921925663753
 20
335.4780646672517
 30
0.0
  0
SPLINE
  5
17C
330
1F
100
AcDbEntity
  8
0
  6
HIDDEN
 62
     7
370
    18
100
AcDbSpline
210
0.0
220
0.0
230
1.0
 70
     8
 71
     3
 72
    10
 73
     6
 74
     0
 42
0.00000001
 43
0.00000001
 40
0.0
 40
0.0
 40
0.0
 40
0.0
 40
0.3167758276535149
 40
0.7394743327650597
 40
1.0
 40
1.0
 40
1.0
 40
1.0
 10
211.7926394844566
 20
335.9473025933223
 30
0.0
 10
211.6976485031317
 20
335.8062024917505
 30
0.0
 10
211.4759037031755
 20
335.4768216035819
 30
0.0
 10
210.996492392202
 20
335.1799610888574
 30
0.0
 10
210.6360539512111
 20
335.0869989251739
 30
0.0
 10
210.4986122898399
 20
335.0515507798922
 30
0.0
  0
ENDSEC
  0
SECTION
  2
OBJECTS
  0
DICTIONARY
  5
C
330
0
100
AcDbDictionary
281
     1
  3
ACAD_GROUP
350
D
  3
ACAD_LAYOUT
350
1A
  3
ACAD_MLINESTYLE
350
17
  3
ACAD_PLOTSETTINGS
350
19
  3
ACAD_PLOTSTYLENAME
350
E
  3
ACAD_SCALELIST
350
47
  3
DWGPROPS
350
17D
  0
DICTIONARY
  5
D
102
{ACAD_REACTORS
330
C
102
}
330
C
100
AcDbDictionary
281
     1
  0
DICTIONARY
  5
1A
102
{ACAD_REACTORS
330
C
102
}
330
C
100
AcDbDictionary
281
     1
  3
Layout1
350
1E
  3
Layout2
350
26
  3
Model
350
22
  0
DICTIONARY
  5
17
102
{ACAD_REACTORS
330
C
102
}
330
C
100
AcDbDictionary
281
     1
  3
Standard
350
18
  0
DICTIONARY
  5
19
102
{ACAD_REACTORS
330
C
102
}
330
C
100
AcDbDictionary
281
     1
  0
ACDBDICTIONARYWDFLT
  5
E
102
{ACAD_REACTORS
330
C
102
}
330
C
100
AcDbDictionary
281
     1
  3
Normal
350
F
100
AcDbDictionaryWithDefault
340
F
  0
DICTIONARY
  5
47
102
{ACAD_REACTORS
330
C
102
}
330
C
100
AcDbDictionary
281
     1
  3
A0
350
48
  3
A1
350
49
  3
A2
350
4A
  3
A3
350
4B
  3
A4
350
4C
  3
A5
350
4D
  3
A6
350
4E
  3
A7
350
4F
  3
A8
350
50
  3
A9
350
51
  3
B0
350
52
  3
B1
350
53
  3
B2
350
54
  3
B3
350
55
  3
B4
350
56
  3
B5
350
57
  3
B6
350
58
  0
XRECORD
  5
17D
102
{ACAD_REACTORS
330
C
102
}
330
C
100
AcDbXrecord
280
     1
  1
DWGPROPS COOKIE
  2

  3

  4

  6

  7

  8
villesi
  9

300
=
301
=
302
=
303
=
304
=
305
=
306
=
307
=
308
=
309
=
 40
0.0
 41
2460404.345240185
 42
2460404.34524073
  1

 90
        0
  0
LAYOUT
  5
1E
102
{ACAD_REACTORS
330
1A
102
}
330
1A
100
AcDbPlotSettings
  1

  2
none_device
  4

  6

 40
0.0
 41
0.0
 42
0.0
 43
0.0
 44
0.0
 45
0.0
 46
0.0
 47
0.0
 48
0.0
 49
0.0
140
0.0
141
0.0
142
1.0
143
1.0
 70
   688
 72
     1
 73
     0
 74
     5
  7

 75
    16
147
1.0
148
0.0
149
0.0
100
AcDbLayout
  1
Layout1
 70
     1
 71
     1
 10
0.0
 20
0.0
 11
420.0
 21
297.0
 12
0.0
 22
0.0
 32
0.0
 14
1.0000000000E+20
 24
1.0000000000E+20
 34
1.0000000000E+20
 15
-1.0000000000E+20
 25
-1.0000000000E+20
 35
-1.0000000000E+20
146
0.0
 13
0.0
 23
0.0
 33
0.0
 16
1.0
 26
0.0
 36
0.0
 17
0.0
 27
1.0
 37
0.0
 76
     0
330
1B
  0
LAYOUT
  5
26
102
{ACAD_REACTORS
330
1A
102
}
330
1A
100
AcDbPlotSettings
  1

  2
none_device
  4

  6

 40
0.0
 41
0.0
 42
0.0
 43
0.0
 44
0.0
 45
0.0
 46
0.0
 47
0.0
 48
0.0
 49
0.0
140
0.0
141
0.0
142
1.0
143
1.0
 70
   688
 72
     1
 73
     0
 74
     5
  7

 75
    16
147
1.0
148
0.0
149
0.0
100
AcDbLayout
  1
Layout2
 70
     1
 71
     2
 10
0.0
 20
0.0
 11
0.0
 21
0.0
 12
0.0
 22
0.0
 32
0.0
 14
0.0
 24
0.0
 34
0.0
 15
0.0
 25
0.0
 35
0.0
146
0.0
 13
0.0
 23
0.0
 33
0.0
 16
1.0
 26
0.0
 36
0.0
 17
0.0
 27
1.0
 37
0.0
 76
     0
330
23
  0
LAYOUT
  5
22
102
{ACAD_REACTORS
330
1A
102
}
330
1A
100
AcDbPlotSettings
  1

  2
none_device
  4
Letter_(8.50_x_11.00_Inches)
  6

 40
6.35
 41
6.35
 42
6.35000508
 43
6.35000508
 44
215.9
 45
279.4
 46
0.0
 47
0.0
 48
0.0
 49
0.0
140
0.0
141
0.0
142
1.0
143
1.0
 70
  1712
 72
     1
 73
     0
 74
     0
  7

 75
     0
147
1.0
148
0.0
149
0.0
100
AcDbLayout
  1
Model
 70
     1
 71
     0
 10
0.0
 20
0.0
 11
420.0
 21
500.0
 12
0.0
 22
0.0
 32
0.0
 14
0.0
 24
0.0
 34
0.0
 15
420.0
 25
500.0
 35
0.0
146
0.0
 13
0.0
 23
0.0
 33
0.0
 16
1.0
 26
0.0
 36
0.0
 17
0.0
 27
1.0
 37
0.0
 76
     0
330
1F
331
29
  0
MLINESTYLE
  5
18
102
{ACAD_REACTORS
330
17
102
}
330
17
100
AcDbMlineStyle
  2
Standard
 70
     0
  3

 62
   256
 51
90.0
 52
90.0
 71
     2
 49
0.5
 62
   256
  6
BYLAYER
 49
-0.5
 62
   256
  6
BYLAYER
  0
ACDBPLACEHOLDER
  5
F
102
{ACAD_REACTORS
330
E
102
}
330
E
  0
SCALE
  5
48
102
{ACAD_REACTORS
330
47
102
}
330
47
100
AcDbScale
 70
     0
300
1:1
140
1.0
141
1.0
290
     1
  0
SCALE
  5
49
102
{ACAD_REACTORS
330
47
102
}
330
47
100
AcDbScale
 70
     0
300
1:2
140
1.0
141
2.0
290
     0
  0
SCALE
  5
4A
102
{ACAD_REACTORS
330
47
102
}
330
47
100
AcDbScale
 70
     0
300
1:4
140
1.0
141
4.0
290
     0
  0
SCALE
  5
4B
102
{ACAD_REACTORS
330
47
102
}
330
47
100
AcDbScale
 70
     0
300
1:5
140
1.0
141
5.0
290
     0
  0
SCALE
  5
4C
102
{ACAD_REACTORS
330
47
102
}
330
47
100
AcDbScale
 70
     0
300
1:8
140
1.0
141
8.0
290
     0
  0
SCALE
  5
4D
102
{ACAD_REACTORS
330
47
102
}
330
47
100
AcDbScale
 70
     0
300
1:10
140
1.0
141
10.0
290
     0
  0
SCALE
  5
4E
102
{ACAD_REACTORS
330
47
102
}
330
47
100
AcDbScale
 70
     0
300
1:16
140
1.0
141
16.0
290
     0
  0
SCALE
  5
4F
102
{ACAD_REACTORS
330
47
102
}
330
47
100
AcDbScale
 70
     0
300
1:20
140
1.0
141
20.0
290
     0
  0
SCALE
  5
50
102
{ACAD_REACTORS
330
47
102
}
330
47
100
AcDbScale
 70
     0
300
1:30
140
1.0
141
30.0
290
     0
  0
SCALE
  5
51
102
{ACAD_REACTORS
330
47
102
}
330
47
100
AcDbScale
 70
     0
300
1:40
140
1.0
141
40.0
290
     0
  0
SCALE
  5
52
102
{ACAD_REACTORS
330
47
102
}
330
47
100
AcDbScale
 70
     0
300
1:50
140
1.0
141
50.0
290
     0
  0
SCALE
  5
53
102
{ACAD_REACTORS
330
47
102
}
330
47
100
AcDbScale
 70
     0
300
1:100
140
1.0
141
100.0
290
     0
  0
SCALE
  5
54
102
{ACAD_REACTORS
330
47
102
}
330
47
100
AcDbScale
 70
     0
300
2:1
140
2.0
141
1.0
290
     0
  0
SCALE
  5
55
102
{ACAD_REACTORS
330
47
102
}
330
47
100
AcDbScale
 70
     0
300
4:1
140
4.0
141
1.0
290
     0
  0
SCALE
  5
56
102
{ACAD_REACTORS
330
47
102
}
330
47
100
AcDbScale
 70
     0
300
8:1
140
8.0
141
1.0
290
     0
  0
SCALE
  5
57
102
{ACAD_REACTORS
330
47
102
}
330
47
100
AcDbScale
 70
     0
300
10:1
140
10.0
141
1.0
290
     0
  0
SCALE
  5
58
102
{ACAD_REACTORS
330
47
102
}
330
47
100
AcDbScale
 70
     0
300
100:1
140
100.0
141
1.0
290
     0
  0
ENDSEC
  0
EOF
