  0
SECTION
  2
HEADER
  9
$ACADVER
  1
AC1015
  9
$ACADMAINTVER
 70
     6
  9
$DWGCODEPAGE
  3
ANSI_1252
  9
$INSBASE
 10
0.0
 20
0.0
 30
0.0
  9
$EXTMIN
 10
0.0
 20
0.0
 30
0.0
  9
$EXTMAX
 10
800.0
 20
650.0
 30
0.0
  9
$LIMMIN
 10
0.0
 20
0.0
  9
$LIMMAX
 10
800.0
 20
650.0
  9
$ORTHOMODE
 70
     0
  9
$REGENMODE
 70
     1
  9
$FILLMODE
 70
     1
  9
$QTEXTMODE
 70
     0
  9
$MIRRTEXT
 70
     1
  9
$LTSCALE
 40
1.0
  9
$ATTMODE
 70
     1
  9
$TEXTSIZE
 40
3.5
  9
$TRACEWID
 40
1.0
  9
$TEXTSTYLE
  7
Standard
  9
$CLAYER
  8
0
  9
$CELTYPE
  6
ByLayer
  9
$CECOLOR
 62
   256
  9
$CELTSCALE
 40
1.0
  9
$DISPSILH
 70
     0
  9
$DIMSCALE
 40
1.0
  9
$DIMASZ
 40
3.302
  9
$DIMEXO
 40
1.0
  9
$DIMDLI
 40
3.75
  9
$DIMRND
 40
0.0
  9
$DIMDLE
 40
0.0
  9
$DIMEXE
 40
1.0
  9
$DIMTP
 40
0.0
  9
$DIMTM
 40
0.0
  9
$DIMTXT
 40
3.5
  9
$DIMCEN
 40
2.5
  9
$DIMTSZ
 40
0.0
  9
$DIMTOL
 70
     0
  9
$DIMLIM
 70
     0
  9
$DIMTIH
 70
     1
  9
$DIMTOH
 70
     1
  9
$DIMSE1
 70
     0
  9
$DIMSE2
 70
     0
  9
$DIMTAD
 70
     1
  9
$DIMZIN
 70
     1
  9
$DIMBLK
  1

  9
$DIMASO
 70
     1
  9
$DIMSHO
 70
     1
  9
$DIMPOST
  1

  9
$DIMAPOST
  1

  9
$DIMALT
 70
     0
  9
$DIMALTD
 70
     3
  9
$DIMALTF
 40
0.0393700787
  9
$DIMLFAC
 40
1.0
  9
$DIMTOFL
 70
     1
  9
$DIMTVP
 40
0.0
  9
$DIMTIX
 70
     0
  9
$DIMSOXD
 70
     0
  9
$DIMSAH
 70
     0
  9
$DIMBLK1
  1

  9
$DIMBLK2
  1

  9
$DIMSTYLE
  2
ISO-25
  9
$DIMCLRD
 70
     0
  9
$DIMCLRE
 70
     0
  9
$DIMCLRT
 70
     0
  9
$DIMTFAC
 40
1.0
  9
$DIMGAP
 40
1.524
  9
$DIMJUST
 70
     0
  9
$DIMSD1
 70
     0
  9
$DIMSD2
 70
     0
  9
$DIMTOLJ
 70
     0
  9
$DIMTZIN
 70
     1
  9
$DIMALTZ
 70
     0
  9
$DIMALTTZ
 70
     0
  9
$DIMUPT
 70
     0
  9
$DIMDEC
 70
     2
  9
$DIMTDEC
 70
     2
  9
$DIMALTU
 70
     2
  9
$DIMALTTD
 70
     3
  9
$DIMTXSTY
  7
Standard
  9
$DIMAUNIT
 70
     0
  9
$DIMADEC
 70
     2
  9
$DIMALTRND
 40
0.0
  9
$DIMAZIN
 70
     0
  9
$DIMDSEP
 70
    44
  9
$DIMATFIT
 70
     3
  9
$DIMFRAC
 70
     0
  9
$DIMLDRBLK
  1

  9
$DIMLUNIT
 70
     2
  9
$DIMLWD
 70
    -2
  9
$DIMLWE
 70
    -2
  9
$DIMTMOVE
 70
     0
  9
$LUNITS
 70
     2
  9
$LUPREC
 70
     1
  9
$SKETCHINC
 40
1.0
  9
$FILLETRAD
 40
10.0
  9
$AUNITS
 70
     0
  9
$AUPREC
 70
     1
  9
$MENU
  1
.
  9
$ELEVATION
 40
0.0
  9
$PELEVATION
 40
0.0
  9
$THICKNESS
 40
0.0
  9
$LIMCHECK
 70
     0
  9
$CHAMFERA
 40
0.0
  9
$CHAMFERB
 40
0.0
  9
$CHAMFERC
 40
0.0
  9
$CHAMFERD
 40
0.0
  9
$SKPOLY
 70
     0
  9
$TDCREATE
 40
2460130.535040451
  9
$TDUCREATE
 40
2460130.410040451
  9
$TDUPDATE
 40
2460130.535040903
  9
$TDUUPDATE
 40
2460130.410040903
  9
$TDINDWG
 40
0.0000000116
  9
$TDUSRTIMER
 40
0.0000000116
  9
$USRTIMER
 70
     1
  9
$ANGBASE
 50
0.0
  9
$ANGDIR
 70
     0
  9
$PDMODE
 70
     0
  9
$PDSIZE
 40
-1.0
  9
$PLINEWID
 40
0.0
  9
$SPLFRAME
 70
     0
  9
$SPLINETYPE
 70
     6
  9
$SPLINESEGS
 70
     8
  9
$HANDSEED
  5
1AD
  9
$SURFTAB1
 70
     6
  9
$SURFTAB2
 70
     6
  9
$SURFTYPE
 70
     6
  9
$SURFU
 70
     6
  9
$SURFV
 70
     6
  9
$UCSBASE
  2

  9
$UCSNAME
  2

  9
$UCSORG
 10
0.0
 20
0.0
 30
0.0
  9
$UCSXDIR
 10
1.0
 20
0.0
 30
0.0
  9
$UCSYDIR
 10
0.0
 20
1.0
 30
0.0
  9
$UCSORTHOREF
  2

  9
$UCSORTHOVIEW
 70
     0
  9
$UCSORGTOP
 10
0.0
 20
0.0
 30
0.0
  9
$UCSORGBOTTOM
 10
0.0
 20
0.0
 30
0.0
  9
$UCSORGLEFT
 10
0.0
 20
0.0
 30
0.0
  9
$UCSORGRIGHT
 10
0.0
 20
0.0
 30
0.0
  9
$UCSORGFRONT
 10
0.0
 20
0.0
 30
0.0
  9
$UCSORGBACK
 10
0.0
 20
0.0
 30
0.0
  9
$PUCSBASE
  2

  9
$PUCSNAME
  2

  9
$PUCSORG
 10
0.0
 20
0.0
 30
0.0
  9
$PUCSXDIR
 10
1.0
 20
0.0
 30
0.0
  9
$PUCSYDIR
 10
0.0
 20
1.0
 30
0.0
  9
$PUCSORTHOREF
  2

  9
$PUCSORTHOVIEW
 70
     0
  9
$PUCSORGTOP
 10
0.0
 20
0.0
 30
0.0
  9
$PUCSORGBOTTOM
 10
0.0
 20
0.0
 30
0.0
  9
$PUCSORGLEFT
 10
0.0
 20
0.0
 30
0.0
  9
$PUCSORGRIGHT
 10
0.0
 20
0.0
 30
0.0
  9
$PUCSORGFRONT
 10
0.0
 20
0.0
 30
0.0
  9
$PUCSORGBACK
 10
0.0
 20
0.0
 30
0.0
  9
$USERI1
 70
     0
  9
$USERI2
 70
     0
  9
$USERI3
 70
     0
  9
$USERI4
 70
     0
  9
$USERI5
 70
     0
  9
$USERR1
 40
0.0
  9
$USERR2
 40
0.0
  9
$USERR3
 40
0.0
  9
$USERR4
 40
0.0
  9
$USERR5
 40
0.0
  9
$WORLDVIEW
 70
     1
  9
$SHADEDGE
 70
     3
  9
$SHADEDIF
 70
    70
  9
$TILEMODE
 70
     1
  9
$MAXACTVP
 70
    64
  9
$PINSBASE
 10
0.0
 20
0.0
 30
0.0
  9
$PLIMCHECK
 70
     0
  9
$PEXTMIN
 10
1.0000000000E+20
 20
1.0000000000E+20
 30
1.0000000000E+20
  9
$PEXTMAX
 10
-1.0000000000E+20
 20
-1.0000000000E+20
 30
-1.0000000000E+20
  9
$PLIMMIN
 10
0.0
 20
0.0
  9
$PLIMMAX
 10
420.0
 20
297.0
  9
$UNITMODE
 70
     0
  9
$VISRETAIN
 70
     1
  9
$PLINEGEN
 70
     0
  9
$PSLTSCALE
 70
     1
  9
$TREEDEPTH
 70
  3020
  9
$CMLSTYLE
  2
Standard
  9
$CMLJUST
 70
     0
  9
$CMLSCALE
 40
20.0
  9
$PROXYGRAPHICS
 70
     1
  9
$MEASUREMENT
 70
     1
  9
$CELWEIGHT
370
    -1
  9
$ENDCAPS
280
     0
  9
$JOINSTYLE
280
     0
  9
$LWDISPLAY
290
     1
  9
$INSUNITS
 70
     4
  9
$HYPERLINKBASE
  1

  9
$STYLESHEET
  1

  9
$XEDIT
290
     1
  9
$CEPSNTYPE
380
     0
  9
$PSTYLEMODE
290
     1
  9
$FINGERPRINTGUID
  2
{36e167a1-487a-4ad3-8a2e-36840490d424}
  9
$VERSIONGUID
  2
{FAEB1C32-E019-11D5-929B-00C0DF256EC4}
  9
$EXTNAMES
290
     1
  9
$PSVPSCALE
 40
0.0
  9
$OLESTARTUP
290
     0
  0
ENDSEC
  0
SECTION
  2
CLASSES
  0
CLASS
  1
ACDBDICTIONARYWDFLT
  2
AcDbDictionaryWithDefault
  3
ObjectDBX Classes
 90
        0
280
     0
281
     0
  0
CLASS
  1
VISUALSTYLE
  2
AcDbVisualStyle
  3
ObjectDBX Classes
 90
     4095
280
     0
281
     0
  0
CLASS
  1
MATERIAL
  2
AcDbMaterial
  3
ObjectDBX Classes
 90
     1153
280
     0
281
     0
  0
CLASS
  1
SCALE
  2
AcDbScale
  3
ObjectDBX Classes
 90
     1153
280
     0
281
     0
  0
CLASS
  1
TABLESTYLE
  2
AcDbTableStyle
  3
ObjectDBX Classes
 90
     4095
280
     0
281
     0
  0
CLASS
  1
MLEADERSTYLE
  2
AcDbMLeaderStyle
  3
ACDB_MLEADERSTYLE_CLASS
 90
     4095
280
     0
281
     0
  0
CLASS
  1
SUN
  2
AcDbSun
  3
SCENEOE
 90
     1153
280
     0
281
     0
  0
CLASS
  1
ACDBPLACEHOLDER
  2
AcDbPlaceHolder
  3
ObjectDBX Classes
 90
        0
280
     0
281
     0
  0
CLASS
  1
LAYOUT
  2
AcDbLayout
  3
ObjectDBX Classes
 90
        0
280
     0
281
     0
  0
ENDSEC
  0
SECTION
  2
TABLES
  0
TABLE
  2
VPORT
  5
8
330
0
100
AcDbSymbolTable
 70
     1
  0
VPORT
  5
29
330
8
100
AcDbSymbolTableRecord
100
AcDbViewportTableRecord
  2
*Active
 70
     0
 10
0.0
 20
0.0
 11
1.0
 21
1.0
 12
400.0
 22
325.0
 13
0.0
 23
0.0
 14
10.0
 24
10.0
 15
10.0
 25
10.0
 16
0.0
 26
0.0
 36
1.0
 17
0.0
 27
0.0
 37
0.0
 40
650.0
 41
1.2307692308
 42
50.0
 43
0.0
 44
0.0
 50
0.0
 51
0.0
 71
     0
 72
  2000
 73
     1
 74
     3
 75
     0
 76
     0
 77
     0
 78
     0
281
     0
 65
     1
110
0.0
120
0.0
130
0.0
111
1.0
121
0.0
131
0.0
112
0.0
122
1.0
132
0.0
 79
     0
146
0.0
  0
ENDTAB
  0
TABLE
  2
LTYPE
  5
5
330
0
100
AcDbSymbolTable
 70
     6
  0
LTYPE
  5
14
330
5
100
AcDbSymbolTableRecord
100
AcDbLinetypeTableRecord
  2
ByBlock
 70
     0
  3

 72
    65
 73
     0
 40
0.0
  0
LTYPE
  5
15
330
5
100
AcDbSymbolTableRecord
100
AcDbLinetypeTableRecord
  2
ByLayer
 70
     0
  3

 72
    65
 73
     0
 40
0.0
  0
LTYPE
  5
16
330
5
100
AcDbSymbolTableRecord
100
AcDbLinetypeTableRecord
  2
Continuous
 70
     0
  3
Solid line
 72
    65
 73
     0
 40
0.0
  0
LTYPE
  5
6E
330
5
100
AcDbSymbolTableRecord
100
AcDbLinetypeTableRecord
  2
HIDDEN
 70
     0
  3
Hidden __ __ __ __ __ __ __ __ __ __ __ __ __ __
 72
    65
 73
     2
 40
1.905
 49
1.27
 74
     0
 49
-0.635
 74
     0
  0
LTYPE
  5
6F
330
5
100
AcDbSymbolTableRecord
100
AcDbLinetypeTableRecord
  2
PHANTOM
 70
     0
  3
Phantom ______  __  __  ______  __  __  ______
 72
    65
 73
     6
 40
12.7
 49
6.35
 74
     0
 49
-1.27
 74
     0
 49
1.27
 74
     0
 49
-1.27
 74
     0
 49
1.27
 74
     0
 49
-1.27
 74
     0
  0
LTYPE
  5
70
330
5
100
AcDbSymbolTableRecord
100
AcDbLinetypeTableRecord
  2
CENTER
 70
     0
  3
Center ____ _ ____ _ ____ _ ____ _ ____ _ ____
 72
    65
 73
     4
 40
10.16
 49
6.35
 74
     0
 49
-1.27
 74
     0
 49
1.27
 74
     0
 49
-1.27
 74
     0
  0
LTYPE
  5
71
330
5
100
AcDbSymbolTableRecord
100
AcDbLinetypeTableRecord
  2
CENTERX2
 70
     0
  3
Center (2x) ________  __  ________  __  _____
 72
    65
 73
     4
 40
20.32
 49
12.7
 74
     0
 49
-2.54
 74
     0
 49
2.54
 74
     0
 49
-2.54
 74
     0
  0
LTYPE
  5
72
330
5
100
AcDbSymbolTableRecord
100
AcDbLinetypeTableRecord
  2
DOT2
 70
     0
  3
Dot (.5x) ........................................
 72
    65
 73
     2
 40
0.635
 49
0.0
 74
     0
 49
-0.635
 74
     0
  0
ENDTAB
  0
TABLE
  2
LAYER
  5
2
330
0
100
AcDbSymbolTable
 70
     1
  0
LAYER
  5
10
330
2
100
AcDbSymbolTableRecord
100
AcDbLayerTableRecord
  2
0
 70
     0
 62
     7
  6
Continuous
370
    -3
390
F
  0
ENDTAB
  0
TABLE
  2
STYLE
  5
3
330
0
100
AcDbSymbolTable
 70
     1
  0
STYLE
  5
11
330
3
100
AcDbSymbolTableRecord
100
AcDbTextStyleTableRecord
  2
Standard
 70
     0
 40
0.0
 41
1.0
 50
0.0
 71
     0
 42
3.5
  3
txt
  4

  0
ENDTAB
  0
TABLE
  2
VIEW
  5
6
330
0
100
AcDbSymbolTable
 70
     0
  0
ENDTAB
  0
TABLE
  2
UCS
  5
7
330
0
100
AcDbSymbolTable
 70
     0
  0
ENDTAB
  0
TABLE
  2
APPID
  5
9
330
0
100
AcDbSymbolTable
 70
     1
  0
APPID
  5
12
330
9
100
AcDbSymbolTableRecord
100
AcDbRegAppTableRecord
  2
ACAD
 70
     0
  0
ENDTAB
  0
TABLE
  2
DIMSTYLE
  5
A
330
0
100
AcDbSymbolTable
 70
     1
100
AcDbDimStyleTable
  0
DIMSTYLE
105
27
330
A
100
AcDbSymbolTableRecord
100
AcDbDimStyleTableRecord
  2
ISO-25
 70
     0
 41
2.5
 42
0.625
 43
3.75
 44
1.25
 73
     0
 74
     0
 77
     1
 78
     8
140
2.5
141
2.5
143
0.0393700787
147
0.625
171
     3
172
     1
178
     0
271
     2
272
     2
274
     3
278
    44
283
     0
284
     8
340
11
  0
ENDTAB
  0
TABLE
  2
BLOCK_RECORD
  5
1
330
0
100
AcDbSymbolTable
 70
     1
  0
BLOCK_RECORD
  5
1F
330
1
100
AcDbSymbolTableRecord
100
AcDbBlockTableRecord
  2
*Model_Space
340
22
  0
BLOCK_RECORD
  5
1B
330
1
100
AcDbSymbolTableRecord
100
AcDbBlockTableRecord
  2
*Paper_Space
340
1E
  0
BLOCK_RECORD
  5
23
330
1
100
AcDbSymbolTableRecord
100
AcDbBlockTableRecord
  2
*Paper_Space0
340
26
  0
ENDTAB
  0
ENDSEC
  0
SECTION
  2
BLOCKS
  0
BLOCK
  5
20
330
1F
100
AcDbEntity
  8
0
100
AcDbBlockBegin
  2
*Model_Space
 70
     0
 10
0.0
 20
0.0
 30
0.0
  3
*Model_Space
  1

  0
ENDBLK
  5
21
330
1F
100
AcDbEntity
  8
0
100
AcDbBlockEnd
  0
BLOCK
  5
1C
330
1B
100
AcDbEntity
 67
     1
  8
0
100
AcDbBlockBegin
  2
*Paper_Space
 70
     0
 10
0.0
 20
0.0
 30
0.0
  3
*Paper_Space
  1

  0
ENDBLK
  5
1D
330
1B
100
AcDbEntity
 67
     1
  8
0
100
AcDbBlockEnd
  0
BLOCK
  5
24
330
23
100
AcDbEntity
  8
0
100
AcDbBlockBegin
  2
*Paper_Space0
 70
     0
 10
0.0
 20
0.0
 30
0.0
  3
*Paper_Space0
  1

  0
ENDBLK
  5
25
330
23
100
AcDbEntity
  8
0
100
AcDbBlockEnd
  0
ENDSEC
  0
SECTION
  2
ENTITIES
  0
LINE
  5
73
330
1F
100
AcDbEntity
  8
0
  6
Continuous
 62
     7
370
    25
100
AcDbLine
 10
348.1376701967
 20
102.0466608409
 30
0.0
 11
638.1376701967
 21
102.0466608409
 31
0.0
  0
LINE
  5
74
330
1F
100
AcDbEntity
  8
0
  6
Continuous
 62
     7
370
    25
100
AcDbLine
 10
663.0631727446
 20
126.9721633888
 30
0.0
 11
663.0631727446
 21
461.9721633888
 31
0.0
  0
ARC
  5
75
330
1F
100
AcDbEntity
  8
0
  6
Continuous
 62
     7
370
    25
100
AcDbCircle
 10
638.1376701967
 20
126.9721633888
 30
0.0
 40
24.92550254794045
100
AcDbArc
 50
270.0
 51
0.0
  0
ARC
  5
76
330
1F
100
AcDbEntity
  8
0
  6
Continuous
 62
     7
370
    25
100
AcDbCircle
 10
348.1376701967
 20
461.9721633888
 30
0.0
 40
24.92550254794043
100
AcDbArc
 50
90.0
 51
180.0
  0
LINE
  5
77
330
1F
100
AcDbEntity
  8
0
  6
Continuous
 62
     7
370
    25
100
AcDbLine
 10
323.2121676487
 20
461.9721633888
 30
0.0
 11
323.2121676487
 21
126.9721633888
 31
0.0
  0
LINE
  5
78
330
1F
100
AcDbEntity
  8
0
  6
Continuous
 62
     7
370
    25
100
AcDbLine
 10
638.1376701967
 20
486.8976659367
 30
0.0
 11
348.1376701967
 21
486.8976659367
 31
0.0
  0
ARC
  5
79
330
1F
100
AcDbEntity
  8
0
  6
Continuous
 62
     7
370
    25
100
AcDbCircle
 10
348.1376701967
 20
126.9721633888
 30
0.0
 40
24.92550254794048
100
AcDbArc
 50
180.0
 51
270.0
  0
ARC
  5
7A
330
1F
100
AcDbEntity
  8
0
  6
Continuous
 62
     7
370
    25
100
AcDbCircle
 10
638.1376701967
 20
461.9721633888
 30
0.0
 40
24.92550254794048
100
AcDbArc
 50
0.0
 51
90.0
  0
SPLINE
  5
7B
330
1F
100
AcDbEntity
  8
0
  6
Continuous
 62
     7
370
    25
100
AcDbSpline
210
0.0
220
0.0
230
1.0
 70
     8
 71
     3
 72
    15
 73
    11
 74
     0
 42
0.00000001
 43
0.00000001
 40
0.0
 40
0.0
 40
0.0
 40
0.0
 40
0.1277272255720583
 40
0.2500006214609079
 40
0.3758169317197229
 40
0.5000000007328164
 40
0.6241812956716677
 40
0.749999379718506
 40
0.8722718134135469
 40
1.0
 40
1.0
 40
1.0
 40
1.0
 10
348.1376701966718
 20
109.4182173973999
 30
0.0
 10
346.9654753386037
 20
109.4890692503849
 30
0.0
 10
344.6711372154837
 20
109.627747650378
 30
0.0
 10
341.3575605195234
 20
110.6843762873135
 30
0.0
 10
338.3286532554363
 20
112.298805750104
 30
0.0
 10
335.6611187999794
 20
114.4955890488674
 30
0.0
 10
333.4643219712332
 20
117.16313241573
 30
0.0
 10
331.8498921627149
 20
120.1920303503881
 30
0.0
 10
330.7932563735735
 20
123.5056214733994
 30
0.0
 10
330.6545770589617
 20
125.7999596687549
 30
0.0
 10
330.5837242052669
 20
126.9721633888048
 30
0.0
  0
LINE
  5
7C
330
1F
100
AcDbEntity
  8
0
  6
Continuous
 62
     7
370
    25
100
AcDbLine
 10
348.1376701967
 20
102.0466608409
 30
0.0
 11
348.1376701967
 21
109.4182173974
 31
0.0
  0
LINE
  5
7D
330
1F
100
AcDbEntity
  8
0
  6
Continuous
 62
     7
370
    25
100
AcDbLine
 10
323.2121676487
 20
126.9721633888
 30
0.0
 11
330.5837242053
 21
126.9721633888
 31
0.0
  0
SPLINE
  5
7E
330
1F
100
AcDbEntity
  8
0
  6
Continuous
 62
     7
370
    25
100
AcDbSpline
210
0.0
220
0.0
230
1.0
 70
     8
 71
     3
 72
    15
 73
    11
 74
     0
 42
0.00000001
 43
0.00000001
 40
0.0
 40
0.0
 40
0.0
 40
0.0
 40
0.1203969716547336
 40
0.2407933190589452
 40
0.3612955072028615
 40
0.4817982483628453
 40
0.6113057324163225
 40
0.7408138661147203
 40
0.8704068237473348
 40
1.0
 40
1.0
 40
1.0
 40
1.0
 10
655.2111737695003
 20
461.970265398195
 30
0.0
 10
655.1922506640595
 20
448.5187711734148
 30
0.0
 10
655.1544045512932
 20
421.615852468983
 30
0.0
 10
655.1360403410356
 20
381.2350387004444
 30
0.0
 10
655.1487329835295
 20
340.842539222443
 30
0.0
 10
655.1944825147302
 20
299.4400832558396
 30
0.0
 10
655.2725646677922
 20
257.0481137119576
 30
0.0
 10
655.3834163267818
 20
213.6661117492526
 30
0.0
 10
655.5204381222932
 20
170.3011997594796
 30
0.0
 10
655.6345568007296
 20
141.4151836340197
 30
0.0
 10
655.6916161880766
 20
126.9721633888048
 30
0.0
  0
LINE
  5
7F
330
1F
100
AcDbEntity
  8
0
  6
Continuous
 62
     7
370
    25
100
AcDbLine
 10
655.2201177641
 20
461.9721633888
 30
0.0
 11
655.2111737695
 21
461.9702653982
 31
0.0
  0
LINE
  5
80
330
1F
100
AcDbEntity
  8
0
  6
Continuous
 62
     7
370
    25
100
AcDbLine
 10
663.0631727446
 20
461.9721633888
 30
0.0
 11
655.2201177641
 21
461.9721633888
 31
0.0
  0
LINE
  5
81
330
1F
100
AcDbEntity
  8
0
  6
Continuous
 62
     7
370
    25
100
AcDbLine
 10
663.0631727446
 20
126.9721633888
 30
0.0
 11
655.6916161881
 21
126.9721633888
 31
0.0
  0
LINE
  5
82
330
1F
100
AcDbEntity
  8
0
  6
Continuous
 62
     7
370
    25
100
AcDbLine
 10
331.0641666239
 20
461.9702653889
 30
0.0
 11
331.0552226292
 21
461.9721633888
 31
0.0
  0
SPLINE
  5
83
330
1F
100
AcDbEntity
  8
0
  6
Continuous
 62
     7
370
    25
100
AcDbSpline
210
0.0
220
0.0
230
1.0
 70
     8
 71
     3
 72
    14
 73
    10
 74
     0
 42
0.00000001
 43
0.00000001
 40
0.0
 40
0.0
 40
0.0
 40
0.0
 40
0.1421653558241425
 40
0.2843364374989546
 40
0.426500124123032
 40
0.5689494416617653
 40
0.7114078093302308
 40
0.8538541196898948
 40
1.0
 40
1.0
 40
1.0
 40
1.0
 10
330.5837242052669
 20
126.9721633888048
 30
0.0
 10
330.6460983689779
 20
142.8166423212372
 30
0.0
 10
330.7708492085812
 20
174.5062383382013
 30
0.0
 10
330.9167651843705
 20
222.0942784079532
 30
0.0
 10
331.0305147741705
 20
269.7452520825159
 30
0.0
 10
331.1061053354903
 20
317.4570924128199
 30
0.0
 10
331.1393254903873
 20
365.2176393806283
 30
0.0
 10
331.1307241983787
 20
413.3973742173033
 30
0.0
 10
331.0865412810805
 20
445.6415184643598
 30
0.0
 10
331.0641666238584
 20
461.9702653888543
 30
0.0
  0
LINE
  5
84
330
1F
100
AcDbEntity
  8
0
  6
Continuous
 62
     7
370
    25
100
AcDbLine
 10
323.2121676487
 20
461.9721633888
 30
0.0
 11
331.0552226292
 21
461.9721633888
 31
0.0
  0
LINE
  5
85
330
1F
100
AcDbEntity
  8
0
  6
Continuous
 62
     7
370
    25
100
AcDbLine
 10
468.8876701967
 20
485.2489757282
 30
0.0
 11
468.8876701967
 21
484.0975846908
 31
0.0
  0
ARC
  5
86
330
1F
100
AcDbEntity
  8
0
  6
Continuous
 62
     7
370
    25
100
AcDbCircle
 10
469.6383549598
 20
488.8613313541
 30
0.0
 40
4.822531481010635
100
AcDbArc
 50
261.0448095014
 51
272.9633983002
  0
LINE
  5
87
330
1F
100
AcDbEntity
  8
0
  6
Continuous
 62
     7
370
    25
100
AcDbLine
 10
469.8876701967
 20
484.0452487346
 30
0.0
 11
516.3876701967
 21
484.0452487346
 31
0.0
  0
ARC
  5
88
330
1F
100
AcDbEntity
  8
0
  6
Continuous
 62
     7
370
    25
100
AcDbCircle
 10
516.6369854336
 20
488.8613313541
 30
0.0
 40
4.822531481000054
100
AcDbArc
 50
267.0366016998
 51
278.9551904986
  0
LINE
  5
89
330
1F
100
AcDbEntity
  8
0
  6
Continuous
 62
     7
370
    25
100
AcDbLine
 10
517.3876701967
 20
484.0975846908
 30
0.0
 11
517.3876701967
 21
485.2489757282
 31
0.0
  0
ARC
  5
8A
330
1F
100
AcDbEntity
  8
0
  6
Continuous
 62
     7
370
    25
100
AcDbCircle
 10
516.6369854336
 20
480.4852290649
 30
0.0
 40
4.822531481016638
100
AcDbArc
 50
81.0448095014
 51
92.9633983002
  0
LINE
  5
8B
330
1F
100
AcDbEntity
  8
0
  6
Continuous
 62
     7
370
    25
100
AcDbLine
 10
516.3876701967
 20
485.3013116844
 30
0.0
 11
469.8876701967
 21
485.3013116844
 31
0.0
  0
ARC
  5
8C
330
1F
100
AcDbEntity
  8
0
  6
Continuous
 62
     7
370
    25
100
AcDbCircle
 10
469.6383549598
 20
480.4852290649
 30
0.0
 40
4.822531481010016
100
AcDbArc
 50
87.0366016998
 51
98.9551904986
  0
SPLINE
  5
8D
330
1F
100
AcDbEntity
  8
0
  6
Continuous
 62
     7
370
    25
100
AcDbSpline
210
0.0
220
0.0
230
1.0
 70
     8
 71
     3
 72
    14
 73
    10
 74
     0
 42
0.00000001
 43
0.00000001
 40
0.0
 40
0.0
 40
0.0
 40
0.0
 40
0.1416418592737024
 40
0.2832827544648179
 40
0.4250451509087887
 40
0.5668053210537427
 40
0.6750778940077848
 40
0.7833514471234173
 40
1.0
 40
1.0
 40
1.0
 40
1.0
 10
348.1376701966716
 20
479.0546109562468
 30
0.0
 10
361.8205468799092
 20
479.0195345355958
 30
0.0
 10
389.1862071141477
 20
478.9493819330405
 30
0.0
 10
430.2736490307968
 20
478.8771049085275
 30
0.0
 10
471.3877413595557
 20
478.8349587506562
 30
0.0
 10
509.2836220487022
 20
478.8330540741421
 30
0.0
 10
543.933803613668
 20
478.8633677329162
 30
0.0
 10
585.8159879803178
 20
478.9246014433981
 30
0.0
 10
617.2070371377864
 20
479.0026022804488
 30
0.0
 10
638.1376701966717
 20
479.0546109562468
 30
0.0
  0
LINE
  5
8E
330
1F
100
AcDbEntity
  8
0
  6
Continuous
 62
     7
370
    25
100
AcDbLine
 10
348.1376701967
 20
486.8976659367
 30
0.0
 11
348.1376701967
 21
479.0546109562
 31
0.0
  0
LINE
  5
8F
330
1F
100
AcDbEntity
  8
0
  6
Continuous
 62
     7
370
    25
100
AcDbLine
 10
638.1376701967
 20
486.8976659367
 30
0.0
 11
638.1376701967
 21
479.0546109562
 31
0.0
  0
SPLINE
  5
90
330
1F
100
AcDbEntity
  8
0
  6
Continuous
 62
     7
370
    25
100
AcDbSpline
210
0.0
220
0.0
230
1.0
 70
     8
 71
     3
 72
    15
 73
    11
 74
     0
 42
0.00000001
 43
0.00000001
 40
0.0
 40
0.0
 40
0.0
 40
0.0
 40
0.1277272124220034
 40
0.2500006214662501
 40
0.3758169059605613
 40
0.5000000007414154
 40
0.6241812686443756
 40
0.7499993797240051
 40
0.8722717988525023
 40
0.9999999999999999
 40
0.9999999999999999
 40
0.9999999999999999
 40
0.9999999999999999
 10
331.0552226292298
 20
461.9721633888047
 30
0.0
 10
331.1241713903914
 20
463.1128730127284
 30
0.0
 10
331.2591248808252
 20
465.3455852866894
 30
0.0
 10
332.287372407337
 20
468.570159214355
 30
0.0
 10
333.8584383382687
 20
471.5177102523504
 30
0.0
 10
335.9962159099466
 20
474.1135946834982
 30
0.0
 10
338.5921092712326
 20
476.2513858137157
 30
0.0
 10
341.539650967291
 20
477.8224520951582
 30
0.0
 10
344.7642393536245
 20
478.8507067869825
 30
0.0
 10
346.9969517001214
 20
478.9856611931643
 30
0.0
 10
348.1376701966716
 20
479.0546109562468
 30
0.0
  0
SPLINE
  5
91
330
1F
100
AcDbEntity
  8
0
  6
Continuous
 62
     7
370
    25
100
AcDbSpline
210
0.0
220
0.0
230
1.0
 70
     8
 71
     3
 72
    15
 73
    11
 74
     0
 42
0.00000001
 43
0.00000001
 40
0.0
 40
0.0
 40
0.0
 40
0.0
 40
0.1277272117026988
 40
0.2500006214663409
 40
0.3758169053141806
 40
0.5000000007414309
 40
0.6241812692474746
 40
0.7499993797239388
 40
0.8722717995237487
 40
1.0
 40
1.0
 40
1.0
 40
1.0
 10
638.1376701966717
 20
479.0546109562468
 30
0.0
 10
639.278379814143
 20
478.9856621958101
 30
0.0
 10
641.5110920880492
 20
478.8507087060349
 30
0.0
 10
644.7356660110248
 20
477.8224611829284
 30
0.0
 10
647.6832170552183
 20
476.2513952505187
 30
0.0
 10
650.2791014918805
 20
474.1136176765904
 30
0.0
 10
652.4168926246712
 20
471.5177243095798
 30
0.0
 10
653.9879589074942
 20
468.570182607737
 30
0.0
 10
655.0162135961406
 20
465.3455942257792
 30
0.0
 10
655.1511680017077
 20
463.1128818793337
 30
0.0
 10
655.2201177641138
 20
461.9721633888049
 30
0.0
  0
SPLINE
  5
92
330
1F
100
AcDbEntity
  8
0
  6
Continuous
 62
     7
370
    25
100
AcDbSpline
210
0.0
220
0.0
230
1.0
 70
     8
 71
     3
 72
    15
 73
    11
 74
     0
 42
0.00000001
 43
0.00000001
 40
0.0
 40
0.0
 40
0.0
 40
0.0
 40
0.1277272255748723
 40
0.250000621460906
 40
0.3758169311157544
 40
0.5000000007328538
 40
0.6241812950806367
 40
0.7499993797184954
 40
0.8722718134307325
 40
1.0
 40
1.0
 40
1.0
 40
1.0
 10
655.6916161880766
 20
126.9721633888048
 30
0.0
 10
655.6207643350922
 20
125.7999685307121
 30
0.0
 10
655.482085935103
 20
123.5056304075946
 30
0.0
 10
654.4254572998116
 20
120.1920537169438
 30
0.0
 10
652.8110278385961
 20
117.1631464523354
 30
0.0
 10
650.6142445443517
 20
114.4956119998381
 30
0.0
 10
647.94670117441
 20
112.2988151665215
 30
0.0
 10
644.9178032401454
 20
110.6843853563986
 30
0.0
 10
641.6042121119215
 20
109.6277495656824
 30
0.0
 10
639.3098739165648
 20
109.4890702510803
 30
0.0
 10
638.1376701966719
 20
109.4182173974
 30
0.0
  0
LINE
  5
93
330
1F
100
AcDbEntity
  8
0
  6
Continuous
 62
     7
370
    25
100
AcDbLine
 10
638.1376701967
 20
102.0466608409
 30
0.0
 11
638.1376701967
 21
109.4182173974
 31
0.0
  0
LINE
  5
94
330
1F
100
AcDbEntity
  8
0
  6
Continuous
 62
     7
370
    25
100
AcDbLine
 10
348.1418464659
 20
109.4311049407
 30
0.0
 11
348.1376701967
 21
109.4182173974
 31
0.0
  0
SPLINE
  5
95
330
1F
100
AcDbEntity
  8
0
  6
Continuous
 62
     7
370
    25
100
AcDbSpline
210
0.0
220
0.0
230
1.0
 70
     8
 71
     3
 72
    13
 73
     9
 74
     0
 42
0.00000001
 43
0.00000001
 40
0.0
 40
0.0
 40
0.0
 40
0.0
 40
0.1664861396825429
 40
0.3329812993316089
 40
0.4994660550566638
 40
0.6663067480585368
 40
0.8331579135514222
 40
1.0
 40
1.0
 40
1.0
 40
1.0
 10
638.1334939210384
 20
109.4311049406698
 30
0.0
 10
622.0483441985893
 20
109.466187099403
 30
0.0
 10
589.8771732846773
 20
109.5363533175672
 30
0.0
 10
541.5897115495669
 20
109.5937172799752
 30
0.0
 10
493.2581573093668
 20
109.6147581025539
 30
0.0
 10
444.8921366648919
 20
109.5939126426373
 30
0.0
 10
396.5013653959771
 20
109.536554933161
 30
0.0
 10
364.2613937168521
 20
109.4662543005826
 30
0.0
 10
348.1418464659181
 20
109.4311049406545
 30
0.0
  0
LINE
  5
96
330
1F
100
AcDbEntity
  8
0
  6
Continuous
 62
     7
370
    25
100
AcDbLine
 10
638.1376701967
 20
109.4182173974
 30
0.0
 11
638.133493921
 21
109.4311049407
 31
0.0
  0
LINE
  5
97
330
1F
100
AcDbEntity
  8
0
  6
Continuous
 62
     7
370
    25
100
AcDbLine
 10
469.8876701967
 20
484.0452487346
 30
0.0
 11
469.8876701967
 21
484.8441523624
 31
0.0
  0
ARC
  5
98
330
1F
100
AcDbEntity
  8
0
  6
Continuous
 62
     7
370
    25
100
AcDbCircle
 10
469.6383549598
 20
489.6602349819
 30
0.0
 40
4.822531481010692
100
AcDbArc
 50
261.0448095014
 51
272.9633983002
  0
LINE
  5
99
330
1F
100
AcDbEntity
  8
0
  6
Continuous
 62
     7
370
    25
100
AcDbLine
 10
516.3876701967
 20
484.0452487346
 30
0.0
 11
516.3876701967
 21
484.8441523624
 31
0.0
  0
ARC
  5
9A
330
1F
100
AcDbEntity
  8
0
  6
Continuous
 62
     7
370
    25
100
AcDbCircle
 10
516.6369854336
 20
489.6602349819
 30
0.0
 40
4.822531481000111
100
AcDbArc
 50
267.0366016998
 51
278.9551904986
  0
LINE
  5
9B
330
1F
100
AcDbEntity
  8
0
  6
Continuous
 62
     7
370
    25
100
AcDbLine
 10
469.8876701967
 20
484.8441523624
 30
0.0
 11
516.3876701967
 21
484.8441523624
 31
0.0
  0
LINE
  5
9C
330
1F
100
AcDbEntity
  8
0
  6
Continuous
 62
     7
370
    25
100
AcDbLine
 10
330.5837242053
 20
126.9721633888
 30
0.0
 11
330.6405432574
 21
126.9266589018
 31
0.0
  0
SPLINE
  5
9D
330
1F
100
AcDbEntity
  8
0
  6
Continuous
 62
     7
370
    25
100
AcDbSpline
210
0.0
220
0.0
230
1.0
 70
     8
 71
     3
 72
    20
 73
    16
 74
     0
 42
0.00000001
 43
0.00000001
 40
0.0
 40
0.0
 40
0.0
 40
0.0
 40
0.1238994817808226
 40
0.2498468348127866
 40
0.3327161568940994
 40
0.415849342686521
 40
0.5003138827337014
 40
0.5610643330988695
 40
0.6244975982562697
 40
0.6852560657042471
 40
0.7501883124678862
 40
0.8087829264722691
 40
0.8744877433555923
 40
0.9261458689734473
 40
1.0
 40
1.0
 40
1.0
 40
1.0
 10
331.0641666238584
 20
461.9702653888542
 30
0.0
 10
331.2301512453022
 20
461.9641168495476
 30
0.0
 10
331.5648639632188
 20
461.9517181448688
 30
0.0
 10
332.9874726546776
 20
461.6068561691043
 30
0.0
 10
334.6924362387311
 20
461.1413039721601
 30
0.0
 10
336.4810518083864
 20
460.6244998880863
 30
0.0
 10
338.3700916111374
 20
460.0572235311294
 30
0.0
 10
340.2744970355595
 20
459.4706393191141
 30
0.0
 10
342.0829816126558
 20
458.9041799773968
 30
0.0
 10
344.0384080634935
 20
458.2823107435271
 30
0.0
 10
346.0335069323864
 20
457.6408286130508
 30
0.0
 10
348.1548247744748
 20
456.9514959164957
 30
0.0
 10
350.182926908694
 20
456.2885485322348
 30
0.0
 10
352.4250371391094
 20
455.5503347664781
 30
0.0
 10
353.9191513827459
 20
455.0572927143874
 30
0.0
 10
354.7983205736145
 20
454.7671760892048
 30
0.0
  0
SPLINE
  5
9E
330
1F
100
AcDbEntity
  8
0
  6
Continuous
 62
     7
370
    25
100
AcDbSpline
210
0.0
220
0.0
230
1.0
 70
     8
 71
     3
 72
    14
 73
    10
 74
     0
 42
0.00000001
 43
0.00000001
 40
0.0
 40
0.0
 40
0.0
 40
0.0
 40
0.1285392505246245
 40
0.2736230611079025
 40
0.4187183190146122
 40
0.5638047450221954
 40
0.7092001461728284
 40
0.8546029035485716
 40
1.0
 40
1.0
 40
1.0
 40
1.0
 10
354.7983205736145
 20
454.7671760892049
 30
0.0
 10
354.7996538456093
 20
440.9516786785538
 30
0.0
 10
354.8024919978702
 20
411.5424618299895
 30
0.0
 10
354.8036964383444
 20
366.523083968926
 30
0.0
 10
354.8069407182207
 20
319.7296487546219
 30
0.0
 10
354.7920067759623
 20
272.9182915118895
 30
0.0
 10
354.7380982609635
 20
226.1006259251541
 30
0.0
 10
354.6440057025481
 20
179.2789212824955
 30
0.0
 10
354.5471349964541
 20
148.0980997025464
 30
0.0
 10
354.4987005862853
 20
132.5079924070007
 30
0.0
  0
SPLINE
  5
9F
330
1F
100
AcDbEntity
  8
0
  6
Continuous
 62
     7
370
    25
100
AcDbSpline
210
0.0
220
0.0
230
1.0
 70
     8
 71
     3
 72
    17
 73
    13
 74
     0
 42
0.00000001
 43
0.00000001
 40
0.0
 40
0.0
 40
0.0
 40
0.0
 40
0.1266199350159332
 40
0.2500906723957796
 40
0.3749952093690982
 40
0.5003472215493808
 40
0.6244895802648516
 40
0.7500856353975317
 40
0.8087095798011514
 40
0.8744284842896031
 40
0.9260769690972782
 40
1.0
 40
1.0
 40
1.0
 40
1.0
 10
330.6405432573527
 20
126.9266589017812
 30
0.0
 10
330.8578464054473
 20
126.8674276838661
 30
0.0
 10
331.2870480980076
 20
126.7504384032024
 30
0.0
 10
332.9785556500484
 20
126.9207567772697
 30
0.0
 10
335.3391427947242
 20
127.3340437692504
 30
0.0
 10
338.3638259154449
 20
128.0014204969409
 30
0.0
 10
341.9148051581976
 20
128.888278573397
 30
0.0
 10
345.1697631851762
 20
129.771024654273
 30
0.0
 10
347.9400479410415
 20
130.5569954158737
 30
0.0
 10
349.9437610926416
 20
131.1393411143927
 30
0.0
 10
352.1573835685191
 20
131.7967498584804
 30
0.0
 10
353.6311217316461
 20
132.2444403160528
 30
0.0
 10
354.4987005862854
 20
132.5079924070088
 30
0.0
  0
SPLINE
  5
A0
330
1F
100
AcDbEntity
  8
0
  6
Continuous
 62
     7
370
    25
100
AcDbSpline
210
0.0
220
0.0
230
1.0
 70
     8
 71
     3
 72
    20
 73
    16
 74
     0
 42
0.00000001
 43
0.00000001
 40
0.0
 40
0.0
 40
0.0
 40
0.0
 40
0.1265688428652104
 40
0.2499873607253526
 40
0.3327598806448897
 40
0.4158800365020201
 40
0.5003308538271424
 40
0.5611043053137735
 40
0.6245378460982874
 40
0.6852967388849937
 40
0.7501963666869372
 40
0.8087939128917631
 40
0.8744838204705034
 40
0.9261733936587779
 40
1.0
 40
1.0
 40
1.0
 40
1.0
 10
348.1418464659184
 20
109.4311049406545
 30
0.0
 10
348.1335128322291
 20
109.5969934260312
 30
0.0
 10
348.1170529907383
 20
109.924641397643
 30
0.0
 10
348.396068812685
 20
111.3016052188898
 30
0.0
 10
348.7844870123097
 20
112.9299897070302
 30
0.0
 10
349.229441498155
 20
114.6550419208077
 30
0.0
 10
349.7252061053672
 20
116.4811379242975
 30
0.0
 10
350.2430181731842
 20
118.3258602841978
 30
0.0
 10
350.7466336047847
 20
120.0809332019651
 30
0.0
 10
351.3028082400904
 20
121.9816637007407
 30
0.0
 10
351.8798066064472
 20
123.9247930456049
 30
0.0
 10
352.503040753486
 20
125.9948724864482
 30
0.0
 10
353.1056761106776
 20
127.9788230591259
 30
0.0
 10
353.7794502145111
 20
130.175890734442
 30
0.0
 10
354.2323261909152
 20
131.6442984871246
 30
0.0
 10
354.4987005862857
 20
132.5079924070006
 30
0.0
  0
SPLINE
  5
A1
330
1F
100
AcDbEntity
  8
0
  6
Continuous
 62
     7
370
    25
100
AcDbSpline
210
0.0
220
0.0
230
1.0
 70
     8
 71
     3
 72
    13
 73
     9
 74
     0
 42
0.00000001
 43
0.00000001
 40
0.0
 40
0.0
 40
0.0
 40
0.0
 40
0.1532153516038963
 40
0.3335117285126598
 40
0.5138077669700618
 40
0.6942879125043371
 40
0.8747684420969075
 40
1.0
 40
1.0
 40
1.0
 40
1.0
 10
354.4987005862853
 20
132.5079924070007
 30
0.0
 10
368.6531757200779
 20
132.5282807692995
 30
0.0
 10
399.463949044313
 20
132.5724434899935
 30
0.0
 10
446.9592378897686
 20
132.6050260207491
 30
0.0
 10
496.984712210164
 20
132.6152151635163
 30
0.0
 10
547.0262413698954
 20
132.6013228321582
 30
0.0
 10
591.9660438021839
 20
132.5662968910075
 30
0.0
 10
620.2077420823268
 20
132.5249356000212
 30
0.0
 10
631.7766398070581
 20
132.5079924070007
 30
0.0
  0
SPLINE
  5
A2
330
1F
100
AcDbEntity
  8
0
  6
Continuous
 62
     7
370
    25
100
AcDbSpline
210
0.0
220
0.0
230
1.0
 70
     8
 71
     3
 72
    17
 73
    13
 74
     0
 42
0.00000001
 43
0.00000001
 40
0.0
 40
0.0
 40
0.0
 40
0.0
 40
0.1266242002821659
 40
0.2500966973960826
 40
0.3750011391746845
 40
0.5003518892706035
 40
0.6244925771319285
 40
0.7500871058679404
 40
0.808709113510102
 40
0.8744289188915417
 40
0.9261485744346063
 40
1.0
 40
1.0
 40
1.0
 40
1.0
 10
638.1334939210384
 20
109.4311049406698
 30
0.0
 10
638.1417591282457
 20
109.59722619956
 30
0.0
 10
638.1580838199021
 20
109.9253339240168
 30
0.0
 10
637.8447845043424
 20
111.4730187654856
 30
0.0
 10
637.3010051977503
 20
113.7022385316637
 30
0.0
 10
636.519350961948
 20
116.611778413998
 30
0.0
 10
635.5376579740089
 20
120.0671277427781
 30
0.0
 10
634.5950959151816
 20
123.2616779455971
 30
0.0
 10
633.7723464280964
 20
125.994772904782
 30
0.0
 10
633.1696332667201
 20
127.9789119491011
 30
0.0
 10
632.495868050699
 20
130.1759721539995
 30
0.0
 10
632.0429890370707
 20
131.6443836649183
 30
0.0
 10
631.7766398070581
 20
132.5079924070007
 30
0.0
  0
SPLINE
  5
A3
330
1F
100
AcDbEntity
  8
0
  6
Continuous
 62
     7
370
    25
100
AcDbSpline
210
0.0
220
0.0
230
1.0
 70
     8
 71
     3
 72
    19
 73
    15
 74
     0
 42
0.00000001
 43
0.00000001
 40
0.0
 40
0.0
 40
0.0
 40
0.0
 40
0.0609285033155425
 40
0.1075851967377218
 40
0.1526973776839496
 40
0.2035645507327379
 40
0.2498915470303158
 40
0.3355022901934831
 40
0.4181341588158005
 40
0.4997559269722089
 40
0.6250820973863704
 40
0.7499608846711026
 40
0.8734061679748583
 40
1.0
 40
1.0
 40
1.0
 40
1.0
 10
631.7766398070581
 20
132.5079924070006
 30
0.0
 10
632.4918867421692
 20
132.2904815076536
 30
0.0
 10
633.7548421414092
 20
131.9064091667058
 30
0.0
 10
635.5285260802019
 20
131.3773034291536
 30
0.0
 10
637.1663105629326
 20
130.8959350323125
 30
0.0
 10
638.7737142726995
 20
130.4323003520379
 30
0.0
 10
640.7937715045049
 20
129.860728241584
 30
0.0
 10
643.0822866680987
 20
129.2338026416031
 30
0.0
 10
645.5832376015392
 20
128.5812588352252
 30
0.0
 10
648.254093347902
 20
127.9258737900164
 30
0.0
 10
650.9364478129424
 20
127.3339758000847
 30
0.0
 10
653.2967190332779
 20
126.9207747120289
 30
0.0
 10
654.9883091314621
 20
126.7504338644852
 30
0.0
 10
655.4174996466628
 20
126.8674261624972
 30
0.0
 10
655.6347971359644
 20
126.9266589081548
 30
0.0
  0
SPLINE
  5
A4
330
1F
100
AcDbEntity
  8
0
  6
Continuous
 62
     7
370
    25
100
AcDbSpline
210
0.0
220
0.0
230
1.0
 70
     8
 71
     3
 72
    15
 73
    11
 74
     0
 42
0.00000001
 43
0.00000001
 40
0.0
 40
0.0
 40
0.0
 40
0.0
 40
0.1297941873541713
 40
0.2595881683953805
 40
0.3894568310387371
 40
0.5193249251085723
 40
0.6394460709200768
 40
0.7595667430326071
 40
0.8797831318606987
 40
1.0
 40
1.0
 40
1.0
 40
1.0
 10
631.7766398070581
 20
132.5079924070006
 30
0.0
 10
631.7329103400309
 20
146.4247553614113
 30
0.0
 10
631.6454514754859
 20
174.2582591489909
 30
0.0
 10
631.5547089184041
 20
216.0575440891213
 30
0.0
 10
631.4972789557072
 20
257.8890188427568
 30
0.0
 10
631.4734572006826
 20
298.7042395707996
 30
0.0
 10
631.472234154856
 20
338.4870168328372
 30
0.0
 10
631.476448468826
 20
377.240092213381
 30
0.0
 10
631.4713210454022
 20
416.0044099216151
 30
0.0
 10
631.475120225762
 20
441.8462368611785
 30
0.0
 10
631.4770198197289
 20
454.7671760892048
 30
0.0
  0
SPLINE
  5
A5
330
1F
100
AcDbEntity
  8
0
  6
Continuous
 62
     7
370
    25
100
AcDbSpline
210
0.0
220
0.0
230
1.0
 70
     8
 71
     3
 72
    19
 73
    15
 74
     0
 42
0.00000001
 43
0.00000001
 40
0.0
 40
0.0
 40
0.0
 40
0.0
 40
0.0608916764531275
 40
0.1075592781701917
 40
0.152703816905353
 40
0.2035793155923096
 40
0.249901434402062
 40
0.3355488354048972
 40
0.4181785294456941
 40
0.4997722410757724
 40
0.6250900273305249
 40
0.7500927226125487
 40
0.8760709826323865
 40
1.0
 40
1.0
 40
1.0
 40
1.0
 10
631.477019819729
 20
454.7671760892048
 30
0.0
 10
632.2017607997692
 20
455.0063839934725
 30
0.0
 10
633.4819458958967
 20
455.4289217032928
 30
0.0
 10
635.2787967374827
 20
456.0207936393243
 30
0.0
 10
636.9374821542815
 20
456.565005045856
 30
0.0
 10
638.5639199336781
 20
457.0957157318612
 30
0.0
 10
640.6058715930234
 20
457.7585674327967
 30
0.0
 10
642.9155166581455
 20
458.5000765743077
 30
0.0
 10
645.4324487197845
 20
459.2947381323123
 30
0.0
 10
648.1099655599161
 20
460.121920746393
 30
0.0
 10
650.7816548955925
 20
460.9178506458292
 30
0.0
 10
653.1106770948678
 20
461.5640557561422
 30
0.0
 10
654.7097818031418
 20
461.9515101646105
 30
0.0
 10
655.0449592671133
 20
461.9640479235912
 30
0.0
 10
655.2111737695001
 20
461.970265398195
 30
0.0
  0
LINE
  5
A6
330
1F
100
AcDbEntity
  8
0
  6
Continuous
 62
     7
370
    25
100
AcDbLine
 10
655.634797136
 20
126.9266589082
 30
0.0
 11
655.6916161881
 21
126.9721633888
 31
0.0
  0
SPLINE
  5
A7
330
1F
100
AcDbEntity
  8
0
  6
Continuous
 62
     7
370
    25
100
AcDbSpline
210
0.0
220
0.0
230
1.0
 70
     8
 71
     3
 72
    15
 73
    11
 74
     0
 42
0.00000001
 43
0.00000001
 40
0.0
 40
0.0
 40
0.0
 40
0.0
 40
0.1250485647648297
 40
0.2500560396443395
 40
0.3750352273637311
 40
0.4999999995579364
 40
0.6249647717823653
 40
0.7499439595730045
 40
0.8749514385700567
 40
1.0
 40
1.0
 40
1.0
 40
1.0
 10
638.133493921041
 20
109.4311049406699
 30
0.0
 10
639.2744100296295
 20
109.5007820602423
 30
0.0
 10
641.5558673515635
 20
109.6401134040833
 30
0.0
 10
644.8475855031024
 20
110.6875083095878
 30
0.0
 10
647.8833669683355
 20
112.3072541257742
 30
0.0
 10
650.5464784216324
 20
114.4986614394979
 30
0.0
 10
652.739830622783
 20
117.1621224062205
 30
0.0
 10
654.3637896460992
 20
120.2005863450661
 30
0.0
 10
655.4173640446448
 20
123.4970565583592
 30
0.0
 10
655.5623115009117
 20
125.7833329185625
 30
0.0
 10
655.6347971359644
 20
126.9266589081548
 30
0.0
  0
SPLINE
  5
A8
330
1F
100
AcDbEntity
  8
0
  6
Continuous
 62
     7
370
    25
100
AcDbSpline
210
0.0
220
0.0
230
1.0
 70
     8
 71
     3
 72
    15
 73
    11
 74
     0
 42
0.00000001
 43
0.00000001
 40
0.0
 40
0.0
 40
0.0
 40
0.0
 40
0.1250485637390563
 40
0.250056040433158
 40
0.3750352282041676
 40
0.5000000004149723
 40
0.6249647726227976
 40
0.7499439603618203
 40
0.8749514375442667
 40
1.0
 40
1.0
 40
1.0
 40
1.0
 10
348.141846465918
 20
109.4311049406547
 30
0.0
 10
347.0009303671563
 20
109.5007820591827
 30
0.0
 10
344.7194730389609
 20
109.6401134025179
 30
0.0
 10
341.4277548803148
 20
110.6875083098052
 30
0.0
 10
338.3919734030654
 20
112.3072541374506
 30
0.0
 10
335.7288619532417
 20
114.4986614542293
 30
0.0
 10
333.5355097567245
 20
117.1621224225062
 30
0.0
 10
331.9115507460526
 20
120.2005863471291
 30
0.0
 10
330.8579763500707
 20
123.4970565509085
 30
0.0
 10
330.7130288934203
 20
125.7833329031733
 30
0.0
 10
330.6405432573526
 20
126.9266589017812
 30
0.0
  0
LINE
  5
A9
330
1F
100
AcDbEntity
  8
0
  6
Continuous
 62
     7
370
    25
100
AcDbLine
 10
348.1184743605
 20
479.0205265475
 30
0.0
 11
348.1376701967
 21
479.0546109562
 31
0.0
  0
LINE
  5
AA
330
1F
100
AcDbEntity
  8
0
  6
Continuous
 62
     7
370
    25
100
AcDbLine
 10
638.1568660422
 20
479.0205265475
 30
0.0
 11
638.1376701967
 21
479.0546109562
 31
0.0
  0
SPLINE
  5
AB
330
1F
100
AcDbEntity
  8
0
  6
Continuous
 62
     7
370
    25
100
AcDbSpline
210
0.0
220
0.0
230
1.0
 70
     8
 71
     3
 72
    19
 73
    15
 74
     0
 42
0.00000001
 43
0.00000001
 40
0.0
 40
0.0
 40
0.0
 40
0.0
 40
0.0571951907011237
 40
0.1012386229203415
 40
0.152704477127895
 40
0.2035799468192274
 40
0.2499049111694466
 40
0.3355521358503269
 40
0.4181835141861061
 40
0.4997809440829017
 40
0.6251008314803014
 40
0.7501036376053276
 40
0.8760744652838678
 40
1.0
 40
1.0
 40
1.0
 40
1.0
 10
631.477019819729
 20
454.7671760892048
 30
0.0
 10
631.7002599979576
 20
455.4492492622393
 30
0.0
 10
632.0954073512104
 20
456.656556169034
 30
0.0
 10
632.6799637376723
 20
458.4626331888907
 30
0.0
 10
633.2290622472045
 20
460.1757414292181
 30
0.0
 10
633.7705908334939
 20
461.8866178412455
 30
0.0
 10
634.414643233232
 20
463.946765320373
 30
0.0
 10
635.1292819238665
 20
466.2826541602539
 30
0.0
 10
635.8858779894654
 20
468.8370708826573
 30
0.0
 10
636.6617897113105
 20
471.5653771303523
 30
0.0
 10
637.3893096871906
 20
474.3051797994619
 30
0.0
 10
637.9471067723919
 20
476.7225921453968
 30
0.0
 10
638.2385683594691
 20
478.4180523898318
 30
0.0
 10
638.1839511418885
 20
478.820800601217
 30
0.0
 10
638.1568660421752
 20
479.0205265474997
 30
0.0
  0
SPLINE
  5
AC
330
1F
100
AcDbEntity
  8
0
  6
Continuous
 62
     7
370
    25
100
AcDbSpline
210
0.0
220
0.0
230
1.0
 70
     8
 71
     3
 72
    14
 73
    10
 74
     0
 42
0.00000001
 43
0.00000001
 40
0.0
 40
0.0
 40
0.0
 40
0.0
 40
0.2145322134219049
 40
0.3218404806755492
 40
0.4291479606400775
 40
0.5717931378587127
 40
0.7144401314222913
 40
0.8572195843739367
 40
1.0
 40
1.0
 40
1.0
 40
1.0
 10
631.4770198197289
 20
454.7671760892048
 30
0.0
 10
611.702017622608
 20
454.7468726000029
 30
0.0
 10
582.0356280815417
 20
454.7164133760947
 30
0.0
 10
542.4512956998223
 20
454.75104095757
 30
0.0
 10
509.4906069392107
 20
454.7928352377004
 30
0.0
 10
473.2632079165792
 20
454.7855139485802
 30
0.0
 10
433.7703185710791
 20
454.7367475397126
 30
0.0
 10
394.2783104880062
 20
454.722746260417
 30
0.0
 10
367.9583467882117
 20
454.7523661129908
 30
0.0
 10
354.7983205736145
 20
454.7671760892048
 30
0.0
  0
SPLINE
  5
AD
330
1F
100
AcDbEntity
  8
0
  6
Continuous
 62
     7
370
    25
100
AcDbSpline
210
0.0
220
0.0
230
1.0
 70
     8
 71
     3
 72
    19
 73
    15
 74
     0
 42
0.00000001
 43
0.00000001
 40
0.0
 40
0.0
 40
0.0
 40
0.0
 40
0.0572170919384315
 40
0.1012397191517095
 40
0.1527050890721181
 40
0.20358086835067
 40
0.2499049067935504
 40
0.3355531512428717
 40
0.4181845737194114
 40
0.4997809419083351
 40
0.6251008305048592
 40
0.7501036373913962
 40
0.8760750143916398
 40
0.9999999999999999
 40
0.9999999999999999
 40
0.9999999999999999
 40
0.9999999999999999
 10
354.7983205736145
 20
454.7671760892048
 30
0.0
 10
354.5749956375808
 20
455.449510679771
 30
0.0
 10
354.1798452893603
 20
456.6568310796044
 30
0.0
 10
353.5952875412615
 20
458.4629096098298
 30
0.0
 10
353.0462687714223
 20
460.1757722915777
 30
0.0
 10
352.5047438586727
 20
461.8866353216301
 30
0.0
 10
351.8606908195996
 20
463.9467869592681
 30
0.0
 10
351.1460512368258
 20
466.2826765061673
 30
0.0
 10
350.3894572567166
 20
468.8370911903983
 30
0.0
 10
349.6135483043096
 20
471.565385857207
 30
0.0
 10
348.8860311023483
 20
474.3051798383092
 30
0.0
 10
348.3282323421152
 20
476.7225956706197
 30
0.0
 10
348.036774095751
 20
478.4180543323835
 30
0.0
 10
348.0913900214699
 20
478.820801836885
 30
0.0
 10
348.1184743605056
 20
479.0205265474737
 30
0.0
  0
SPLINE
  5
AE
330
1F
100
AcDbEntity
  8
0
  6
Continuous
 62
     7
370
    25
100
AcDbSpline
210
0.0
220
0.0
230
1.0
 70
     8
 71
     3
 72
    15
 73
    11
 74
     0
 42
0.00000001
 43
0.00000001
 40
0.0
 40
0.0
 40
0.0
 40
0.0
 40
0.1250258700962936
 40
0.2500298668122475
 40
0.375018780635731
 40
0.4999999995599277
 40
0.6249812185054348
 40
0.7499701323940466
 40
0.8749741324286378
 40
1.0
 40
1.0
 40
1.0
 40
1.0
 10
655.2111737695001
 20
461.9702653982
 30
0.0
 10
655.1438618709207
 20
463.083028467338
 30
0.0
 10
655.0092498500346
 20
465.3083599267861
 30
0.0
 10
653.9892065676753
 20
468.5190018790249
 30
0.0
 10
652.4104022959787
 20
471.479675580185
 30
0.0
 10
650.273552291363
 20
474.0759949875159
 30
0.0
 10
647.6760980597182
 20
476.2128564859693
 30
0.0
 10
644.7131631516372
 20
477.7928443123857
 30
0.0
 10
641.4992889663906
 20
478.8151152093848
 30
0.0
 10
639.2710719766424
 20
478.9520521093081
 30
0.0
 10
638.1568660421755
 20
479.0205265474997
 30
0.0
  0
SPLINE
  5
AF
330
1F
100
AcDbEntity
  8
0
  6
Continuous
 62
     7
370
    25
100
AcDbSpline
210
0.0
220
0.0
230
1.0
 70
     8
 71
     3
 72
    15
 73
    11
 74
     0
 42
0.00000001
 43
0.00000001
 40
0.0
 40
0.0
 40
0.0
 40
0.0
 40
0.1250258690640294
 40
0.2500298676061384
 40
0.3750187814816452
 40
0.5000000004225772
 40
0.624981219351348
 40
0.7499701331879424
 40
0.8749741313963783
 40
1.0
 40
1.0
 40
1.0
 40
1.0
 10
331.0641666238584
 20
461.9702653888543
 30
0.0
 10
331.1314785214795
 20
463.0830284493605
 30
0.0
 10
331.2660905419876
 20
465.308359916986
 30
0.0
 10
332.2861338270255
 20
468.5190018791337
 30
0.0
 10
333.8649381114093
 20
471.4796755947821
 30
0.0
 10
336.0017881209762
 20
474.0759950010647
 30
0.0
 10
338.599242356516
 20
476.2128564969108
 30
0.0
 10
341.5621772533425
 20
477.7928443123693
 30
0.0
 10
344.7760514321831
 20
478.8151152077995
 30
0.0
 10
347.0042684161784
 20
478.9520521082404
 30
0.0
 10
348.1184743605056
 20
479.0205265474737
 30
0.0
  0
CIRCLE
  5
B0
330
1F
100
AcDbEntity
  8
0
  6
Continuous
 62
     7
370
    25
100
AcDbCircle
 10
493.1376701967
 20
376.9721633888
 30
0.0
 40
70.0
  0
CIRCLE
  5
B1
330
1F
100
AcDbEntity
  8
0
  6
Continuous
 62
     7
370
    25
100
AcDbCircle
 10
493.1376701967
 20
376.9721633888
 30
0.0
 40
58.94765075494627
  0
CIRCLE
  5
B2
330
1F
100
AcDbEntity
  8
0
  6
Continuous
 62
     7
370
    25
100
AcDbCircle
 10
493.1376701967
 20
376.9721633888
 30
0.0
 40
57.5
  0
CIRCLE
  5
B3
330
1F
100
AcDbEntity
  8
0
  6
Continuous
 62
     7
370
    25
100
AcDbCircle
 10
493.1376701967
 20
376.9721633888
 30
0.0
 40
56.58715574274765
  0
CIRCLE
  5
B4
330
1F
100
AcDbEntity
  8
0
  6
Continuous
 62
     7
370
    25
100
AcDbCircle
 10
493.1376701967
 20
376.9721633888
 30
0.0
 40
45.0
  0
LINE
  5
B5
330
1F
100
AcDbEntity
  8
0
  6
Continuous
 62
     7
370
    25
100
AcDbLine
 10
146.1376701967
 20
102.0466608409
 30
0.0
 11
266.1376701967
 21
102.0466608409
 31
0.0
  0
ARC
  5
B6
330
1F
100
AcDbEntity
  8
0
  6
Continuous
 62
     7
370
    25
100
AcDbCircle
 10
266.1376701967
 20
126.9721633888
 30
0.0
 40
24.92550254794048
100
AcDbArc
 50
270.0
 51
0.0
  0
ARC
  5
B7
330
1F
100
AcDbEntity
  8
0
  6
Continuous
 62
     7
370
    25
100
AcDbCircle
 10
266.1376701967
 20
461.9721633888
 30
0.0
 40
24.92550254794048
100
AcDbArc
 50
0.0
 51
90.0
  0
LINE
  5
B8
330
1F
100
AcDbEntity
  8
0
  6
Continuous
 62
     7
370
    25
100
AcDbLine
 10
291.0631727446
 20
126.9721633888
 30
0.0
 11
291.0631727446
 21
461.9721633888
 31
0.0
  0
ARC
  5
B9
330
1F
100
AcDbEntity
  8
0
  6
Continuous
 62
     7
370
    25
100
AcDbCircle
 10
146.1376701967
 20
461.9721633888
 30
0.0
 40
24.92550254794048
100
AcDbArc
 50
90.0
 51
180.0
  0
LINE
  5
BA
330
1F
100
AcDbEntity
  8
0
  6
Continuous
 62
     7
370
    25
100
AcDbLine
 10
121.2121676487
 20
461.9721633888
 30
0.0
 11
121.2121676487
 21
126.9721633888
 31
0.0
  0
LINE
  5
BB
330
1F
100
AcDbEntity
  8
0
  6
Continuous
 62
     7
370
    25
100
AcDbLine
 10
266.1376701967
 20
486.8976659367
 30
0.0
 11
146.1376701967
 21
486.8976659367
 31
0.0
  0
ARC
  5
BC
330
1F
100
AcDbEntity
  8
0
  6
Continuous
 62
     7
370
    25
100
AcDbCircle
 10
146.1376701967
 20
126.9721633888
 30
0.0
 40
24.92550254794047
100
AcDbArc
 50
180.0
 51
270.0
  0
LINE
  5
BD
330
1F
100
AcDbEntity
  8
0
  6
Continuous
 62
     7
370
    25
100
AcDbLine
 10
291.0631727446
 20
461.9721633888
 30
0.0
 11
285.1470097351
 21
461.9721633888
 31
0.0
  0
SPLINE
  5
BE
330
1F
100
AcDbEntity
  8
0
  6
Continuous
 62
     7
370
    25
100
AcDbSpline
210
0.0
220
0.0
230
1.0
 70
     8
 71
     3
 72
    15
 73
    11
 74
     0
 42
0.00000001
 43
0.00000001
 40
0.0
 40
0.0
 40
0.0
 40
0.0
 40
0.1277272623577328
 40
0.2500006214467096
 40
0.3758169984179298
 40
0.5000000007106095
 40
0.6241813611010903
 40
0.7499993797044746
 40
0.8722718487862452
 40
0.9999999999999999
 40
0.9999999999999999
 40
0.9999999999999999
 40
0.9999999999999999
 10
266.1376701966718
 20
480.9815029272349
 30
0.0
 10
267.4070518229671
 20
480.9047767222543
 30
0.0
 10
269.8916129853134
 20
480.7546004907097
 30
0.0
 10
273.4799181353781
 20
479.6103667280285
 30
0.0
 10
276.7599510053109
 20
477.8620852856389
 30
0.0
 10
279.6486504701422
 20
475.4831666553182
 30
0.0
 10
282.0275826602762
 20
472.5944582589664
 30
0.0
 10
283.7758644512135
 20
469.31443473479
 30
0.0
 10
284.9201053802093
 20
465.7261151253567
 30
0.0
 10
285.0702825278071
 20
463.2415538912534
 30
0.0
 10
285.1470097351018
 20
461.9721633888049
 30
0.0
  0
LINE
  5
BF
330
1F
100
AcDbEntity
  8
0
  6
Continuous
 62
     7
370
    25
100
AcDbLine
 10
266.1376701967
 20
486.8976659367
 30
0.0
 11
266.1376701967
 21
480.9815029272
 31
0.0
  0
LINE
  5
C0
330
1F
100
AcDbEntity
  8
0
  6
Continuous
 62
     7
370
    25
100
AcDbLine
 10
291.0631727446
 20
126.9721633888
 30
0.0
 11
285.6552149636
 21
126.9721633888
 31
0.0
  0
SPLINE
  5
C1
330
1F
100
AcDbEntity
  8
0
  6
Continuous
 62
     7
370
    25
100
AcDbSpline
210
0.0
220
0.0
230
1.0
 70
     8
 71
     3
 72
    11
 73
     7
 74
     0
 42
0.00000001
 43
0.00000001
 40
0.0
 40
0.0
 40
0.0
 40
0.0
 40
0.2498896755908641
 40
0.499783554587735
 40
0.7498916387505238
 40
1.0
 40
1.0
 40
1.0
 40
1.0
 10
285.0825848625087
 20
333.7881209409626
 30
0.0
 10
285.1072693332713
 20
316.5407875581815
 30
0.0
 10
285.1566386900154
 20
282.0458306744121
 30
0.0
 10
285.2875572558555
 20
230.3282124278556
 30
0.0
 10
285.4478390300334
 20
178.6266294317609
 30
0.0
 10
285.5860896268746
 20
144.1903250949323
 30
0.0
 10
285.6552149635861
 20
126.972163388805
 30
0.0
  0
SPLINE
  5
C2
330
1F
100
AcDbEntity
  8
0
  6
Continuous
 62
     7
370
    25
100
AcDbSpline
210
0.0
220
0.0
230
1.0
 70
     8
 71
     3
 72
     9
 73
     5
 74
     0
 42
0.00000001
 43
0.00000001
 40
0.0
 40
0.0
 40
0.0
 40
0.0
 40
0.3379797629439176
 40
0.9999999999999999
 40
0.9999999999999999
 40
0.9999999999999999
 40
0.9999999999999999
 10
285.0597083627597
 20
359.7851655861916
 30
0.0
 10
285.0615472527258
 20
356.8561166293061
 30
0.0
 10
285.0669880813423
 20
348.1897724335107
 30
0.0
 10
285.0763723119424
 20
339.524624337566
 30
0.0
 10
285.0825848625087
 20
333.7881209409626
 30
0.0
  0
SPLINE
  5
C3
330
1F
100
AcDbEntity
  8
0
  6
Continuous
 62
     7
370
    25
100
AcDbSpline
210
0.0
220
0.0
230
1.0
 70
     8
 71
     3
 72
     9
 73
     5
 74
     0
 42
0.00000001
 43
0.00000001
 40
0.0
 40
0.0
 40
0.0
 40
0.0
 40
0.4999259907934862
 40
1.0
 40
1.0
 40
1.0
 40
1.0
 10
285.0597083627597
 20
394.1591611913949
 30
0.0
 10
285.0534463007291
 20
388.4310101678578
 30
0.0
 10
285.0409203225926
 20
376.973012126097
 30
0.0
 10
285.0534450647398
 20
365.5150130977711
 30
0.0
 10
285.0597083627597
 20
359.7851655861916
 30
0.0
  0
LINE
  5
C4
330
1F
100
AcDbEntity
  8
0
  6
Continuous
 62
     7
370
    25
100
AcDbLine
 10
285.0825848625
 20
420.1562058366
 30
0.0
 11
285.0597083628
 21
394.1591611914
 31
0.0
  0
LINE
  5
C5
330
1F
100
AcDbEntity
  8
0
  6
Continuous
 62
     7
370
    25
100
AcDbLine
 10
285.1470097351
 20
461.9721633888
 30
0.0
 11
285.0825848625
 21
420.1562058366
 31
0.0
  0
LINE
  5
C6
330
1F
100
AcDbEntity
  8
0
  6
Continuous
 62
     7
370
    25
100
AcDbLine
 10
121.2121676487
 20
461.9721633888
 30
0.0
 11
127.1283306582
 21
461.9721633888
 31
0.0
  0
LINE
  5
C7
330
1F
100
AcDbEntity
  8
0
  6
Continuous
 62
     7
370
    25
100
AcDbLine
 10
127.1927555308
 20
420.1562058366
 30
0.0
 11
127.1283306582
 21
461.9721633888
 31
0.0
  0
SPLINE
  5
C8
330
1F
100
AcDbEntity
  8
0
  6
Continuous
 62
     7
370
    25
100
AcDbSpline
210
0.0
220
0.0
230
1.0
 70
     8
 71
     3
 72
     9
 73
     5
 74
     0
 42
0.00000001
 43
0.00000001
 40
0.0
 40
0.0
 40
0.0
 40
0.0
 40
0.3379797629438767
 40
1.0
 40
1.0
 40
1.0
 40
1.0
 10
127.2156320305838
 20
394.1591611914181
 30
0.0
 10
127.2137931406178
 20
397.0882101483034
 30
0.0
 10
127.2083523120011
 20
405.7545543441001
 30
0.0
 10
127.1989680814012
 20
414.4197024400456
 30
0.0
 10
127.1927555308348
 20
420.1562058366497
 30
0.0
  0
SPLINE
  5
C9
330
1F
100
AcDbEntity
  8
0
  6
Continuous
 62
     7
370
    25
100
AcDbSpline
210
0.0
220
0.0
230
1.0
 70
     8
 71
     3
 72
     9
 73
     5
 74
     0
 42
0.00000001
 43
0.00000001
 40
0.0
 40
0.0
 40
0.0
 40
0.0
 40
0.4999259907937704
 40
1.0
 40
1.0
 40
1.0
 40
1.0
 10
127.2156320305838
 20
359.785165586215
 30
0.0
 10
127.2218940926144
 20
365.5133166097553
 30
0.0
 10
127.2344200707509
 20
376.9713146515161
 30
0.0
 10
127.2218953286037
 20
388.4293136798421
 30
0.0
 10
127.2156320305838
 20
394.1591611914181
 30
0.0
  0
LINE
  5
CA
330
1F
100
AcDbEntity
  8
0
  6
Continuous
 62
     7
370
    25
100
AcDbLine
 10
127.1927555308
 20
333.788120941
 30
0.0
 11
127.2156320306
 21
359.7851655862
 31
0.0
  0
SPLINE
  5
CB
330
1F
100
AcDbEntity
  8
0
  6
Continuous
 62
     7
370
    25
100
AcDbSpline
210
0.0
220
0.0
230
1.0
 70
     8
 71
     3
 72
    11
 73
     7
 74
     0
 42
0.00000001
 43
0.00000001
 40
0.0
 40
0.0
 40
0.0
 40
0.0
 40
0.2499022779800566
 40
0.4998042800723552
 40
0.7499042466015203
 40
0.9999999999999999
 40
0.9999999999999999
 40
0.9999999999999999
 40
0.9999999999999999
 10
126.6201254297575
 20
126.972163388805
 30
0.0
 10
126.6891965628696
 20
144.1761333109097
 30
0.0
 10
126.8273387528406
 20
178.5840541622364
 30
0.0
 10
126.9876234870097
 20
230.2713750742445
 30
0.0
 10
127.1186299181081
 20
282.0031635849576
 30
0.0
 10
127.1680471320057
 20
316.5265654187752
 30
0.0
 10
127.1927555308349
 20
333.7881209409937
 30
0.0
  0
LINE
  5
CC
330
1F
100
AcDbEntity
  8
0
  6
Continuous
 62
     7
370
    25
100
AcDbLine
 10
121.2121676487
 20
126.9721633888
 30
0.0
 11
126.6201254298
 21
126.9721633888
 31
0.0
  0
LINE
  5
CD
330
1F
100
AcDbEntity
  8
0
  6
Continuous
 62
     7
370
    25
100
AcDbLine
 10
146.1376701967
 20
486.8976659367
 30
0.0
 11
146.1376701967
 21
480.9815029272
 31
0.0
  0
SPLINE
  5
CE
330
1F
100
AcDbEntity
  8
0
  6
Continuous
 62
     7
370
    25
100
AcDbSpline
210
0.0
220
0.0
230
1.0
 70
     8
 71
     3
 72
    15
 73
    11
 74
     0
 42
0.00000001
 43
0.00000001
 40
0.0
 40
0.0
 40
0.0
 40
0.0
 40
0.127727262709949
 40
0.2500006214466251
 40
0.3758169987343128
 40
0.5000000007105168
 40
0.6241813610876448
 40
0.7499993797044309
 40
0.8722718487713167
 40
0.9999999999999999
 40
0.9999999999999999
 40
0.9999999999999999
 40
0.9999999999999999
 10
127.1283306582418
 20
461.9721633888049
 30
0.0
 10
127.2050568636175
 20
463.2415450186164
 30
0.0
 10
127.3552330955213
 20
465.7261061809928
 30
0.0
 10
128.4994668600566
 20
469.314411333612
 30
0.0
 10
130.2477483016457
 20
472.5944442001684
 30
0.0
 10
132.6266669325139
 20
475.4831436641678
 30
0.0
 10
135.515375326396
 20
477.8620758523373
 30
0.0
 10
138.7953988504283
 20
479.6103576432351
 30
0.0
 10
142.3837184599701
 20
480.7545985723108
 30
0.0
 10
144.8682796940745
 20
480.9047757199237
 30
0.0
 10
146.1376701966718
 20
480.9815029272349
 30
0.0
  0
LINE
  5
CF
330
1F
100
AcDbEntity
  8
0
  6
Continuous
 62
     7
370
    25
100
AcDbLine
 10
266.1376701967
 20
102.0466608409
 30
0.0
 11
266.1376701967
 21
107.4546186219
 31
0.0
  0
SPLINE
  5
D0
330
1F
100
AcDbEntity
  8
0
  6
Continuous
 62
     7
370
    25
100
AcDbSpline
210
0.0
220
0.0
230
1.0
 70
     8
 71
     3
 72
    15
 73
    11
 74
     0
 42
0.00000001
 43
0.00000001
 40
0.0
 40
0.0
 40
0.0
 40
0.0
 40
0.1277272741241849
 40
0.2500006214420561
 40
0.3758170202055773
 40
0.5000000007032472
 40
0.6241813832160574
 40
0.7499993796997801
 40
0.8722718609166442
 40
0.9999999999999999
 40
0.9999999999999999
 40
0.9999999999999999
 40
0.9999999999999999
 10
285.6552149635861
 20
126.972163388805
 30
0.0
 10
285.5764375080906
 20
125.6688453560689
 30
0.0
 10
285.4222463773041
 20
123.117860686938
 30
0.0
 10
284.2474219969979
 20
119.4336237879561
 30
0.0
 10
282.4524011156226
 20
116.0659009992682
 30
0.0
 10
280.0098830931187
 20
113.0999734681417
 30
0.0
 10
277.0439466368959
 20
110.6574418958279
 30
0.0
 10
273.6762331862141
 20
108.8624206657931
 30
0.0
 10
269.9919818384529
 20
107.6875891248609
 30
0.0
 10
267.4409970978467
 20
107.5333970788295
 30
0.0
 10
266.1376701966718
 20
107.4546186218906
 30
0.0
  0
SPLINE
  5
D1
330
1F
100
AcDbEntity
  8
0
  6
Continuous
 62
     7
370
    25
100
AcDbSpline
210
0.0
220
0.0
230
1.0
 70
     8
 71
     3
 72
    15
 73
    11
 74
     0
 42
0.00000001
 43
0.00000001
 40
0.0
 40
0.0
 40
0.0
 40
0.0
 40
0.1277272737931544
 40
0.2500006214421391
 40
0.3758170199082537
 40
0.5000000007033374
 40
0.6241813832195541
 40
0.7499993796998217
 40
0.8722718609204515
 40
1.0
 40
1.0
 40
1.0
 40
1.0
 10
146.1376701966718
 20
107.4546186218906
 30
0.0
 10
144.8343521673287
 20
107.5333960770048
 30
0.0
 10
142.2833674982267
 20
107.6875872074448
 30
0.0
 10
138.59913060171
 20
108.8624115859624
 30
0.0
 10
135.2314078097637
 20
110.6574324681095
 30
0.0
 10
132.2654802779069
 20
113.099950490026
 30
0.0
 10
129.8229487036788
 20
116.0658869486103
 30
0.0
 10
128.0279274736302
 20
119.4336003993307
 30
0.0
 10
126.8530959327197
 20
123.1178517470626
 30
0.0
 10
126.6989038866922
 20
125.6688364876689
 30
0.0
 10
126.6201254297575
 20
126.972163388805
 30
0.0
  0
LINE
  5
D2
330
1F
100
AcDbEntity
  8
0
  6
Continuous
 62
     7
370
    25
100
AcDbLine
 10
146.1376701967
 20
102.0466608409
 30
0.0
 11
146.1376701967
 21
107.4546186219
 31
0.0
  0
LINE
  5
D3
330
1F
100
AcDbEntity
  8
0
  6
Continuous
 62
     7
370
    25
100
AcDbLine
 10
146.1481681856
 20
107.4721492869
 30
0.0
 11
146.1376701967
 21
107.4546186219
 31
0.0
  0
SPLINE
  5
D4
330
1F
100
AcDbEntity
  8
0
  6
Continuous
 62
     7
370
    25
100
AcDbSpline
210
0.0
220
0.0
230
1.0
 70
     8
 71
     3
 72
     9
 73
     5
 74
     0
 42
0.00000001
 43
0.00000001
 40
0.0
 40
0.0
 40
0.0
 40
0.0
 40
0.4999053010549147
 40
1.0
 40
1.0
 40
1.0
 40
1.0
 10
266.1271722076997
 20
107.4721492869276
 30
0.0
 10
246.1344593720344
 20
107.4874481574885
 30
0.0
 10
206.141459110833
 20
107.5180516948555
 30
0.0
 10
166.1484566908038
 20
107.487452021408
 30
0.0
 10
146.1481681856493
 20
107.4721492869276
 30
0.0
  0
LINE
  5
D5
330
1F
100
AcDbEntity
  8
0
  6
Continuous
 62
     7
370
    25
100
AcDbLine
 10
266.1376701967
 20
107.4546186219
 30
0.0
 11
266.1271722077
 21
107.4721492869
 31
0.0
  0
LINE
  5
D6
330
1F
100
AcDbEntity
  8
0
  6
Continuous
 62
     7
370
    25
100
AcDbLine
 10
181.8876701967
 20
485.2489757282
 30
0.0
 11
181.8876701967
 21
484.0975846908
 31
0.0
  0
ARC
  5
D7
330
1F
100
AcDbEntity
  8
0
  6
Continuous
 62
     7
370
    25
100
AcDbCircle
 10
182.6383549598
 20
488.8613313541
 30
0.0
 40
4.822531480996682
100
AcDbArc
 50
261.0448095014
 51
272.9633983003
  0
LINE
  5
D8
330
1F
100
AcDbEntity
  8
0
  6
Continuous
 62
     7
370
    25
100
AcDbLine
 10
182.8876701967
 20
484.0452487346
 30
0.0
 11
229.3876701967
 21
484.0452487346
 31
0.0
  0
ARC
  5
D9
330
1F
100
AcDbEntity
  8
0
  6
Continuous
 62
     7
370
    25
100
AcDbCircle
 10
229.6369854336
 20
488.8613313541
 30
0.0
 40
4.822531481009703
100
AcDbArc
 50
267.0366016998
 51
278.9551904986
  0
LINE
  5
DA
330
1F
100
AcDbEntity
  8
0
  6
Continuous
 62
     7
370
    25
100
AcDbLine
 10
230.3876701967
 20
484.0975846908
 30
0.0
 11
230.3876701967
 21
485.2489757282
 31
0.0
  0
ARC
  5
DB
330
1F
100
AcDbEntity
  8
0
  6
Continuous
 62
     7
370
    25
100
AcDbCircle
 10
229.6369854336
 20
480.4852290649
 30
0.0
 40
4.822531481012746
100
AcDbArc
 50
81.0448095014
 51
92.9633983002
  0
LINE
  5
DC
330
1F
100
AcDbEntity
  8
0
  6
Continuous
 62
     7
370
    25
100
AcDbLine
 10
229.3876701967
 20
485.3013116844
 30
0.0
 11
182.8876701967
 21
485.3013116844
 31
0.0
  0
ARC
  5
DD
330
1F
100
AcDbEntity
  8
0
  6
Continuous
 62
     7
370
    25
100
AcDbCircle
 10
182.6383549598
 20
480.4852290649
 30
0.0
 40
4.822531481011445
100
AcDbArc
 50
87.0366016998
 51
98.9551904986
  0
LINE
  5
DE
330
1F
100
AcDbEntity
  8
0
  6
Continuous
 62
     7
370
    25
100
AcDbLine
 10
266.1376701967
 20
480.9815029272
 30
0.0
 11
266.1376701967
 21
480.9781635531
 31
0.0
  0
SPLINE
  5
DF
330
1F
100
AcDbEntity
  8
0
  6
Continuous
 62
     7
370
    25
100
AcDbSpline
210
0.0
220
0.0
230
1.0
 70
     8
 71
     3
 72
    10
 73
     6
 74
     0
 42
0.00000001
 43
0.00000001
 40
0.0
 40
0.0
 40
0.0
 40
0.0
 40
0.4136404926186355
 40
0.8274784233077283
 40
1.0
 40
1.0
 40
1.0
 40
1.0
 10
146.1380209984189
 20
480.9781635530682
 30
0.0
 10
162.6823562149813
 20
480.9604148987625
 30
0.0
 10
195.7789235578149
 20
480.9249091183981
 30
0.0
 10
235.787586457942
 20
480.9410067715176
 30
0.0
 10
259.2377090496885
 20
480.9697164502579
 30
0.0
 10
266.137319394923
 20
480.9781635530682
 30
0.0
  0
LINE
  5
E0
330
1F
100
AcDbEntity
  8
0
  6
Continuous
 62
     7
370
    25
100
AcDbLine
 10
146.1376701967
 20
480.9815029272
 30
0.0
 11
146.1376701967
 21
480.9781635531
 31
0.0
  0
LINE
  5
E1
330
1F
100
AcDbEntity
  8
0
  6
Continuous
 62
     7
370
    25
100
AcDbLine
 10
182.8876701967
 20
484.0452487346
 30
0.0
 11
182.8876701967
 21
484.8441523624
 31
0.0
  0
ARC
  5
E2
330
1F
100
AcDbEntity
  8
0
  6
Continuous
 62
     7
370
    25
100
AcDbCircle
 10
182.6383549598
 20
489.6602349819
 30
0.0
 40
4.822531480996626
100
AcDbArc
 50
261.0448095014
 51
272.9633983003
  0
LINE
  5
E3
330
1F
100
AcDbEntity
  8
0
  6
Continuous
 62
     7
370
    25
100
AcDbLine
 10
229.3876701967
 20
484.0452487346
 30
0.0
 11
229.3876701967
 21
484.8441523624
 31
0.0
  0
ARC
  5
E4
330
1F
100
AcDbEntity
  8
0
  6
Continuous
 62
     7
370
    25
100
AcDbCircle
 10
229.6369854336
 20
489.6602349819
 30
0.0
 40
4.822531481010606
100
AcDbArc
 50
267.0366016998
 51
278.9551904986
  0
LINE
  5
E5
330
1F
100
AcDbEntity
  8
0
  6
Continuous
 62
     7
370
    25
100
AcDbLine
 10
182.8876701967
 20
484.8441523624
 30
0.0
 11
229.3876701967
 21
484.8441523624
 31
0.0
  0
LINE
  5
E6
330
1F
100
AcDbEntity
  8
0
  6
Continuous
 62
     7
370
    25
100
AcDbLine
 10
126.6201254298
 20
126.9721633888
 30
0.0
 11
126.7465701862
 21
126.8767504731
 31
0.0
  0
ARC
  5
E7
330
1F
100
AcDbEntity
  8
0
  6
Continuous
 62
     7
370
    25
100
AcDbCircle
 10
146.3149458767
 20
644.5082128945
 30
0.0
 40
311.3079403215107
100
AcDbArc
 50
266.4783713873
 51
270.9501490104
  0
SPLINE
  5
E8
330
1F
100
AcDbEntity
  8
0
  6
Continuous
 62
     7
370
    25
100
AcDbSpline
210
0.0
220
0.0
230
1.0
 70
     8
 71
     3
 72
    11
 73
     7
 74
     0
 42
0.00000001
 43
0.00000001
 40
0.0
 40
0.0
 40
0.0
 40
0.0
 40
0.2498936679328966
 40
0.4997914232229199
 40
0.7498955641934065
 40
0.9999999999999999
 40
0.9999999999999999
 40
0.9999999999999999
 40
0.9999999999999999
 10
151.4772000071506
 20
333.2430769741563
 30
0.0
 10
151.4976261006555
 20
316.3340173375064
 30
0.0
 10
151.5384786217623
 20
282.5156214931113
 30
0.0
 10
151.4697622771685
 20
231.8115148617673
 30
0.0
 10
151.3505961106919
 20
181.1226355566888
 30
0.0
 10
151.2305175422108
 20
147.359580978613
 30
0.0
 10
151.1704782225816
 20
130.4780437391582
 30
0.0
  0
SPLINE
  5
E9
330
1F
100
AcDbEntity
  8
0
  6
Continuous
 62
     7
370
    25
100
AcDbSpline
210
0.0
220
0.0
230
1.0
 70
     8
 71
     3
 72
    17
 73
    13
 74
     0
 42
0.00000001
 43
0.00000001
 40
0.0
 40
0.0
 40
0.0
 40
0.0
 40
0.1241314772146316
 40
0.2501308511101163
 40
0.3750215843349324
 40
0.5004023149057553
 40
0.6244965219699938
 40
0.7501168504303377
 40
0.8087704767254354
 40
0.8744317763066299
 40
0.9261932155695172
 40
1.0
 40
1.0
 40
1.0
 40
1.0
 10
126.746570186246
 20
126.8767504731214
 30
0.0
 10
126.9962997603661
 20
126.8015528502857
 30
0.0
 10
127.499516771262
 20
126.6500260512542
 30
0.0
 10
129.2699732358593
 20
126.6749174906264
 30
0.0
 10
131.7185598403619
 20
126.8891730296446
 30
0.0
 10
134.8063484744271
 20
127.2995729533888
 30
0.0
 10
138.4195576453962
 20
127.8873360839347
 30
0.0
 10
141.7262044356328
 20
128.4993544999223
 30
0.0
 10
144.5367260743505
 20
129.0573650201277
 30
0.0
 10
146.5681475178369
 20
129.4765826110553
 30
0.0
 10
148.8080818969764
 20
129.9543802714461
 30
0.0
 10
150.2959409474032
 20
130.2841883656125
 30
0.0
 10
151.1704782225816
 20
130.4780437391582
 30
0.0
  0
SPLINE
  5
EA
330
1F
100
AcDbEntity
  8
0
  6
Continuous
 62
     7
370
    25
100
AcDbSpline
210
0.0
220
0.0
230
1.0
 70
     8
 71
     3
 72
    19
 73
    15
 74
     0
 42
0.00000001
 43
0.00000001
 40
0.0
 40
0.0
 40
0.0
 40
0.0
 40
0.0608313093535153
 40
0.1075187037192402
 40
0.1526603287839259
 40
0.2035023078473876
 40
0.2498604810890764
 40
0.3354359629895975
 40
0.4180519152603998
 40
0.4997036051419128
 40
0.6250577961365259
 40
0.7499220934962467
 40
0.8758941947232672
 40
1.0
 40
1.0
 40
1.0
 40
1.0
 10
261.104862170762
 20
130.4780437391583
 30
0.0
 10
261.8257341196614
 20
130.3179729600779
 30
0.0
 10
263.0998677576997
 20
130.035049530466
 30
0.0
 10
264.8939738022681
 20
129.6494281745903
 30
0.0
 10
266.5530427925341
 20
129.3010898528734
 30
0.0
 10
268.1829905680178
 20
128.9688063767356
 30
0.0
 10
270.2322412399442
 20
128.5636305505007
 30
0.0
 10
272.5561784114813
 20
128.1265704609501
 30
0.0
 10
275.0985850394017
 20
127.6834601841636
 30
0.0
 10
277.8180996032421
 20
127.253210078991
 30
0.0
 10
280.5570363374565
 20
126.8891272833177
 30
0.0
 10
283.0052944237581
 20
126.674930508718
 30
0.0
 10
284.7758383190847
 20
126.6500214222482
 30
0.0
 10
285.2790446970381
 20
126.801551070923
 30
0.0
 10
285.5287702070978
 20
126.8767504731215
 30
0.0
  0
SPLINE
  5
EB
330
1F
100
AcDbEntity
  8
0
  6
Continuous
 62
     7
370
    25
100
AcDbSpline
210
0.0
220
0.0
230
1.0
 70
     8
 71
     3
 72
    12
 73
     8
 74
     0
 42
0.00000001
 43
0.00000001
 40
0.0
 40
0.0
 40
0.0
 40
0.0
 40
0.2190320550286956
 40
0.4142269280405066
 40
0.6094215884746144
 40
0.8047117873893157
 40
1.0
 40
1.0
 40
1.0
 40
1.0
 10
261.104862170762
 20
130.4780437391582
 30
0.0
 10
261.0521270057303
 20
145.2617680200991
 30
0.0
 10
260.9523958252512
 20
173.2203090340602
 30
0.0
 10
260.8436995398606
 20
214.393214534747
 30
0.0
 10
260.7726074255464
 20
253.9837307437455
 30
0.0
 10
260.7436795650815
 20
293.59964748495
 30
0.0
 10
260.7799868407032
 20
320.0286452796923
 30
0.0
 10
260.7981403861929
 20
333.2430769741371
 30
0.0
  0
ARC
  5
EC
330
1F
100
AcDbEntity
  8
0
  6
Continuous
 62
     7
370
    25
100
AcDbCircle
 10
265.9603945168
 20
644.5082128954
 30
0.0
 40
311.3079403224542
100
AcDbArc
 50
269.0498509896
 51
273.5216286126
  0
LINE
  5
ED
330
1F
100
AcDbEntity
  8
0
  6
Continuous
 62
     7
370
    25
100
AcDbLine
 10
285.5287702071
 20
126.8767504731
 30
0.0
 11
285.6552149636
 21
126.9721633888
 31
0.0
  0
SPLINE
  5
EE
330
1F
100
AcDbEntity
  8
0
  6
Continuous
 62
     7
370
    25
100
AcDbSpline
210
0.0
220
0.0
230
1.0
 70
     8
 71
     3
 72
     9
 73
     5
 74
     0
 42
0.00000001
 43
0.00000001
 40
0.0
 40
0.0
 40
0.0
 40
0.0
 40
0.4046473199993992
 40
1.0
 40
1.0
 40
1.0
 40
1.0
 10
151.1704782225816
 20
130.4780437391582
 30
0.0
 10
165.9983435946413
 20
130.484488582852
 30
0.0
 10
202.6422669303543
 20
130.5004156466809
 30
0.0
 10
239.2878287382836
 20
130.4863924731198
 30
0.0
 10
261.104862170762
 20
130.4780437391583
 30
0.0
  0
SPLINE
  5
EF
330
1F
100
AcDbEntity
  8
0
  6
Continuous
 62
     7
370
    25
100
AcDbSpline
210
0.0
220
0.0
230
1.0
 70
     8
 71
     3
 72
    19
 73
    15
 74
     0
 42
0.00000001
 43
0.00000001
 40
0.0
 40
0.0
 40
0.0
 40
0.0
 40
0.0608076124359582
 40
0.1075017469954591
 40
0.152659807160281
 40
0.2035017919409983
 40
0.2498557172616067
 40
0.3354313373807296
 40
0.4180453880567443
 40
0.4996933650038598
 40
0.6250461096813413
 40
0.7499110703522102
 40
0.8758904735323136
 40
1.0
 40
1.0
 40
1.0
 40
1.0
 10
261.104862170762
 20
130.4780437391582
 30
0.0
 10
261.268961211709
 20
129.761293133482
 30
0.0
 10
261.5590718224598
 20
128.4941501034643
 30
0.0
 10
261.9658096269059
 20
126.7205739116435
 30
0.0
 10
262.3399662062496
 20
125.0864714733181
 30
0.0
 10
262.704876632076
 20
123.4885019670207
 30
0.0
 10
263.1604257245067
 20
121.489114497368
 30
0.0
 10
263.6700684382749
 20
119.2372640680675
 30
0.0
 10
264.2165111761144
 20
116.7977493948333
 30
0.0
 10
264.7863595303389
 20
114.2175093348946
 30
0.0
 10
265.3368545365999
 20
111.6648496941283
 30
0.0
 10
265.7919579332058
 20
109.4576136986523
 30
0.0
 10
266.0786418417923
 20
107.9492499660445
 30
0.0
 10
266.1110762547805
 20
107.6303881529488
 30
0.0
 10
266.1271722076997
 20
107.4721492869276
 30
0.0
  0
SPLINE
  5
F0
330
1F
100
AcDbEntity
  8
0
  6
Continuous
 62
     7
370
    25
100
AcDbSpline
210
0.0
220
0.0
230
1.0
 70
     8
 71
     3
 72
    20
 73
    16
 74
     0
 42
0.00000001
 43
0.00000001
 40
0.0
 40
0.0
 40
0.0
 40
0.0
 40
0.1240820338308112
 40
0.25003228933386
 40
0.3328498870346461
 40
0.4159799446120157
 40
0.5003865382934207
 40
0.5612046299390979
 40
0.6245457031895643
 40
0.6853772146288094
 40
0.7502311079414169
 40
0.8088567286586067
 40
0.874488945815032
 40
0.9261973337277521
 40
1.0
 40
1.0
 40
1.0
 40
1.0
 10
146.1481681856493
 20
107.4721492869276
 30
0.0
 10
146.1642194743376
 20
107.6301776144756
 30
0.0
 10
146.1965637254237
 20
107.9486135982886
 30
0.0
 10
146.4517152608157
 20
109.2907711431146
 30
0.0
 10
146.7815774284578
 20
110.9060986532279
 30
0.0
 10
147.1415271668367
 20
112.6080461712364
 30
0.0
 10
147.5336286329418
 20
114.4167409840197
 30
0.0
 10
147.9376165157429
 20
116.2494421496839
 30
0.0
 10
148.3274376848013
 20
117.9989997478352
 30
0.0
 10
148.7548067439668
 20
119.8979841007268
 30
0.0
 10
149.1958763603521
 20
121.8452926287256
 30
0.0
 10
149.6695145060244
 20
123.9226820200668
 30
0.0
 10
150.1253090719147
 20
125.9175348204109
 30
0.0
 10
150.6326119107697
 20
128.1286722400096
 30
0.0
 10
150.9713149747195
 20
129.6081092444157
 30
0.0
 10
151.1704782225816
 20
130.4780437391583
 30
0.0
  0
SPLINE
  5
F1
330
1F
100
AcDbEntity
  8
0
  6
Continuous
 62
     7
370
    25
100
AcDbSpline
210
0.0
220
0.0
230
1.0
 70
     8
 71
     3
 72
    15
 73
    11
 74
     0
 42
0.00000001
 43
0.00000001
 40
0.0
 40
0.0
 40
0.0
 40
0.0
 40
0.1250887709663158
 40
0.2501023990873112
 40
0.3750643553784937
 40
0.5000000003971774
 40
0.6249356454494692
 40
0.7498976017103895
 40
0.8749112322557069
 40
0.9999999999999999
 40
0.9999999999999999
 40
0.9999999999999999
 40
0.9999999999999999
 10
146.1481681856482
 20
107.4721492869307
 30
0.0
 10
144.88596350749
 20
107.5511397326384
 30
0.0
 10
142.3623123779127
 20
107.7090731732171
 30
0.0
 10
138.7209421501368
 20
108.8736348600097
 30
0.0
 10
135.3619863085215
 20
110.6709093922805
 30
0.0
 10
132.4135015595613
 20
113.1001749736828
 30
0.0
 10
129.9820627356955
 20
116.0516657340045
 30
0.0
 10
128.1774031341242
 20
119.4188059409565
 30
0.0
 10
127.0008691978235
 20
123.072894195174
 30
0.0
 10
126.8313534990651
 20
125.6085444556007
 30
0.0
 10
126.7465701862459
 20
126.8767504731214
 30
0.0
  0
SPLINE
  5
F2
330
1F
100
AcDbEntity
  8
0
  6
Continuous
 62
     7
370
    25
100
AcDbSpline
210
0.0
220
0.0
230
1.0
 70
     8
 71
     3
 72
    15
 73
    11
 74
     0
 42
0.00000001
 43
0.00000001
 40
0.0
 40
0.0
 40
0.0
 40
0.0
 40
0.1250887719768042
 40
0.2501023983103994
 40
0.3750643545508662
 40
0.4999999995532499
 40
0.6249356446218545
 40
0.7498976009334993
 40
0.8749112332662143
 40
1.0
 40
1.0
 40
1.0
 40
1.0
 10
266.1271722077002
 20
107.4721492869291
 30
0.0
 10
267.3893768961125
 20
107.5511397337628
 30
0.0
 10
269.9130280179659
 20
107.7090731748264
 30
0.0
 10
273.5543982367009
 20
108.8736348592496
 30
0.0
 10
276.9133540640046
 20
110.6709093783675
 30
0.0
 10
279.8618388156792
 20
113.1001749555742
 30
0.0
 10
282.2932776437052
 20
116.0516657131475
 30
0.0
 10
284.0979372584329
 20
119.4188059344179
 30
0.0
 10
285.2744711971352
 20
123.0728941977105
 30
0.0
 10
285.4439868954491
 20
125.6085444659017
 30
0.0
 10
285.5287702070978
 20
126.8767504731215
 30
0.0
  0
SPLINE
  5
F3
330
1F
100
AcDbEntity
  8
0
  6
Continuous
 62
     7
370
    25
100
AcDbSpline
210
0.0
220
0.0
230
1.0
 70
     8
 71
     3
 72
    20
 73
    16
 74
     0
 42
0.00000001
 43
0.00000001
 40
0.0
 40
0.0
 40
0.0
 40
0.0
 40
0.0608080542914469
 40
0.1073925333007753
 40
0.1525152662258749
 40
0.2034184526056609
 40
0.2497514199696006
 40
0.3349134555808745
 40
0.417618294768148
 40
0.4997037244819807
 40
0.5856893805665783
 40
0.6691537125016892
 40
0.750151493090558
 40
0.8741636374803344
 40
1.0
 40
1.0
 40
1.0
 40
1.0
 10
260.7570941392615
 20
456.8631230439242
 30
0.0
 10
260.9414166634506
 20
457.6027827283497
 30
0.0
 10
261.2669469414328
 20
458.9090887467955
 30
0.0
 10
261.7223539625354
 20
460.7450606218192
 30
0.0
 10
262.1406610205606
 20
462.441180251845
 30
0.0
 10
262.5479288493665
 20
464.1051477637967
 30
0.0
 10
263.0538506698915
 20
466.1877182220118
 30
0.0
 10
263.6175506109949
 20
468.5422816915686
 30
0.0
 10
264.2185771757418
 20
471.1078759384159
 30
0.0
 10
264.7556992326648
 20
473.4647252246015
 30
0.0
 10
265.2165804732142
 20
475.5675155091991
 30
0.0
 10
265.5915264040481
 20
477.3641699488347
 30
0.0
 10
265.9188257416432
 20
479.0520335947496
 30
0.0
 10
266.1539446585589
 20
480.4724491847505
 30
0.0
 10
266.1428880586412
 20
480.8087735622502
 30
0.0
 10
266.137319394923
 20
480.9781635530682
 30
0.0
  0
SPLINE
  5
F4
330
1F
100
AcDbEntity
  8
0
  6
Continuous
 62
     7
370
    25
100
AcDbSpline
210
0.0
220
0.0
230
1.0
 70
     8
 71
     3
 72
    10
 73
     6
 74
     0
 42
0.00000001
 43
0.00000001
 40
0.0
 40
0.0
 40
0.0
 40
0.0
 40
0.1362084811390909
 40
0.5680082725762485
 40
1.0
 40
1.0
 40
1.0
 40
1.0
 10
260.7570941392605
 20
456.8631230439243
 30
0.0
 10
255.7981222972034
 20
456.8680125381237
 30
0.0
 10
235.1185213927286
 20
456.8884024076144
 30
0.0
 10
198.6990619806549
 20
456.9195278298008
 30
0.0
 10
167.2475143592411
 20
456.8819274241751
 30
0.0
 10
151.5182462540831
 20
456.8631230439243
 30
0.0
  0
SPLINE
  5
F5
330
1F
100
AcDbEntity
  8
0
  6
Continuous
 62
     7
370
    25
100
AcDbSpline
210
0.0
220
0.0
230
1.0
 70
     8
 71
     3
 72
    17
 73
    13
 74
     0
 42
0.00000001
 43
0.00000001
 40
0.0
 40
0.0
 40
0.0
 40
0.0
 40
0.1258906977181923
 40
0.2499563896265304
 40
0.3723279775634348
 40
0.5003048062339966
 40
0.6251202176382714
 40
0.7501724917960444
 40
0.8088211492242429
 40
0.8746129921031572
 40
0.9261677616094897
 40
1.0
 40
1.0
 40
1.0
 40
1.0
 10
146.1380209984189
 20
480.9781635530682
 30
0.0
 10
146.1325109188047
 20
480.8085351772729
 30
0.0
 10
146.121570637816
 20
480.4717374856204
 30
0.0
 10
146.3851959003025
 20
478.8774138459206
 30
0.0
 10
146.8450557438595
 20
476.5568950148625
 30
0.0
 10
147.5050037389132
 20
473.51224188155
 30
0.0
 10
148.3436961261433
 20
469.8617897908156
 30
0.0
 10
149.1428725212116
 20
466.5088857573805
 30
0.0
 10
149.8378842781667
 20
463.6515230503928
 30
0.0
 10
150.3468999806902
 20
461.5774328616923
 30
0.0
 10
150.9148326971307
 20
459.285395369873
 30
0.0
 10
151.2946163869123
 20
457.7608364483724
 30
0.0
 10
151.518246254082
 20
456.8631230439244
 30
0.0
  0
ARC
  5
F6
330
1F
100
AcDbEntity
  8
0
  6
Continuous
 62
     7
370
    25
100
AcDbCircle
 10
265.9603945168
 20
109.4361138905
 30
0.0
 40
311.3079403140862
100
AcDbArc
 50
86.4783713873
 51
90.9501490105
  0
LINE
  5
F7
330
1F
100
AcDbEntity
  8
0
  6
Continuous
 62
     7
370
    25
100
AcDbLine
 10
260.7981403862
 20
420.7012498035
 30
0.0
 11
260.7570941393
 21
456.8631230439
 31
0.0
  0
SPLINE
  5
F8
330
1F
100
AcDbEntity
  8
0
  6
Continuous
 62
     7
370
    25
100
AcDbSpline
210
0.0
220
0.0
230
1.0
 70
     8
 71
     3
 72
    19
 73
    15
 74
     0
 42
0.00000001
 43
0.00000001
 40
0.0
 40
0.0
 40
0.0
 40
0.0
 40
0.0608471788740688
 40
0.107433965381121
 40
0.1525502748409044
 40
0.2034652598742196
 40
0.2498089164197776
 40
0.3349911081548878
 40
0.4177151733118213
 40
0.4998188885285852
 40
0.6277655946758469
 40
0.7501118722822064
 40
0.8741457111837758
 40
1.0
 40
1.0
 40
1.0
 40
1.0
 10
260.7570941392604
 20
456.8631230439301
 30
0.0
 10
261.4977551241846
 20
457.0465711427679
 30
0.0
 10
262.8054927726001
 20
457.3704736977338
 30
0.0
 10
264.6452284126823
 20
457.8214945427486
 30
0.0
 10
266.3456950350781
 20
458.2345233012296
 30
0.0
 10
268.0153939504398
 20
458.6352910309138
 30
0.0
 10
270.1071628605839
 20
459.1314102618101
 30
0.0
 10
272.4749253757175
 20
459.6811742097026
 30
0.0
 10
275.0597639080064
 20
460.2627032111357
 30
0.0
 10
277.8353174427857
 20
460.8628859681959
 30
0.0
 10
280.5689914725805
 20
461.4133092079088
 30
0.0
 10
282.9330906454695
 20
461.8291539278414
 30
0.0
 10
284.5749634205531
 20
462.0456420547223
 30
0.0
 10
284.9451589296293
 20
462.0016738596207
 30
0.0
 10
285.131605132349
 20
461.979529606608
 30
0.0
  0
LINE
  5
F9
330
1F
100
AcDbEntity
  8
0
  6
Continuous
 62
     7
370
    25
100
AcDbLine
 10
285.1470097351
 20
461.9721633888
 30
0.0
 11
285.1316051323
 21
461.9795296066
 31
0.0
  0
SPLINE
  5
FA
330
1F
100
AcDbEntity
  8
0
  6
Continuous
 62
     7
370
    25
100
AcDbSpline
210
0.0
220
0.0
230
1.0
 70
     8
 71
     3
 72
    20
 73
    16
 74
     0
 42
0.00000001
 43
0.00000001
 40
0.0
 40
0.0
 40
0.0
 40
0.0
 40
0.1258237059362103
 40
0.2498274043302743
 40
0.3308242993088516
 40
0.4142859761699194
 40
0.5002669681546935
 40
0.5614149837572034
 40
0.6251584968952419
 40
0.6857326632659138
 40
0.750283508037811
 40
0.8089082124610543
 40
0.874668837544394
 40
0.9262270931581496
 40
1.0
 40
1.0
 40
1.0
 40
1.0
 10
127.1437352609944
 20
461.9795296066085
 30
0.0
 10
127.3299492187675
 20
462.001730278073
 30
0.0
 10
127.699683597312
 20
462.0458104939995
 30
0.0
 10
129.1622836648656
 20
461.8526240810127
 30
0.0
 10
130.8845012694073
 20
461.5596154054331
 30
0.0
 10
132.7087697061361
 20
461.2124862785795
 30
0.0
 10
134.6598972753654
 20
460.8133444580826
 30
0.0
 10
136.6326662773941
 20
460.3891703385137
 30
0.0
 10
138.4935699757524
 20
459.9764060084442
 30
0.0
 10
140.498483889979
 20
459.5193205107118
 30
0.0
 10
142.5410591526579
 20
459.0435701345535
 30
0.0
 10
144.7156045050717
 20
458.5268242656619
 30
0.0
 10
146.7965424769815
 20
458.0250933776427
 30
0.0
 10
149.0938931389844
 20
457.4632155697959
 30
0.0
 10
150.6199643799707
 20
457.0854719399757
 30
0.0
 10
151.5182462540831
 20
456.8631230439244
 30
0.0
  0
LINE
  5
FB
330
1F
100
AcDbEntity
  8
0
  6
Continuous
 62
     7
370
    25
100
AcDbLine
 10
151.5182462541
 20
456.8631230439
 30
0.0
 11
151.4772000072
 21
420.7012498035
 31
0.0
  0
ARC
  5
FC
330
1F
100
AcDbEntity
  8
0
  6
Continuous
 62
     7
370
    25
100
AcDbCircle
 10
146.3149458763
 20
109.436113894
 30
0.0
 40
311.3079403106416
100
AcDbArc
 50
89.0498509895
 51
93.5216286127
  0
LINE
  5
FD
330
1F
100
AcDbEntity
  8
0
  6
Continuous
 62
     7
370
    25
100
AcDbLine
 10
127.1283306582
 20
461.9721633888
 30
0.0
 11
127.143735261
 21
461.9795296066
 31
0.0
  0
SPLINE
  5
FE
330
1F
100
AcDbEntity
  8
0
  6
Continuous
 62
     7
370
    25
100
AcDbSpline
210
0.0
220
0.0
230
1.0
 70
     8
 71
     3
 72
    15
 73
    11
 74
     0
 42
0.00000001
 43
0.00000001
 40
0.0
 40
0.0
 40
0.0
 40
0.0
 40
0.1250113491964499
 40
0.2500131191738825
 40
0.3750082557931618
 40
0.4999999995703736
 40
0.6249917433631846
 40
0.7499868800288287
 40
0.8749886511069086
 40
0.9999999999999999
 40
0.9999999999999999
 40
0.9999999999999999
 40
0.9999999999999999
 10
285.131605132349
 20
461.9795296066095
 30
0.0
 10
285.0568389379084
 20
463.2207871324679
 30
0.0
 10
284.9073122781211
 20
465.7032070705989
 30
0.0
 10
283.7714253921062
 20
469.2843452672509
 30
0.0
 10
282.0127933579629
 20
472.586159102519
 30
0.0
 10
279.6322669436153
 20
475.4806712170061
 30
0.0
 10
276.7386165041943
 20
477.861543338138
 30
0.0
 10
273.4381569185919
 20
479.6199792615517
 30
0.0
 10
269.8587869436766
 20
480.7551773477927
 30
0.0
 10
267.3778402589095
 20
480.9038329196819
 30
0.0
 10
266.137319394923
 20
480.9781635530682
 30
0.0
  0
SPLINE
  5
FF
330
1F
100
AcDbEntity
  8
0
  6
Continuous
 62
     7
370
    25
100
AcDbSpline
210
0.0
220
0.0
230
1.0
 70
     8
 71
     3
 72
    15
 73
    11
 74
     0
 42
0.00000001
 43
0.00000001
 40
0.0
 40
0.0
 40
0.0
 40
0.0
 40
0.1250113499314226
 40
0.2500131191725219
 40
0.375008255785787
 40
0.4999999995617443
 40
0.624991743355813
 40
0.7499868800274652
 40
0.8749886518418833
 40
1.0
 40
1.0
 40
1.0
 40
1.0
 10
146.1380209984189
 20
480.9781635530682
 30
0.0
 10
144.8975001240699
 20
480.9038329185717
 30
0.0
 10
142.4165534471102
 20
480.7551773461718
 30
0.0
 10
138.837183481342
 20
479.6199792623054
 30
0.0
 10
135.5367239101678
 20
477.861543352144
 30
0.0
 10
132.6430734679741
 20
475.4806712352566
 30
0.0
 10
130.2625470493861
 20
472.5861591235454
 30
0.0
 10
128.503915001993
 20
469.2843452738456
 30
0.0
 10
127.3680281136013
 20
465.7032070680422
 30
0.0
 10
127.2185014543215
 20
463.2207871220987
 30
0.0
 10
127.1437352609944
 20
461.9795296066088
 30
0.0
  0
SPLINE
  5
100
330
1F
100
AcDbEntity
  8
0
  6
Continuous
 62
     7
370
    25
100
AcDbSpline
210
0.0
220
0.0
230
1.0
 70
     8
 71
     3
 72
     9
 73
     5
 74
     0
 42
0.00000001
 43
0.00000001
 40
0.0
 40
0.0
 40
0.0
 40
0.0
 40
0.7923136092253538
 40
1.0
 40
1.0
 40
1.0
 40
1.0
 10
260.7981403861837
 20
333.2430769741371
 30
0.0
 10
260.8284065323817
 20
339.0351225253016
 30
0.0
 10
260.8666062374551
 20
346.3454166862555
 30
0.0
 10
260.9002747009701
 20
353.6565640194773
 30
0.0
 10
260.9072671826405
 20
355.1749898215358
 30
0.0
  0
LINE
  5
101
330
1F
100
AcDbEntity
  8
0
  6
Continuous
 62
     7
370
    25
100
AcDbLine
 10
262.3573805918
 20
359.5220972226
 30
0.0
 11
260.9072671826
 21
355.1749898215
 31
0.0
  0
LWPOLYLINE
  5
102
330
1F
100
AcDbEntity
  8
0
  6
Continuous
 62
     7
370
    25
100
AcDbPolyline
 90
       13
 70
   128
 43
0.0
 10
262.3573805918
 20
359.5220972226
 10
265.2967166508
 20
359.5284537398
 10
268.1624862847
 20
359.5384401422
 10
270.9141677381
 20
359.5519152228
 10
273.5128524536
 20
359.5686884451
 10
275.9217952353
 20
359.5885226369
 10
278.1069338233
 20
359.6111373445
 10
280.0373705315
 20
359.6362127976
 10
281.6858091376
 20
359.6633944313
 10
283.0289408508
 20
359.6922978995
 10
284.0477738949
 20
359.7225145094
 10
284.7279020516
 20
359.7536170006
 10
285.0597083628
 20
359.7851655862
  0
SPLINE
  5
103
330
1F
100
AcDbEntity
  8
0
  6
Continuous
 62
     7
370
    25
100
AcDbSpline
210
0.0
220
0.0
230
1.0
 70
     8
 71
     3
 72
     9
 73
     5
 74
     0
 42
0.00000001
 43
0.00000001
 40
0.0
 40
0.0
 40
0.0
 40
0.0
 40
0.7923136092265197
 40
1.0
 40
1.0
 40
1.0
 40
1.0
 10
151.4772000071611
 20
420.7012498034742
 30
0.0
 10
151.4469338609626
 20
414.9092042523091
 30
0.0
 10
151.4087341558885
 20
407.598910091365
 30
0.0
 10
151.3750656923735
 20
400.2877627581535
 30
0.0
 10
151.3680732107032
 20
398.7693369561056
 30
0.0
  0
LINE
  5
104
330
1F
100
AcDbEntity
  8
0
  6
Continuous
 62
     7
370
    25
100
AcDbLine
 10
149.9179598015
 20
394.422229555
 30
0.0
 11
151.3680732107
 21
398.7693369561
 31
0.0
  0
LWPOLYLINE
  5
105
330
1F
100
AcDbEntity
  8
0
  6
Continuous
 62
     7
370
    25
100
AcDbPolyline
 90
       13
 70
   128
 43
0.0
 10
127.2156320306
 20
394.1591611914
 10
127.5474383417
 20
394.1907097771
 10
128.2275664984
 20
394.2218122683
 10
129.2463995426
 20
394.2520288782
 10
130.5895312557
 20
394.2809323464
 10
132.2379698619
 20
394.3081139801
 10
134.16840657
 20
394.3331894332
 10
136.3535451581
 20
394.3558041407
 10
138.7624879398
 20
394.3756383326
 10
141.3611726552
 20
394.3924115548
 10
144.1128541087
 20
394.4058866354
 10
146.9786237425
 20
394.4158730378
 10
149.9179598015
 20
394.422229555
  0
LWPOLYLINE
  5
106
330
1F
100
AcDbEntity
  8
0
  6
Continuous
 62
     7
370
    25
100
AcDbPolyline
 90
       13
 70
   128
 43
0.0
 10
127.2156320306
 20
359.7851655862
 10
127.5474383417
 20
359.7536170005
 10
128.2275664984
 20
359.7225145094
 10
129.2463995426
 20
359.6922978995
 10
130.5895312557
 20
359.6633944313
 10
132.2379698619
 20
359.6362127976
 10
134.16840657
 20
359.6111373445
 10
136.3535451581
 20
359.5885226369
 10
138.7624879398
 20
359.5686884451
 10
141.3611726552
 20
359.5519152228
 10
144.1128541087
 20
359.5384401422
 10
146.9786237425
 20
359.5284537398
 10
149.9179598015
 20
359.5220972226
  0
LINE
  5
107
330
1F
100
AcDbEntity
  8
0
  6
Continuous
 62
     7
370
    25
100
AcDbLine
 10
151.3680732107
 20
355.1749898215
 30
0.0
 11
149.9179598015
 21
359.5220972226
 31
0.0
  0
LINE
  5
108
330
1F
100
AcDbEntity
  8
0
  6
Continuous
 62
     7
370
    25
100
AcDbLine
 10
151.3680732107
 20
355.1749898215
 30
0.0
 11
151.4772000071
 21
333.2430769742
 31
0.0
  0
LWPOLYLINE
  5
109
330
1F
100
AcDbEntity
  8
0
  6
Continuous
 62
     7
370
    25
100
AcDbPolyline
 90
       13
 70
   128
 43
0.0
 10
262.3573805918
 20
394.422229555
 10
265.2967166508
 20
394.4158730378
 10
268.1624862847
 20
394.4058866354
 10
270.9141677381
 20
394.3924115548
 10
273.5128524536
 20
394.3756383326
 10
275.9217952353
 20
394.3558041407
 10
278.1069338233
 20
394.3331894331
 10
280.0373705314
 20
394.30811398
 10
281.6858091376
 20
394.2809323463
 10
283.0289408508
 20
394.2520288781
 10
284.0477738949
 20
394.2218122682
 10
284.7279020516
 20
394.1907097771
 10
285.0597083628
 20
394.1591611914
  0
LINE
  5
10A
330
1F
100
AcDbEntity
  8
0
  6
Continuous
 62
     7
370
    25
100
AcDbLine
 10
260.9072671826
 20
398.7693369561
 30
0.0
 11
262.3573805918
 21
394.422229555
 31
0.0
  0
LINE
  5
10B
330
1F
100
AcDbEntity
  8
0
  6
Continuous
 62
     7
370
    25
100
AcDbLine
 10
260.9072671826
 20
398.7693369561
 30
0.0
 11
260.7981403862
 21
420.7012498035
 31
0.0
  0
SPLINE
  5
10C
330
1F
100
AcDbEntity
  8
0
  6
Continuous
 62
     7
370
    25
100
AcDbSpline
210
0.0
220
0.0
230
1.0
 70
     8
 71
     3
 72
    13
 73
     9
 74
     0
 42
0.00000001
 43
0.00000001
 40
0.0
 40
0.0
 40
0.0
 40
0.0
 40
0.1469432005744784
 40
0.2938841073259582
 40
0.4451146978153879
 40
0.5963449041424983
 40
0.7968470915539034
 40
1.0
 40
1.0
 40
1.0
 40
1.0
 10
262.3573805918363
 20
394.4222295550405
 30
0.0
 10
262.8015242886553
 20
392.7473029149485
 30
0.0
 10
263.6898047490906
 20
389.3974757808212
 30
0.0
 10
264.4988753201472
 20
384.2049387158521
 30
0.0
 10
264.8999269985915
 20
378.9171822977577
 30
0.0
 10
264.8210619706506
 20
372.9843697919741
 30
0.0
 10
264.1309142380965
 20
366.4583984175078
 30
0.0
 10
262.9511409178572
 20
361.8442975752754
 30
0.0
 10
262.3573805918427
 20
359.5220972225911
 30
0.0
  0
SPLINE
  5
10D
330
1F
100
AcDbEntity
  8
0
  6
Continuous
 62
     7
370
    25
100
AcDbSpline
210
0.0
220
0.0
230
1.0
 70
     8
 71
     3
 72
    13
 73
     9
 74
     0
 42
0.00000001
 43
0.00000001
 40
0.0
 40
0.0
 40
0.0
 40
0.0
 40
0.1469432005743953
 40
0.2938841073257907
 40
0.4451146978151334
 40
0.5963449041421568
 40
0.7968470915537199
 40
1.0
 40
1.0
 40
1.0
 40
1.0
 10
149.9179598015073
 20
359.5220972225694
 30
0.0
 10
149.4738161046882
 20
361.1970238626612
 30
0.0
 10
148.5855356442531
 20
364.5468509967885
 30
0.0
 10
147.7764650731963
 20
369.7393880617579
 30
0.0
 10
147.3754133947521
 20
375.0271444798521
 30
0.0
 10
147.4542784226931
 20
380.959956985639
 30
0.0
 10
148.1444261552482
 20
387.4859283601123
 30
0.0
 10
149.3241994754905
 20
392.1000292023508
 30
0.0
 10
149.9179598015065
 20
394.4222295550384
 30
0.0
  0
ARC
  5
10E
330
1F
100
AcDbEntity
  8
0
  6
Continuous
 62
     7
370
    25
100
AcDbCircle
 10
206.1376701967
 20
376.9721633888
 30
0.0
 40
70.0
100
AcDbArc
 50
218.6602622186
 51
321.3397377814
  0
ARC
  5
10F
330
1F
100
AcDbEntity
  8
0
  6
Continuous
 62
     7
370
    25
100
AcDbCircle
 10
144.4069740492
 20
375.5546066743
 30
0.0
 40
19.65599545003258
100
AcDbArc
 50
69.7354800181
 51
73.7176071175
  0
SPLINE
  5
110
330
1F
100
AcDbEntity
  8
0
  6
Continuous
 62
     7
370
    25
100
AcDbSpline
210
0.0
220
0.0
230
1.0
 70
     8
 71
     3
 72
    13
 73
     9
 74
     0
 42
0.00000001
 43
0.00000001
 40
0.0
 40
0.0
 40
0.0
 40
0.0
 40
0.1381090453208641
 40
0.2762182853529067
 40
0.4183393515909899
 40
0.5604604460263488
 40
0.7783004899418555
 40
0.9999999999999999
 40
0.9999999999999999
 40
0.9999999999999999
 40
0.9999999999999999
 10
151.2149224969276
 20
393.9939666161433
 30
0.0
 10
150.7806248104234
 20
392.4632647407852
 30
0.0
 10
149.9120288251261
 20
389.4018588320295
 30
0.0
 10
149.0885285015157
 20
384.6473695514676
 30
0.0
 10
148.6350910152378
 20
379.7994188255643
 30
0.0
 10
148.6072900032395
 20
374.013695023904
 30
0.0
 10
149.2387375842207
 20
367.3145890813914
 30
0.0
 10
150.5523493811476
 20
362.419430777996
 30
0.0
 10
151.2149224969285
 20
359.9503601614639
 30
0.0
  0
ARC
  5
111
330
1F
100
AcDbEntity
  8
0
  6
Continuous
 62
     7
370
    25
100
AcDbCircle
 10
144.4069740489
 20
378.389720104
 30
0.0
 40
19.65599545080085
100
AcDbArc
 50
286.2823928826
 51
290.2645199818
  0
SPLINE
  5
112
330
1F
100
AcDbEntity
  8
0
  6
Continuous
 62
     7
370
    25
100
AcDbSpline
210
0.0
220
0.0
230
1.0
 70
     8
 71
     3
 72
    13
 73
     9
 74
     0
 42
0.00000001
 43
0.00000001
 40
0.0
 40
0.0
 40
0.0
 40
0.0
 40
0.1381090453209418
 40
0.2762182853530624
 40
0.4183393515912264
 40
0.5604604460266651
 40
0.7783004899420187
 40
0.9999999999999999
 40
0.9999999999999999
 40
0.9999999999999999
 40
0.9999999999999999
 10
261.0604178964216
 20
359.9503601614849
 30
0.0
 10
261.4947155829254
 20
361.4810620368433
 30
0.0
 10
262.3633115682217
 20
364.5424679455994
 30
0.0
 10
263.1868118918304
 20
369.2969572261613
 30
0.0
 10
263.6402493781067
 20
374.1449079520649
 30
0.0
 10
263.6680503901031
 20
379.9306317537223
 30
0.0
 10
263.0366028091208
 20
386.6297376962278
 30
0.0
 10
261.7229910121953
 20
391.5248959996173
 30
0.0
 10
261.0604178964151
 20
393.9939666161459
 30
0.0
  0
ARC
  5
113
330
1F
100
AcDbEntity
  8
0
  6
Continuous
 62
     7
370
    25
100
AcDbCircle
 10
267.8683663444
 20
375.5546066735
 30
0.0
 40
19.65599545090429
100
AcDbArc
 50
106.2823928826
 51
110.2645199818
  0
ARC
  5
114
330
1F
100
AcDbEntity
  8
0
  6
Continuous
 62
     7
370
    25
100
AcDbCircle
 10
267.8683663445
 20
378.3897201043
 30
0.0
 40
19.65599545102361
100
AcDbArc
 50
249.7354800182
 51
253.7176071174
  0
ARC
  5
115
330
1F
100
AcDbEntity
  8
0
  6
Continuous
 62
     7
370
    25
100
AcDbCircle
 10
206.1376701967
 20
376.9721633888
 30
0.0
 40
70.0
100
AcDbArc
 50
38.6602622186
 51
141.3397377814
  0
ARC
  5
116
330
1F
100
AcDbEntity
  8
0
  6
Continuous
 62
     7
370
    25
100
AcDbCircle
 10
206.1376701967
 20
376.9721633888
 30
0.0
 40
58.94765075495761
100
AcDbArc
 50
21.7015386848
 51
158.2984613152
  0
ARC
  5
117
330
1F
100
AcDbEntity
  8
0
  6
Continuous
 62
     7
370
    25
100
AcDbCircle
 10
206.1376701967
 20
376.9721633888
 30
0.0
 40
58.94765075494606
100
AcDbArc
 50
201.7015386848
 51
338.2984613152
  0
LINE
  5
118
330
1F
100
AcDbEntity
  8
0
  6
Continuous
 62
     7
370
    25
100
AcDbLine
 10
152.7131183043
 20
398.2340366623
 30
0.0
 11
151.3680732107
 21
398.7693369561
 31
0.0
  0
LINE
  5
119
330
1F
100
AcDbEntity
  8
0
  6
Continuous
 62
     7
370
    25
100
AcDbLine
 10
152.7131183043
 20
398.2340366623
 30
0.0
 11
151.2149224969
 21
393.9939666161
 31
0.0
  0
LINE
  5
11A
330
1F
100
AcDbEntity
  8
0
  6
Continuous
 62
     7
370
    25
100
AcDbLine
 10
260.9072671826
 20
355.1749898215
 30
0.0
 11
259.5622220891
 21
355.7102901154
 31
0.0
  0
LINE
  5
11B
330
1F
100
AcDbEntity
  8
0
  6
Continuous
 62
     7
370
    25
100
AcDbLine
 10
259.5622220891
 20
355.7102901154
 30
0.0
 11
261.0604178964
 21
359.9503601615
 31
0.0
  0
LINE
  5
11C
330
1F
100
AcDbEntity
  8
0
  6
Continuous
 62
     7
370
    25
100
AcDbLine
 10
151.3680732107
 20
355.1749898215
 30
0.0
 11
152.7131183043
 21
355.7102901154
 31
0.0
  0
LINE
  5
11D
330
1F
100
AcDbEntity
  8
0
  6
Continuous
 62
     7
370
    25
100
AcDbLine
 10
151.2149224969
 20
359.9503601615
 30
0.0
 11
152.7131183043
 21
355.7102901154
 31
0.0
  0
LINE
  5
11E
330
1F
100
AcDbEntity
  8
0
  6
Continuous
 62
     7
370
    25
100
AcDbLine
 10
259.5622220891
 20
398.2340366622
 30
0.0
 11
260.9072671826
 21
398.7693369561
 31
0.0
  0
LINE
  5
11F
330
1F
100
AcDbEntity
  8
0
  6
Continuous
 62
     7
370
    25
100
AcDbLine
 10
261.0604178964
 20
393.9939666161
 30
0.0
 11
259.5622220891
 21
398.2340366622
 31
0.0
  0
ARC
  5
120
330
1F
100
AcDbEntity
  8
0
  6
Continuous
 62
     7
370
    25
100
AcDbCircle
 10
206.1376701967
 20
376.9721633888
 30
0.0
 40
57.4999999999998
100
AcDbArc
 50
21.7015386848
 51
158.2984613152
  0
ARC
  5
121
330
1F
100
AcDbEntity
  8
0
  6
Continuous
 62
     7
370
    25
100
AcDbCircle
 10
206.1376701967
 20
376.9721633888
 30
0.0
 40
57.49999999999979
100
AcDbArc
 50
201.7015386848
 51
338.2984613152
  0
CIRCLE
  5
122
330
1F
100
AcDbEntity
  8
0
  6
Continuous
 62
     7
370
    25
100
AcDbCircle
 10
206.1376701967
 20
376.9721633888
 30
0.0
 40
56.58715574274748
  0
CIRCLE
  5
123
330
1F
100
AcDbEntity
  8
0
  6
Continuous
 62
     7
370
    25
100
AcDbCircle
 10
206.1376701967
 20
376.9721633888
 30
0.0
 40
45.00000000000003
  0
ARC
  5
124
330
1F
100
AcDbEntity
  8
0
  6
Continuous
 62
     7
370
    25
100
AcDbCircle
 10
94.1376701967
 20
575.9721633888
 30
0.0
 40
10.00000000000011
100
AcDbArc
 50
90.0
 51
180.0
  0
LINE
  5
125
330
1F
100
AcDbEntity
  8
0
  6
Continuous
 62
     7
370
    25
100
AcDbLine
 10
690.1376701967
 20
585.9721633888
 30
0.0
 11
94.1376701967
 21
585.9721633888
 31
0.0
  0
ARC
  5
126
330
1F
100
AcDbEntity
  8
0
  6
Continuous
 62
     7
370
    25
100
AcDbCircle
 10
690.1376701967
 20
575.9721633888
 30
0.0
 40
10.00000000000011
100
AcDbArc
 50
0.0
 51
90.0
  0
LINE
  5
127
330
1F
100
AcDbEntity
  8
0
  6
Continuous
 62
     7
370
    25
100
AcDbLine
 10
700.1376701967
 20
75.9721633888
 30
0.0
 11
700.1376701967
 21
575.9721633888
 31
0.0
  0
ARC
  5
128
330
1F
100
AcDbEntity
  8
0
  6
Continuous
 62
     7
370
    25
100
AcDbCircle
 10
690.1376701967
 20
75.9721633888
 30
0.0
 40
10.00000000000001
100
AcDbArc
 50
270.0
 51
0.0
  0
LINE
  5
129
330
1F
100
AcDbEntity
  8
0
  6
Continuous
 62
     7
370
    25
100
AcDbLine
 10
94.1376701967
 20
65.9721633888
 30
0.0
 11
690.1376701967
 21
65.9721633888
 31
0.0
  0
ARC
  5
12A
330
1F
100
AcDbEntity
  8
0
  6
Continuous
 62
     7
370
    25
100
AcDbCircle
 10
94.1376701967
 20
75.9721633888
 30
0.0
 40
10.00000000000001
100
AcDbArc
 50
180.0
 51
270.0
  0
LINE
  5
12B
330
1F
100
AcDbEntity
  8
0
  6
Continuous
 62
     7
370
    25
100
AcDbLine
 10
84.1376701967
 20
575.9721633888
 30
0.0
 11
84.1376701967
 21
75.9721633888
 31
0.0
  0
LINE
  5
12C
330
1F
100
AcDbEntity
  8
0
  6
Continuous
 62
     7
370
    25
100
AcDbLine
 10
682.1376701967
 20
325.9721633888
 30
0.0
 11
682.1376701967
 21
544.9721633888
 31
0.0
  0
ARC
  5
12D
330
1F
100
AcDbEntity
  8
0
  6
Continuous
 62
     7
370
    25
100
AcDbCircle
 10
659.1376701967
 20
544.9721633888
 30
0.0
 40
23.00000000000011
100
AcDbArc
 50
0.0
 51
90.0
  0
LINE
  5
12E
330
1F
100
AcDbEntity
  8
0
  6
Continuous
 62
     7
370
    25
100
AcDbLine
 10
659.1376701967
 20
567.9721633888
 30
0.0
 11
125.1376701967
 21
567.9721633888
 31
0.0
  0
ARC
  5
12F
330
1F
100
AcDbEntity
  8
0
  6
Continuous
 62
     7
370
    25
100
AcDbCircle
 10
125.1376701967
 20
544.9721633888
 30
0.0
 40
23.00000000000003
100
AcDbArc
 50
90.0
 51
180.0
  0
LINE
  5
130
330
1F
100
AcDbEntity
  8
0
  6
Continuous
 62
     7
370
    25
100
AcDbLine
 10
102.1376701967
 20
544.9721633888
 30
0.0
 11
102.1376701967
 21
106.9721633888
 31
0.0
  0
ARC
  5
131
330
1F
100
AcDbEntity
  8
0
  6
Continuous
 62
     7
370
    25
100
AcDbCircle
 10
125.1376701967
 20
106.9721633888
 30
0.0
 40
23.00000000000001
100
AcDbArc
 50
180.0
 51
270.0
  0
LINE
  5
132
330
1F
100
AcDbEntity
  8
0
  6
Continuous
 62
     7
370
    25
100
AcDbLine
 10
125.1376701967
 20
83.9721633888
 30
0.0
 11
659.1376701967
 21
83.9721633888
 31
0.0
  0
ARC
  5
133
330
1F
100
AcDbEntity
  8
0
  6
Continuous
 62
     7
370
    25
100
AcDbCircle
 10
659.1376701967
 20
106.9721633888
 30
0.0
 40
23.00000000000001
100
AcDbArc
 50
270.0
 51
0.0
  0
LINE
  5
134
330
1F
100
AcDbEntity
  8
0
  6
Continuous
 62
     7
370
    25
100
AcDbLine
 10
682.1376701967
 20
106.9721633888
 30
0.0
 11
682.1376701967
 21
325.9721633888
 31
0.0
  0
LINE
  5
135
330
1F
100
AcDbEntity
  8
0
  6
Continuous
 62
     7
370
    25
100
AcDbLine
 10
682.1376701967
 20
544.9721633888
 30
0.0
 11
681.3715446074
 21
544.9721633888
 31
0.0
  0
LINE
  5
136
330
1F
100
AcDbEntity
  8
0
  6
Continuous
 62
     7
370
    25
100
AcDbLine
 10
682.1376701967
 20
325.9721633888
 30
0.0
 11
681.3715446074
 21
325.9721633888
 31
0.0
  0
LINE
  5
137
330
1F
100
AcDbEntity
  8
0
  6
Continuous
 62
     7
370
    25
100
AcDbLine
 10
681.3715446074
 20
325.9721633888
 30
0.0
 11
681.3715446074
 21
544.9721633888
 31
0.0
  0
LINE
  5
138
330
1F
100
AcDbEntity
  8
0
  6
Continuous
 62
     7
370
    25
100
AcDbLine
 10
682.1376701967
 20
106.9721633888
 30
0.0
 11
681.3715446074
 21
106.9721633888
 31
0.0
  0
LINE
  5
139
330
1F
100
AcDbEntity
  8
0
  6
Continuous
 62
     7
370
    25
100
AcDbLine
 10
681.3715446074
 20
106.9721633888
 30
0.0
 11
681.3715446074
 21
325.9721633888
 31
0.0
  0
LINE
  5
13A
330
1F
100
AcDbEntity
  8
0
  6
Continuous
 62
     7
370
    25
100
AcDbLine
 10
659.1376701967
 20
83.9721633888
 30
0.0
 11
659.1376701967
 21
84.7382889781
 31
0.0
  0
LINE
  5
13B
330
1F
100
AcDbEntity
  8
0
  6
Continuous
 62
     7
370
    25
100
AcDbLine
 10
125.1376701967
 20
83.9721633888
 30
0.0
 11
125.1376701967
 21
84.7382889781
 31
0.0
  0
LINE
  5
13C
330
1F
100
AcDbEntity
  8
0
  6
Continuous
 62
     7
370
    25
100
AcDbLine
 10
125.1376701967
 20
84.7382889781
 30
0.0
 11
659.1376701967
 21
84.7382889781
 31
0.0
  0
LINE
  5
13D
330
1F
100
AcDbEntity
  8
0
  6
Continuous
 62
     7
370
    25
100
AcDbLine
 10
102.1376701967
 20
544.9721633888
 30
0.0
 11
102.903795786
 21
544.9721633888
 31
0.0
  0
LINE
  5
13E
330
1F
100
AcDbEntity
  8
0
  6
Continuous
 62
     7
370
    25
100
AcDbLine
 10
125.1376701967
 20
567.9721633888
 30
0.0
 11
125.1376701967
 21
567.2060377995
 31
0.0
  0
ARC
  5
13F
330
1F
100
AcDbEntity
  8
0
  6
Continuous
 62
     7
370
    25
100
AcDbCircle
 10
125.1376701967
 20
544.9721633888
 30
0.0
 40
22.23387441067959
100
AcDbArc
 50
90.0
 51
180.0
  0
LINE
  5
140
330
1F
100
AcDbEntity
  8
0
  6
Continuous
 62
     7
370
    25
100
AcDbLine
 10
102.1376701967
 20
106.9721633888
 30
0.0
 11
102.903795786
 21
106.9721633888
 31
0.0
  0
LINE
  5
141
330
1F
100
AcDbEntity
  8
0
  6
Continuous
 62
     7
370
    25
100
AcDbLine
 10
102.903795786
 20
544.9721633888
 30
0.0
 11
102.903795786
 21
106.9721633888
 31
0.0
  0
LINE
  5
142
330
1F
100
AcDbEntity
  8
0
  6
Continuous
 62
     7
370
    25
100
AcDbLine
 10
659.1376701967
 20
567.9721633888
 30
0.0
 11
659.1376701967
 21
567.2060377995
 31
0.0
  0
ARC
  5
143
330
1F
100
AcDbEntity
  8
0
  6
Continuous
 62
     7
370
    25
100
AcDbCircle
 10
659.1376701967
 20
544.9721633888
 30
0.0
 40
22.23387441067962
100
AcDbArc
 50
0.0
 51
90.0
  0
ARC
  5
144
330
1F
100
AcDbEntity
  8
0
  6
Continuous
 62
     7
370
    25
100
AcDbCircle
 10
125.1376701967
 20
106.9721633888
 30
0.0
 40
22.23387441067959
100
AcDbArc
 50
180.0
 51
270.0
  0
LINE
  5
145
330
1F
100
AcDbEntity
  8
0
  6
Continuous
 62
     7
370
    25
100
AcDbLine
 10
659.1376701967
 20
567.2060377995
 30
0.0
 11
125.1376701967
 21
567.2060377995
 31
0.0
  0
ARC
  5
146
330
1F
100
AcDbEntity
  8
0
  6
Continuous
 62
     7
370
    25
100
AcDbCircle
 10
659.1376701967
 20
106.9721633888
 30
0.0
 40
22.23387441067962
100
AcDbArc
 50
270.0
 51
0.0
  0
LINE
  5
147
330
1F
100
AcDbEntity
  8
0
  6
Continuous
 62
     7
370
    25
100
AcDbLine
 10
125.1376701967
 20
567.2060377995
 30
0.0
 11
125.1376701967
 21
566.2484283719
 31
0.0
  0
LINE
  5
148
330
1F
100
AcDbEntity
  8
0
  6
Continuous
 62
     7
370
    25
100
AcDbLine
 10
659.1376701967
 20
567.2060377995
 30
0.0
 11
659.1376701967
 21
566.2484283719
 31
0.0
  0
LINE
  5
149
330
1F
100
AcDbEntity
  8
0
  6
Continuous
 62
     7
370
    25
100
AcDbLine
 10
659.1376701967
 20
566.2484283719
 30
0.0
 11
125.1376701967
 21
566.2484283719
 31
0.0
  0
LINE
  5
14A
330
1F
100
AcDbEntity
  8
0
  6
Continuous
 62
     7
370
    25
100
AcDbLine
 10
681.3715446074
 20
106.9721633888
 30
0.0
 11
680.4139351797
 21
106.9721633888
 31
0.0
  0
LINE
  5
14B
330
1F
100
AcDbEntity
  8
0
  6
Continuous
 62
     7
370
    25
100
AcDbLine
 10
659.1376701967
 20
84.7382889781
 30
0.0
 11
659.1376701967
 21
85.6958984057
 31
0.0
  0
ARC
  5
14C
330
1F
100
AcDbEntity
  8
0
  6
Continuous
 62
     7
370
    25
100
AcDbCircle
 10
659.1376701967
 20
106.9721633888
 30
0.0
 40
21.27626498307336
100
AcDbArc
 50
270.0
 51
0.0
  0
LINE
  5
14D
330
1F
100
AcDbEntity
  8
0
  6
Continuous
 62
     7
370
    25
100
AcDbLine
 10
680.4139351797
 20
106.9721633888
 30
0.0
 11
680.4139351797
 21
325.9721633888
 31
0.0
  0
LINE
  5
14E
330
1F
100
AcDbEntity
  8
0
  6
Continuous
 62
     7
370
    25
100
AcDbLine
 10
681.3715446074
 20
325.9721633888
 30
0.0
 11
680.4139351797
 21
325.9721633888
 31
0.0
  0
LINE
  5
14F
330
1F
100
AcDbEntity
  8
0
  6
Continuous
 62
     7
370
    25
100
AcDbLine
 10
681.3715446074
 20
544.9721633888
 30
0.0
 11
680.4139351797
 21
544.9721633888
 31
0.0
  0
LINE
  5
150
330
1F
100
AcDbEntity
  8
0
  6
Continuous
 62
     7
370
    25
100
AcDbLine
 10
680.4139351797
 20
325.9721633888
 30
0.0
 11
680.4139351797
 21
544.9721633888
 31
0.0
  0
ARC
  5
151
330
1F
100
AcDbEntity
  8
0
  6
Continuous
 62
     7
370
    25
100
AcDbCircle
 10
659.1376701967
 20
544.9721633888
 30
0.0
 40
21.27626498307336
100
AcDbArc
 50
0.0
 51
90.0
  0
LINE
  5
152
330
1F
100
AcDbEntity
  8
0
  6
Continuous
 62
     7
370
    25
100
AcDbLine
 10
125.1376701967
 20
84.7382889781
 30
0.0
 11
125.1376701967
 21
85.6958984057
 31
0.0
  0
LINE
  5
153
330
1F
100
AcDbEntity
  8
0
  6
Continuous
 62
     7
370
    25
100
AcDbLine
 10
125.1376701967
 20
85.6958984057
 30
0.0
 11
659.1376701967
 21
85.6958984057
 31
0.0
  0
LINE
  5
154
330
1F
100
AcDbEntity
  8
0
  6
Continuous
 62
     7
370
    25
100
AcDbLine
 10
102.903795786
 20
544.9721633888
 30
0.0
 11
103.8614052136
 21
544.9721633888
 31
0.0
  0
ARC
  5
155
330
1F
100
AcDbEntity
  8
0
  6
Continuous
 62
     7
370
    25
100
AcDbCircle
 10
125.1376701967
 20
544.9721633888
 30
0.0
 40
21.27626498307335
100
AcDbArc
 50
90.0
 51
180.0
  0
LINE
  5
156
330
1F
100
AcDbEntity
  8
0
  6
Continuous
 62
     7
370
    25
100
AcDbLine
 10
102.903795786
 20
106.9721633888
 30
0.0
 11
103.8614052136
 21
106.9721633888
 31
0.0
  0
ARC
  5
157
330
1F
100
AcDbEntity
  8
0
  6
Continuous
 62
     7
370
    25
100
AcDbCircle
 10
125.1376701967
 20
106.9721633888
 30
0.0
 40
21.27626498307333
100
AcDbArc
 50
180.0
 51
270.0
  0
LINE
  5
158
330
1F
100
AcDbEntity
  8
0
  6
Continuous
 62
     7
370
    25
100
AcDbLine
 10
103.8614052136
 20
544.9721633888
 30
0.0
 11
103.8614052136
 21
106.9721633888
 31
0.0
  0
LINE
  5
159
330
1F
100
AcDbEntity
  8
0
  6
Continuous
 62
     7
370
    25
100
AcDbLine
 10
125.1376701967
 20
566.2484283719
 30
0.0
 11
125.1376701967
 21
560.8855492466
 31
0.0
  0
LINE
  5
15A
330
1F
100
AcDbEntity
  8
0
  6
Continuous
 62
     7
370
    25
100
AcDbLine
 10
659.1376701967
 20
566.2484283719
 30
0.0
 11
659.1376701967
 21
560.8855492466
 31
0.0
  0
LINE
  5
15B
330
1F
100
AcDbEntity
  8
0
  6
Continuous
 62
     7
370
    25
100
AcDbLine
 10
659.1376701967
 20
560.8855492466
 30
0.0
 11
125.1376701967
 21
560.8855492466
 31
0.0
  0
LINE
  5
15C
330
1F
100
AcDbEntity
  8
0
  6
Continuous
 62
     7
370
    25
100
AcDbLine
 10
103.8614052136
 20
544.9721633888
 30
0.0
 11
109.2242843388
 21
544.9721633888
 31
0.0
  0
ARC
  5
15D
330
1F
100
AcDbEntity
  8
0
  6
Continuous
 62
     7
370
    25
100
AcDbCircle
 10
125.1376701967
 20
544.9721633888
 30
0.0
 40
15.91338585783032
100
AcDbArc
 50
90.0
 51
180.0
  0
LINE
  5
15E
330
1F
100
AcDbEntity
  8
0
  6
Continuous
 62
     7
370
    25
100
AcDbLine
 10
680.4139351797
 20
544.9721633888
 30
0.0
 11
675.0510560545
 21
544.9721633888
 31
0.0
  0
LINE
  5
15F
330
1F
100
AcDbEntity
  8
0
  6
Continuous
 62
     7
370
    25
100
AcDbLine
 10
680.4139351797
 20
325.9721633888
 30
0.0
 11
675.0510560545
 21
325.9721633888
 31
0.0
  0
LINE
  5
160
330
1F
100
AcDbEntity
  8
0
  6
Continuous
 62
     7
370
    25
100
AcDbLine
 10
675.0510560545
 20
325.9721633888
 30
0.0
 11
675.0510560545
 21
544.9721633888
 31
0.0
  0
LINE
  5
161
330
1F
100
AcDbEntity
  8
0
  6
Continuous
 62
     7
370
    25
100
AcDbLine
 10
125.1376701967
 20
85.6958984057
 30
0.0
 11
125.1376701967
 21
91.058777531
 31
0.0
  0
LINE
  5
162
330
1F
100
AcDbEntity
  8
0
  6
Continuous
 62
     7
370
    25
100
AcDbLine
 10
103.8614052136
 20
106.9721633888
 30
0.0
 11
109.2242843388
 21
106.9721633888
 31
0.0
  0
ARC
  5
163
330
1F
100
AcDbEntity
  8
0
  6
Continuous
 62
     7
370
    25
100
AcDbCircle
 10
125.1376701967
 20
106.9721633888
 30
0.0
 40
15.91338585783031
100
AcDbArc
 50
180.0
 51
270.0
  0
LINE
  5
164
330
1F
100
AcDbEntity
  8
0
  6
Continuous
 62
     7
370
    25
100
AcDbLine
 10
680.4139351797
 20
106.9721633888
 30
0.0
 11
675.0510560545
 21
106.9721633888
 31
0.0
  0
LINE
  5
165
330
1F
100
AcDbEntity
  8
0
  6
Continuous
 62
     7
370
    25
100
AcDbLine
 10
675.0510560545
 20
106.9721633888
 30
0.0
 11
675.0510560545
 21
325.9721633888
 31
0.0
  0
ARC
  5
166
330
1F
100
AcDbEntity
  8
0
  6
Continuous
 62
     7
370
    25
100
AcDbCircle
 10
659.1376701967
 20
544.9721633888
 30
0.0
 40
15.91338585783035
100
AcDbArc
 50
0.0
 51
90.0
  0
LINE
  5
167
330
1F
100
AcDbEntity
  8
0
  6
Continuous
 62
     7
370
    25
100
AcDbLine
 10
659.1376701967
 20
85.6958984057
 30
0.0
 11
659.1376701967
 21
91.058777531
 31
0.0
  0
LINE
  5
168
330
1F
100
AcDbEntity
  8
0
  6
Continuous
 62
     7
370
    25
100
AcDbLine
 10
125.1376701967
 20
91.058777531
 30
0.0
 11
659.1376701967
 21
91.058777531
 31
0.0
  0
ARC
  5
169
330
1F
100
AcDbEntity
  8
0
  6
Continuous
 62
     7
370
    25
100
AcDbCircle
 10
659.1376701967
 20
106.9721633888
 30
0.0
 40
15.91338585783031
100
AcDbArc
 50
270.0
 51
0.0
  0
LINE
  5
16A
330
1F
100
AcDbEntity
  8
0
  6
Continuous
 62
     7
370
    25
100
AcDbLine
 10
109.2242843388
 20
544.9721633888
 30
0.0
 11
109.2242843388
 21
106.9721633888
 31
0.0
  0
LINE
  5
16B
330
1F
100
AcDbEntity
  8
0
  6
Continuous
 62
     7
370
    25
100
AcDbLine
 10
146.6376701967
 20
100.9721633888
 30
0.0
 11
265.6376701967
 21
100.9721633888
 31
0.0
  0
LINE
  5
16C
330
1F
100
AcDbEntity
  8
0
  6
Continuous
 62
     7
370
    25
100
AcDbLine
 10
265.6376701967
 20
95.9721633888
 30
0.0
 11
265.6376701967
 21
100.9721633888
 31
0.0
  0
LINE
  5
16D
330
1F
100
AcDbEntity
  8
0
  6
Continuous
 62
     7
370
    25
100
AcDbLine
 10
265.6376701967
 20
95.9721633888
 30
0.0
 11
146.6376701967
 21
95.9721633888
 31
0.0
  0
LINE
  5
16E
330
1F
100
AcDbEntity
  8
0
  6
Continuous
 62
     7
370
    25
100
AcDbLine
 10
146.6376701967
 20
100.9721633888
 30
0.0
 11
146.6376701967
 21
95.9721633888
 31
0.0
  0
LINE
  5
16F
330
1F
100
AcDbEntity
  8
0
  6
Continuous
 62
     7
370
    25
100
AcDbLine
 10
265.6376701967
 20
487.9721633888
 30
0.0
 11
146.6376701967
 21
487.9721633888
 31
0.0
  0
LINE
  5
170
330
1F
100
AcDbEntity
  8
0
  6
Continuous
 62
     7
370
    25
100
AcDbLine
 10
146.6376701967
 20
487.9721633888
 30
0.0
 11
146.6376701967
 21
492.9721633888
 31
0.0
  0
LINE
  5
171
330
1F
100
AcDbEntity
  8
0
  6
Continuous
 62
     7
370
    25
100
AcDbLine
 10
146.6376701967
 20
492.9721633888
 30
0.0
 11
265.6376701967
 21
492.9721633888
 31
0.0
  0
LINE
  5
172
330
1F
100
AcDbEntity
  8
0
  6
Continuous
 62
     7
370
    25
100
AcDbLine
 10
265.6376701967
 20
492.9721633888
 30
0.0
 11
265.6376701967
 21
487.9721633888
 31
0.0
  0
LINE
  5
173
330
1F
100
AcDbEntity
  8
0
  6
Continuous
 62
     7
370
    25
100
AcDbLine
 10
348.6376701967
 20
492.9721633888
 30
0.0
 11
637.6376701967
 21
492.9721633888
 31
0.0
  0
ARC
  5
174
330
1F
100
AcDbEntity
  8
0
  6
Continuous
 62
     7
370
    25
100
AcDbCircle
 10
348.6376701967
 20
461.4721633888
 30
0.0
 40
31.50000000000006
100
AcDbArc
 50
90.0
 51
180.0
  0
LINE
  5
175
330
1F
100
AcDbEntity
  8
0
  6
Continuous
 62
     7
370
    25
100
AcDbLine
 10
317.1376701967
 20
127.4721633888
 30
0.0
 11
317.1376701967
 21
461.4721633888
 31
0.0
  0
ARC
  5
176
330
1F
100
AcDbEntity
  8
0
  6
Continuous
 62
     7
370
    25
100
AcDbCircle
 10
348.6376701967
 20
127.4721633888
 30
0.0
 40
31.5
100
AcDbArc
 50
180.0
 51
270.0
  0
LINE
  5
177
330
1F
100
AcDbEntity
  8
0
  6
Continuous
 62
     7
370
    25
100
AcDbLine
 10
637.6376701967
 20
95.9721633888
 30
0.0
 11
348.6376701967
 21
95.9721633888
 31
0.0
  0
ARC
  5
178
330
1F
100
AcDbEntity
  8
0
  6
Continuous
 62
     7
370
    25
100
AcDbCircle
 10
637.6376701967
 20
127.4721633888
 30
0.0
 40
31.50000000000011
100
AcDbArc
 50
270.0
 51
0.0
  0
LINE
  5
179
330
1F
100
AcDbEntity
  8
0
  6
Continuous
 62
     7
370
    25
100
AcDbLine
 10
669.1376701967
 20
461.4721633888
 30
0.0
 11
669.1376701967
 21
127.4721633888
 31
0.0
  0
ARC
  5
17A
330
1F
100
AcDbEntity
  8
0
  6
Continuous
 62
     7
370
    25
100
AcDbCircle
 10
637.6376701967
 20
461.4721633888
 30
0.0
 40
31.50000000000011
100
AcDbArc
 50
0.0
 51
90.0
  0
LINE
  5
17B
330
1F
100
AcDbEntity
  8
0
  6
Continuous
 62
     7
370
    25
100
AcDbLine
 10
297.1376701967
 20
461.4721633888
 30
0.0
 11
297.1376701967
 21
127.4721633888
 31
0.0
  0
ARC
  5
17C
330
1F
100
AcDbEntity
  8
0
  6
Continuous
 62
     7
370
    25
100
AcDbCircle
 10
265.6376701967
 20
461.4721633888
 30
0.0
 40
31.50000000000011
100
AcDbArc
 50
0.0
 51
90.0
  0
ARC
  5
17D
330
1F
100
AcDbEntity
  8
0
  6
Continuous
 62
     7
370
    25
100
AcDbCircle
 10
146.6376701967
 20
461.4721633888
 30
0.0
 40
31.50000000000011
100
AcDbArc
 50
90.0
 51
180.0
  0
LINE
  5
17E
330
1F
100
AcDbEntity
  8
0
  6
Continuous
 62
     7
370
    25
100
AcDbLine
 10
115.1376701967
 20
127.4721633888
 30
0.0
 11
115.1376701967
 21
461.4721633888
 31
0.0
  0
ARC
  5
17F
330
1F
100
AcDbEntity
  8
0
  6
Continuous
 62
     7
370
    25
100
AcDbCircle
 10
146.6376701967
 20
127.4721633888
 30
0.0
 40
31.50000000000018
100
AcDbArc
 50
180.0
 51
270.0
  0
ARC
  5
180
330
1F
100
AcDbEntity
  8
0
  6
Continuous
 62
     7
370
    25
100
AcDbCircle
 10
265.6376701967
 20
127.4721633888
 30
0.0
 40
31.50000000000018
100
AcDbArc
 50
270.0
 51
0.0
  0
CIRCLE
  5
181
330
1F
100
AcDbEntity
  8
0
  6
Continuous
 62
     7
370
    25
100
AcDbCircle
 10
307.1376701967
 20
529.9721633888
 30
0.0
 40
17.5
  0
ARC
  5
182
330
1F
100
AcDbEntity
  8
0
  6
Continuous
 62
     7
370
    25
100
AcDbCircle
 10
265.6376701967
 20
127.4721633888
 30
0.0
 40
26.50000000000007
100
AcDbArc
 50
270.0
 51
0.0
  0
LINE
  5
183
330
1F
100
AcDbEntity
  8
0
  6
Continuous
 62
     7
370
    25
100
AcDbLine
 10
297.1376701967
 20
127.4721633888
 30
0.0
 11
292.1376701967
 21
127.4721633888
 31
0.0
  0
LINE
  5
184
330
1F
100
AcDbEntity
  8
0
  6
Continuous
 62
     7
370
    25
100
AcDbLine
 10
669.1376701967
 20
461.4721633888
 30
0.0
 11
664.1376701967
 21
461.4721633888
 31
0.0
  0
ARC
  5
185
330
1F
100
AcDbEntity
  8
0
  6
Continuous
 62
     7
370
    25
100
AcDbCircle
 10
637.6376701967
 20
461.4721633888
 30
0.0
 40
26.5
100
AcDbArc
 50
0.0
 51
90.0
  0
LINE
  5
186
330
1F
100
AcDbEntity
  8
0
  6
Continuous
 62
     7
370
    25
100
AcDbLine
 10
637.6376701967
 20
492.9721633888
 30
0.0
 11
637.6376701967
 21
487.9721633888
 31
0.0
  0
LINE
  5
187
330
1F
100
AcDbEntity
  8
0
  6
Continuous
 62
     7
370
    25
100
AcDbLine
 10
322.1376701967
 20
461.4721633888
 30
0.0
 11
322.1376701967
 21
127.4721633888
 31
0.0
  0
LINE
  5
188
330
1F
100
AcDbEntity
  8
0
  6
Continuous
 62
     7
370
    25
100
AcDbLine
 10
322.1376701967
 20
127.4721633888
 30
0.0
 11
317.1376701967
 21
127.4721633888
 31
0.0
  0
LINE
  5
189
330
1F
100
AcDbEntity
  8
0
  6
Continuous
 62
     7
370
    25
100
AcDbLine
 10
317.1376701967
 20
461.4721633888
 30
0.0
 11
322.1376701967
 21
461.4721633888
 31
0.0
  0
ARC
  5
18A
330
1F
100
AcDbEntity
  8
0
  6
Continuous
 62
     7
370
    25
100
AcDbCircle
 10
348.6376701967
 20
127.4721633888
 30
0.0
 40
26.50000000000007
100
AcDbArc
 50
180.0
 51
270.0
  0
LINE
  5
18B
330
1F
100
AcDbEntity
  8
0
  6
Continuous
 62
     7
370
    25
100
AcDbLine
 10
348.6376701967
 20
100.9721633888
 30
0.0
 11
348.6376701967
 21
95.9721633888
 31
0.0
  0
ARC
  5
18C
330
1F
100
AcDbEntity
  8
0
  6
Continuous
 62
     7
370
    25
100
AcDbCircle
 10
146.6376701967
 20
461.4721633888
 30
0.0
 40
26.5
100
AcDbArc
 50
90.0
 51
180.0
  0
LINE
  5
18D
330
1F
100
AcDbEntity
  8
0
  6
Continuous
 62
     7
370
    25
100
AcDbLine
 10
120.1376701967
 20
461.4721633888
 30
0.0
 11
115.1376701967
 21
461.4721633888
 31
0.0
  0
LINE
  5
18E
330
1F
100
AcDbEntity
  8
0
  6
Continuous
 62
     7
370
    25
100
AcDbLine
 10
297.1376701967
 20
461.4721633888
 30
0.0
 11
292.1376701967
 21
461.4721633888
 31
0.0
  0
ARC
  5
18F
330
1F
100
AcDbEntity
  8
0
  6
Continuous
 62
     7
370
    25
100
AcDbCircle
 10
265.6376701967
 20
461.4721633888
 30
0.0
 40
26.5
100
AcDbArc
 50
0.0
 51
90.0
  0
LINE
  5
190
330
1F
100
AcDbEntity
  8
0
  6
Continuous
 62
     7
370
    25
100
AcDbLine
 10
120.1376701967
 20
461.4721633888
 30
0.0
 11
120.1376701967
 21
127.4721633888
 31
0.0
  0
LINE
  5
191
330
1F
100
AcDbEntity
  8
0
  6
Continuous
 62
     7
370
    25
100
AcDbLine
 10
120.1376701967
 20
127.4721633888
 30
0.0
 11
115.1376701967
 21
127.4721633888
 31
0.0
  0
LINE
  5
192
330
1F
100
AcDbEntity
  8
0
  6
Continuous
 62
     7
370
    25
100
AcDbLine
 10
292.1376701967
 20
127.4721633888
 30
0.0
 11
292.1376701967
 21
461.4721633888
 31
0.0
  0
ARC
  5
193
330
1F
100
AcDbEntity
  8
0
  6
Continuous
 62
     7
370
    25
100
AcDbCircle
 10
146.6376701967
 20
127.4721633888
 30
0.0
 40
26.50000000000007
100
AcDbArc
 50
180.0
 51
270.0
  0
LINE
  5
194
330
1F
100
AcDbEntity
  8
0
  6
Continuous
 62
     7
370
    25
100
AcDbLine
 10
664.1376701967
 20
127.4721633888
 30
0.0
 11
664.1376701967
 21
461.4721633888
 31
0.0
  0
LINE
  5
195
330
1F
100
AcDbEntity
  8
0
  6
Continuous
 62
     7
370
    25
100
AcDbLine
 10
664.1376701967
 20
127.4721633888
 30
0.0
 11
669.1376701967
 21
127.4721633888
 31
0.0
  0
ARC
  5
196
330
1F
100
AcDbEntity
  8
0
  6
Continuous
 62
     7
370
    25
100
AcDbCircle
 10
637.6376701967
 20
127.4721633888
 30
0.0
 40
26.50000000000023
100
AcDbArc
 50
270.0
 51
0.0
  0
LINE
  5
197
330
1F
100
AcDbEntity
  8
0
  6
Continuous
 62
     7
370
    25
100
AcDbLine
 10
637.6376701967
 20
100.9721633888
 30
0.0
 11
637.6376701967
 21
95.9721633888
 31
0.0
  0
LINE
  5
198
330
1F
100
AcDbEntity
  8
0
  6
Continuous
 62
     7
370
    25
100
AcDbLine
 10
348.6376701967
 20
492.9721633888
 30
0.0
 11
348.6376701967
 21
487.9721633888
 31
0.0
  0
ARC
  5
199
330
1F
100
AcDbEntity
  8
0
  6
Continuous
 62
     7
370
    25
100
AcDbCircle
 10
348.6376701967
 20
461.4721633888
 30
0.0
 40
26.50000000000006
100
AcDbArc
 50
90.0
 51
180.0
  0
LINE
  5
19A
330
1F
100
AcDbEntity
  8
0
  6
Continuous
 62
     7
370
    25
100
AcDbLine
 10
348.6376701967
 20
100.9721633888
 30
0.0
 11
637.6376701967
 21
100.9721633888
 31
0.0
  0
LINE
  5
19B
330
1F
100
AcDbEntity
  8
0
  6
Continuous
 62
     7
370
    25
100
AcDbLine
 10
637.6376701967
 20
487.9721633888
 30
0.0
 11
348.6376701967
 21
487.9721633888
 31
0.0
  0
LINE
  5
19C
330
1F
100
AcDbEntity
  8
0
  6
Continuous
 62
     8
370
    25
100
AcDbLine
 10
638.1376701967
 20
102.0466608409
 30
0.0
 11
638.1376701967
 21
100.9768807898
 31
0.0
  0
LINE
  5
19D
330
1F
100
AcDbEntity
  8
0
  6
Continuous
 62
     8
370
    25
100
AcDbLine
 10
348.1376701967
 20
102.0466608409
 30
0.0
 11
348.1376701967
 21
100.9768807898
 31
0.0
  0
LINE
  5
19E
330
1F
100
AcDbEntity
  8
0
  6
Continuous
 62
     8
370
    25
100
AcDbLine
 10
664.1329527957
 20
126.9721633888
 30
0.0
 11
663.0631727446
 21
126.9721633888
 31
0.0
  0
LINE
  5
19F
330
1F
100
AcDbEntity
  8
0
  6
Continuous
 62
     8
370
    25
100
AcDbLine
 10
664.1329527957
 20
461.9721633888
 30
0.0
 11
663.0631727446
 21
461.9721633888
 31
0.0
  0
LINE
  5
1A0
330
1F
100
AcDbEntity
  8
0
  6
Continuous
 62
     8
370
    25
100
AcDbLine
 10
323.2121676487
 20
461.9721633888
 30
0.0
 11
322.1423875977
 21
461.9721633888
 31
0.0
  0
LINE
  5
1A1
330
1F
100
AcDbEntity
  8
0
  6
Continuous
 62
     8
370
    25
100
AcDbLine
 10
348.1376701967
 20
487.9674459878
 30
0.0
 11
348.1376701967
 21
486.8976659367
 31
0.0
  0
LINE
  5
1A2
330
1F
100
AcDbEntity
  8
0
  6
Continuous
 62
     8
370
    25
100
AcDbLine
 10
323.2121676487
 20
126.9721633888
 30
0.0
 11
322.1423875977
 21
126.9721633888
 31
0.0
  0
LINE
  5
1A3
330
1F
100
AcDbEntity
  8
0
  6
Continuous
 62
     8
370
    25
100
AcDbLine
 10
638.1376701967
 20
487.9674459878
 30
0.0
 11
638.1376701967
 21
486.8976659367
 31
0.0
  0
LINE
  5
1A4
330
1F
100
AcDbEntity
  8
0
  6
Continuous
 62
     8
370
    25
100
AcDbLine
 10
266.1376701967
 20
102.0466608409
 30
0.0
 11
266.1376701967
 21
100.9768807898
 31
0.0
  0
LINE
  5
1A5
330
1F
100
AcDbEntity
  8
0
  6
Continuous
 62
     8
370
    25
100
AcDbLine
 10
146.1376701967
 20
102.0466608409
 30
0.0
 11
146.1376701967
 21
100.9768807898
 31
0.0
  0
LINE
  5
1A6
330
1F
100
AcDbEntity
  8
0
  6
Continuous
 62
     8
370
    25
100
AcDbLine
 10
292.1329527957
 20
126.9721633888
 30
0.0
 11
291.0631727446
 21
126.9721633888
 31
0.0
  0
LINE
  5
1A7
330
1F
100
AcDbEntity
  8
0
  6
Continuous
 62
     8
370
    25
100
AcDbLine
 10
292.1329527957
 20
461.9721633888
 30
0.0
 11
291.0631727446
 21
461.9721633888
 31
0.0
  0
LINE
  5
1A8
330
1F
100
AcDbEntity
  8
0
  6
Continuous
 62
     8
370
    25
100
AcDbLine
 10
266.1376701967
 20
487.9674459878
 30
0.0
 11
266.1376701967
 21
486.8976659367
 31
0.0
  0
LINE
  5
1A9
330
1F
100
AcDbEntity
  8
0
  6
Continuous
 62
     8
370
    25
100
AcDbLine
 10
121.2121676487
 20
461.9721633888
 30
0.0
 11
120.1423875977
 21
461.9721633888
 31
0.0
  0
LINE
  5
1AA
330
1F
100
AcDbEntity
  8
0
  6
Continuous
 62
     8
370
    25
100
AcDbLine
 10
146.1376701967
 20
487.9674459878
 30
0.0
 11
146.1376701967
 21
486.8976659367
 31
0.0
  0
LINE
  5
1AB
330
1F
100
AcDbEntity
  8
0
  6
Continuous
 62
     8
370
    25
100
AcDbLine
 10
121.2121676487
 20
126.9721633888
 30
0.0
 11
120.1423875977
 21
126.9721633888
 31
0.0
  0
ENDSEC
  0
SECTION
  2
OBJECTS
  0
DICTIONARY
  5
C
330
0
100
AcDbDictionary
281
     1
  3
ACAD_GROUP
350
D
  3
ACAD_LAYOUT
350
1A
  3
ACAD_MLINESTYLE
350
17
  3
ACAD_PLOTSETTINGS
350
19
  3
ACAD_PLOTSTYLENAME
350
E
  3
ACAD_SCALELIST
350
47
  3
DWGPROPS
350
1AC
  0
DICTIONARY
  5
D
102
{ACAD_REACTORS
330
C
102
}
330
C
100
AcDbDictionary
281
     1
  0
DICTIONARY
  5
1A
102
{ACAD_REACTORS
330
C
102
}
330
C
100
AcDbDictionary
281
     1
  3
Layout1
350
1E
  3
Layout2
350
26
  3
Model
350
22
  0
DICTIONARY
  5
17
102
{ACAD_REACTORS
330
C
102
}
330
C
100
AcDbDictionary
281
     1
  3
Standard
350
18
  0
DICTIONARY
  5
19
102
{ACAD_REACTORS
330
C
102
}
330
C
100
AcDbDictionary
281
     1
  0
ACDBDICTIONARYWDFLT
  5
E
102
{ACAD_REACTORS
330
C
102
}
330
C
100
AcDbDictionary
281
     1
  3
Normal
350
F
100
AcDbDictionaryWithDefault
340
F
  0
DICTIONARY
  5
47
102
{ACAD_REACTORS
330
C
102
}
330
C
100
AcDbDictionary
281
     1
  3
A0
350
48
  3
A1
350
49
  3
A2
350
4A
  3
A3
350
4B
  3
A4
350
4C
  3
A5
350
4D
  3
A6
350
4E
  3
A7
350
4F
  3
A8
350
50
  3
A9
350
51
  3
B0
350
52
  3
B1
350
53
  3
B2
350
54
  3
B3
350
55
  3
B4
350
56
  3
B5
350
57
  3
B6
350
58
  3
B7
350
59
  3
B8
350
5A
  3
B9
350
5B
  3
C0
350
5C
  3
C1
350
5D
  3
C2
350
5E
  3
C3
350
5F
  3
C4
350
60
  3
C5
350
61
  3
C6
350
62
  3
C7
350
63
  3
C8
350
64
  3
C9
350
65
  3
D0
350
66
  3
D1
350
67
  3
D2
350
68
  0
XRECORD
  5
1AC
102
{ACAD_REACTORS
330
C
102
}
330
C
100
AcDbXrecord
280
     1
  1
DWGPROPS COOKIE
  2

  3

  4

  6

  7

  8
KalleMourujärvi
  9

300
=
301
=
302
=
303
=
304
=
305
=
306
=
307
=
308
=
309
=
 40
0.0
 41
2460130.410040451
 42
2460130.410040903
  1

 90
        0
  0
LAYOUT
  5
1E
102
{ACAD_REACTORS
330
1A
102
}
330
1A
100
AcDbPlotSettings
  1

  2
none_device
  4

  6

 40
0.0
 41
0.0
 42
0.0
 43
0.0
 44
0.0
 45
0.0
 46
0.0
 47
0.0
 48
0.0
 49
0.0
140
0.0
141
0.0
142
1.0
143
1.0
 70
   688
 72
     1
 73
     0
 74
     5
  7

 75
    16
147
1.0
148
0.0
149
0.0
100
AcDbLayout
  1
Layout1
 70
     1
 71
     1
 10
0.0
 20
0.0
 11
420.0
 21
297.0
 12
0.0
 22
0.0
 32
0.0
 14
1.0000000000E+20
 24
1.0000000000E+20
 34
1.0000000000E+20
 15
-1.0000000000E+20
 25
-1.0000000000E+20
 35
-1.0000000000E+20
146
0.0
 13
0.0
 23
0.0
 33
0.0
 16
1.0
 26
0.0
 36
0.0
 17
0.0
 27
1.0
 37
0.0
 76
     0
330
1B
  0
LAYOUT
  5
26
102
{ACAD_REACTORS
330
1A
102
}
330
1A
100
AcDbPlotSettings
  1

  2
none_device
  4

  6

 40
0.0
 41
0.0
 42
0.0
 43
0.0
 44
0.0
 45
0.0
 46
0.0
 47
0.0
 48
0.0
 49
0.0
140
0.0
141
0.0
142
1.0
143
1.0
 70
   688
 72
     1
 73
     0
 74
     5
  7

 75
    16
147
1.0
148
0.0
149
0.0
100
AcDbLayout
  1
Layout2
 70
     1
 71
     2
 10
0.0
 20
0.0
 11
0.0
 21
0.0
 12
0.0
 22
0.0
 32
0.0
 14
0.0
 24
0.0
 34
0.0
 15
0.0
 25
0.0
 35
0.0
146
0.0
 13
0.0
 23
0.0
 33
0.0
 16
1.0
 26
0.0
 36
0.0
 17
0.0
 27
1.0
 37
0.0
 76
     0
330
23
  0
LAYOUT
  5
22
102
{ACAD_REACTORS
330
1A
102
}
330
1A
100
AcDbPlotSettings
  1

  2
none_device
  4
Letter_(8.50_x_11.00_Inches)
  6

 40
6.35
 41
6.35
 42
6.35000508
 43
6.35000508
 44
215.9
 45
279.4
 46
0.0
 47
0.0
 48
0.0
 49
0.0
140
0.0
141
0.0
142
1.0
143
1.0
 70
  1712
 72
     1
 73
     0
 74
     0
  7

 75
     0
147
1.0
148
0.0
149
0.0
100
AcDbLayout
  1
Model
 70
     1
 71
     0
 10
0.0
 20
0.0
 11
800.0
 21
650.0
 12
0.0
 22
0.0
 32
0.0
 14
0.0
 24
0.0
 34
0.0
 15
800.0
 25
650.0
 35
0.0
146
0.0
 13
0.0
 23
0.0
 33
0.0
 16
1.0
 26
0.0
 36
0.0
 17
0.0
 27
1.0
 37
0.0
 76
     0
330
1F
331
29
  0
MLINESTYLE
  5
18
102
{ACAD_REACTORS
330
17
102
}
330
17
100
AcDbMlineStyle
  2
Standard
 70
     0
  3

 62
   256
 51
90.0
 52
90.0
 71
     2
 49
0.5
 62
   256
  6
BYLAYER
 49
-0.5
 62
   256
  6
BYLAYER
  0
ACDBPLACEHOLDER
  5
F
102
{ACAD_REACTORS
330
E
102
}
330
E
  0
SCALE
  5
48
102
{ACAD_REACTORS
330
47
102
}
330
47
100
AcDbScale
 70
     0
300
1:1
140
1.0
141
1.0
290
     1
  0
SCALE
  5
49
102
{ACAD_REACTORS
330
47
102
}
330
47
100
AcDbScale
 70
     0
300
1:2
140
1.0
141
2.0
290
     0
  0
SCALE
  5
4A
102
{ACAD_REACTORS
330
47
102
}
330
47
100
AcDbScale
 70
     0
300
1:4
140
1.0
141
4.0
290
     0
  0
SCALE
  5
4B
102
{ACAD_REACTORS
330
47
102
}
330
47
100
AcDbScale
 70
     0
300
1:5
140
1.0
141
5.0
290
     0
  0
SCALE
  5
4C
102
{ACAD_REACTORS
330
47
102
}
330
47
100
AcDbScale
 70
     0
300
1:8
140
1.0
141
8.0
290
     0
  0
SCALE
  5
4D
102
{ACAD_REACTORS
330
47
102
}
330
47
100
AcDbScale
 70
     0
300
1:10
140
1.0
141
10.0
290
     0
  0
SCALE
  5
4E
102
{ACAD_REACTORS
330
47
102
}
330
47
100
AcDbScale
 70
     0
300
1:16
140
1.0
141
16.0
290
     0
  0
SCALE
  5
4F
102
{ACAD_REACTORS
330
47
102
}
330
47
100
AcDbScale
 70
     0
300
1:20
140
1.0
141
20.0
290
     0
  0
SCALE
  5
50
102
{ACAD_REACTORS
330
47
102
}
330
47
100
AcDbScale
 70
     0
300
1:30
140
1.0
141
30.0
290
     0
  0
SCALE
  5
51
102
{ACAD_REACTORS
330
47
102
}
330
47
100
AcDbScale
 70
     0
300
1:40
140
1.0
141
40.0
290
     0
  0
SCALE
  5
52
102
{ACAD_REACTORS
330
47
102
}
330
47
100
AcDbScale
 70
     0
300
1:50
140
1.0
141
50.0
290
     0
  0
SCALE
  5
53
102
{ACAD_REACTORS
330
47
102
}
330
47
100
AcDbScale
 70
     0
300
1:100
140
1.0
141
100.0
290
     0
  0
SCALE
  5
54
102
{ACAD_REACTORS
330
47
102
}
330
47
100
AcDbScale
 70
     0
300
2:1
140
2.0
141
1.0
290
     0
  0
SCALE
  5
55
102
{ACAD_REACTORS
330
47
102
}
330
47
100
AcDbScale
 70
     0
300
4:1
140
4.0
141
1.0
290
     0
  0
SCALE
  5
56
102
{ACAD_REACTORS
330
47
102
}
330
47
100
AcDbScale
 70
     0
300
8:1
140
8.0
141
1.0
290
     0
  0
SCALE
  5
57
102
{ACAD_REACTORS
330
47
102
}
330
47
100
AcDbScale
 70
     0
300
10:1
140
10.0
141
1.0
290
     0
  0
SCALE
  5
58
102
{ACAD_REACTORS
330
47
102
}
330
47
100
AcDbScale
 70
     0
300
100:1
140
100.0
141
1.0
290
     0
  0
SCALE
  5
59
102
{ACAD_REACTORS
330
47
102
}
330
47
100
AcDbScale
 70
     0
300
1/128" = 1'-0"
140
0.0078125
141
12.0
290
     0
  0
SCALE
  5
5A
102
{ACAD_REACTORS
330
47
102
}
330
47
100
AcDbScale
 70
     0
300
1/64" = 1'-0"
140
0.015625
141
12.0
290
     0
  0
SCALE
  5
5B
102
{ACAD_REACTORS
330
47
102
}
330
47
100
AcDbScale
 70
     0
300
1/32" = 1'-0"
140
0.03125
141
12.0
290
     0
  0
SCALE
  5
5C
102
{ACAD_REACTORS
330
47
102
}
330
47
100
AcDbScale
 70
     0
300
1/16" = 1'-0"
140
0.0625
141
12.0
290
     0
  0
SCALE
  5
5D
102
{ACAD_REACTORS
330
47
102
}
330
47
100
AcDbScale
 70
     0
300
3/32" = 1'-0"
140
0.09375
141
12.0
290
     0
  0
SCALE
  5
5E
102
{ACAD_REACTORS
330
47
102
}
330
47
100
AcDbScale
 70
     0
300
1/8" = 1'-0"
140
0.125
141
12.0
290
     0
  0
SCALE
  5
5F
102
{ACAD_REACTORS
330
47
102
}
330
47
100
AcDbScale
 70
     0
300
3/16" = 1'-0"
140
0.1875
141
12.0
290
     0
  0
SCALE
  5
60
102
{ACAD_REACTORS
330
47
102
}
330
47
100
AcDbScale
 70
     0
300
1/4" = 1'-0"
140
0.25
141
12.0
290
     0
  0
SCALE
  5
61
102
{ACAD_REACTORS
330
47
102
}
330
47
100
AcDbScale
 70
     0
300
3/8" = 1'-0"
140
0.375
141
12.0
290
     0
  0
SCALE
  5
62
102
{ACAD_REACTORS
330
47
102
}
330
47
100
AcDbScale
 70
     0
300
1/2" = 1'-0"
140
0.5
141
12.0
290
     0
  0
SCALE
  5
63
102
{ACAD_REACTORS
330
47
102
}
330
47
100
AcDbScale
 70
     0
300
3/4" = 1'-0"
140
0.75
141
12.0
290
     0
  0
SCALE
  5
64
102
{ACAD_REACTORS
330
47
102
}
330
47
100
AcDbScale
 70
     0
300
1" = 1'-0"
140
1.0
141
12.0
290
     0
  0
SCALE
  5
65
102
{ACAD_REACTORS
330
47
102
}
330
47
100
AcDbScale
 70
     0
300
1-1/2" = 1'-0"
140
1.5
141
12.0
290
     0
  0
SCALE
  5
66
102
{ACAD_REACTORS
330
47
102
}
330
47
100
AcDbScale
 70
     0
300
3" = 1'-0"
140
3.0
141
12.0
290
     0
  0
SCALE
  5
67
102
{ACAD_REACTORS
330
47
102
}
330
47
100
AcDbScale
 70
     0
300
6" = 1'-0"
140
6.0
141
12.0
290
     0
  0
SCALE
  5
68
102
{ACAD_REACTORS
330
47
102
}
330
47
100
AcDbScale
 70
     0
300
1'-0" = 1'-0"
140
12.0
141
12.0
290
     0
  0
ENDSEC
  0
EOF
