  0
SECTION
  2
HEADER
  9
$ACADVER
  1
AC1015
  9
$ACADMAINTVER
 70
     6
  9
$DWGCODEPAGE
  3
ANSI_1252
  9
$INSBASE
 10
0.0
 20
0.0
 30
0.0
  9
$EXTMIN
 10
0.0
 20
0.0
 30
0.0
  9
$EXTMAX
 10
800.0
 20
650.0
 30
0.0
  9
$LIMMIN
 10
0.0
 20
0.0
  9
$LIMMAX
 10
800.0
 20
650.0
  9
$ORTHOMODE
 70
     0
  9
$REGENMODE
 70
     1
  9
$FILLMODE
 70
     1
  9
$QTEXTMODE
 70
     0
  9
$MIRRTEXT
 70
     1
  9
$LTSCALE
 40
1.0
  9
$ATTMODE
 70
     1
  9
$TEXTSIZE
 40
3.5
  9
$TRACEWID
 40
1.0
  9
$TEXTSTYLE
  7
Standard
  9
$CLAYER
  8
0
  9
$CELTYPE
  6
ByLayer
  9
$CECOLOR
 62
   256
  9
$CELTSCALE
 40
1.0
  9
$DISPSILH
 70
     0
  9
$DIMSCALE
 40
1.0
  9
$DIMASZ
 40
3.302
  9
$DIMEXO
 40
1.0
  9
$DIMDLI
 40
3.75
  9
$DIMRND
 40
0.0
  9
$DIMDLE
 40
0.0
  9
$DIMEXE
 40
1.0
  9
$DIMTP
 40
0.0
  9
$DIMTM
 40
0.0
  9
$DIMTXT
 40
3.5
  9
$DIMCEN
 40
2.5
  9
$DIMTSZ
 40
0.0
  9
$DIMTOL
 70
     0
  9
$DIMLIM
 70
     0
  9
$DIMTIH
 70
     1
  9
$DIMTOH
 70
     1
  9
$DIMSE1
 70
     0
  9
$DIMSE2
 70
     0
  9
$DIMTAD
 70
     1
  9
$DIMZIN
 70
     1
  9
$DIMBLK
  1

  9
$DIMASO
 70
     1
  9
$DIMSHO
 70
     1
  9
$DIMPOST
  1

  9
$DIMAPOST
  1

  9
$DIMALT
 70
     0
  9
$DIMALTD
 70
     3
  9
$DIMALTF
 40
0.0393700787
  9
$DIMLFAC
 40
1.0
  9
$DIMTOFL
 70
     1
  9
$DIMTVP
 40
0.0
  9
$DIMTIX
 70
     0
  9
$DIMSOXD
 70
     0
  9
$DIMSAH
 70
     0
  9
$DIMBLK1
  1

  9
$DIMBLK2
  1

  9
$DIMSTYLE
  2
ISO-25
  9
$DIMCLRD
 70
     0
  9
$DIMCLRE
 70
     0
  9
$DIMCLRT
 70
     0
  9
$DIMTFAC
 40
1.0
  9
$DIMGAP
 40
1.524
  9
$DIMJUST
 70
     0
  9
$DIMSD1
 70
     0
  9
$DIMSD2
 70
     0
  9
$DIMTOLJ
 70
     0
  9
$DIMTZIN
 70
     1
  9
$DIMALTZ
 70
     0
  9
$DIMALTTZ
 70
     0
  9
$DIMUPT
 70
     0
  9
$DIMDEC
 70
     2
  9
$DIMTDEC
 70
     2
  9
$DIMALTU
 70
     2
  9
$DIMALTTD
 70
     3
  9
$DIMTXSTY
  7
Standard
  9
$DIMAUNIT
 70
     0
  9
$DIMADEC
 70
     2
  9
$DIMALTRND
 40
0.0
  9
$DIMAZIN
 70
     0
  9
$DIMDSEP
 70
    44
  9
$DIMATFIT
 70
     3
  9
$DIMFRAC
 70
     0
  9
$DIMLDRBLK
  1

  9
$DIMLUNIT
 70
     2
  9
$DIMLWD
 70
    -2
  9
$DIMLWE
 70
    -2
  9
$DIMTMOVE
 70
     0
  9
$LUNITS
 70
     2
  9
$LUPREC
 70
     1
  9
$SKETCHINC
 40
1.0
  9
$FILLETRAD
 40
10.0
  9
$AUNITS
 70
     0
  9
$AUPREC
 70
     1
  9
$MENU
  1
.
  9
$ELEVATION
 40
0.0
  9
$PELEVATION
 40
0.0
  9
$THICKNESS
 40
0.0
  9
$LIMCHECK
 70
     0
  9
$CHAMFERA
 40
0.0
  9
$CHAMFERB
 40
0.0
  9
$CHAMFERC
 40
0.0
  9
$CHAMFERD
 40
0.0
  9
$SKPOLY
 70
     0
  9
$TDCREATE
 40
2460130.533400498
  9
$TDUCREATE
 40
2460130.408400498
  9
$TDUPDATE
 40
2460130.533401018
  9
$TDUUPDATE
 40
2460130.408401018
  9
$TDINDWG
 40
0.0000000116
  9
$TDUSRTIMER
 40
0.0000000116
  9
$USRTIMER
 70
     1
  9
$ANGBASE
 50
0.0
  9
$ANGDIR
 70
     0
  9
$PDMODE
 70
     0
  9
$PDSIZE
 40
-1.0
  9
$PLINEWID
 40
0.0
  9
$SPLFRAME
 70
     0
  9
$SPLINETYPE
 70
     6
  9
$SPLINESEGS
 70
     8
  9
$HANDSEED
  5
1AD
  9
$SURFTAB1
 70
     6
  9
$SURFTAB2
 70
     6
  9
$SURFTYPE
 70
     6
  9
$SURFU
 70
     6
  9
$SURFV
 70
     6
  9
$UCSBASE
  2

  9
$UCSNAME
  2

  9
$UCSORG
 10
0.0
 20
0.0
 30
0.0
  9
$UCSXDIR
 10
1.0
 20
0.0
 30
0.0
  9
$UCSYDIR
 10
0.0
 20
1.0
 30
0.0
  9
$UCSORTHOREF
  2

  9
$UCSORTHOVIEW
 70
     0
  9
$UCSORGTOP
 10
0.0
 20
0.0
 30
0.0
  9
$UCSORGBOTTOM
 10
0.0
 20
0.0
 30
0.0
  9
$UCSORGLEFT
 10
0.0
 20
0.0
 30
0.0
  9
$UCSORGRIGHT
 10
0.0
 20
0.0
 30
0.0
  9
$UCSORGFRONT
 10
0.0
 20
0.0
 30
0.0
  9
$UCSORGBACK
 10
0.0
 20
0.0
 30
0.0
  9
$PUCSBASE
  2

  9
$PUCSNAME
  2

  9
$PUCSORG
 10
0.0
 20
0.0
 30
0.0
  9
$PUCSXDIR
 10
1.0
 20
0.0
 30
0.0
  9
$PUCSYDIR
 10
0.0
 20
1.0
 30
0.0
  9
$PUCSORTHOREF
  2

  9
$PUCSORTHOVIEW
 70
     0
  9
$PUCSORGTOP
 10
0.0
 20
0.0
 30
0.0
  9
$PUCSORGBOTTOM
 10
0.0
 20
0.0
 30
0.0
  9
$PUCSORGLEFT
 10
0.0
 20
0.0
 30
0.0
  9
$PUCSORGRIGHT
 10
0.0
 20
0.0
 30
0.0
  9
$PUCSORGFRONT
 10
0.0
 20
0.0
 30
0.0
  9
$PUCSORGBACK
 10
0.0
 20
0.0
 30
0.0
  9
$USERI1
 70
     0
  9
$USERI2
 70
     0
  9
$USERI3
 70
     0
  9
$USERI4
 70
     0
  9
$USERI5
 70
     0
  9
$USERR1
 40
0.0
  9
$USERR2
 40
0.0
  9
$USERR3
 40
0.0
  9
$USERR4
 40
0.0
  9
$USERR5
 40
0.0
  9
$WORLDVIEW
 70
     1
  9
$SHADEDGE
 70
     3
  9
$SHADEDIF
 70
    70
  9
$TILEMODE
 70
     1
  9
$MAXACTVP
 70
    64
  9
$PINSBASE
 10
0.0
 20
0.0
 30
0.0
  9
$PLIMCHECK
 70
     0
  9
$PEXTMIN
 10
1.0000000000E+20
 20
1.0000000000E+20
 30
1.0000000000E+20
  9
$PEXTMAX
 10
-1.0000000000E+20
 20
-1.0000000000E+20
 30
-1.0000000000E+20
  9
$PLIMMIN
 10
0.0
 20
0.0
  9
$PLIMMAX
 10
420.0
 20
297.0
  9
$UNITMODE
 70
     0
  9
$VISRETAIN
 70
     1
  9
$PLINEGEN
 70
     0
  9
$PSLTSCALE
 70
     1
  9
$TREEDEPTH
 70
  3020
  9
$CMLSTYLE
  2
Standard
  9
$CMLJUST
 70
     0
  9
$CMLSCALE
 40
20.0
  9
$PROXYGRAPHICS
 70
     1
  9
$MEASUREMENT
 70
     1
  9
$CELWEIGHT
370
    -1
  9
$ENDCAPS
280
     0
  9
$JOINSTYLE
280
     0
  9
$LWDISPLAY
290
     1
  9
$INSUNITS
 70
     4
  9
$HYPERLINKBASE
  1

  9
$STYLESHEET
  1

  9
$XEDIT
290
     1
  9
$CEPSNTYPE
380
     0
  9
$PSTYLEMODE
290
     1
  9
$FINGERPRINTGUID
  2
{c9d3e035-941f-48fd-9f5e-40e3df504da7}
  9
$VERSIONGUID
  2
{FAEB1C32-E019-11D5-929B-00C0DF256EC4}
  9
$EXTNAMES
290
     1
  9
$PSVPSCALE
 40
0.0
  9
$OLESTARTUP
290
     0
  0
ENDSEC
  0
SECTION
  2
CLASSES
  0
CLASS
  1
ACDBDICTIONARYWDFLT
  2
AcDbDictionaryWithDefault
  3
ObjectDBX Classes
 90
        0
280
     0
281
     0
  0
CLASS
  1
VISUALSTYLE
  2
AcDbVisualStyle
  3
ObjectDBX Classes
 90
     4095
280
     0
281
     0
  0
CLASS
  1
MATERIAL
  2
AcDbMaterial
  3
ObjectDBX Classes
 90
     1153
280
     0
281
     0
  0
CLASS
  1
SCALE
  2
AcDbScale
  3
ObjectDBX Classes
 90
     1153
280
     0
281
     0
  0
CLASS
  1
TABLESTYLE
  2
AcDbTableStyle
  3
ObjectDBX Classes
 90
     4095
280
     0
281
     0
  0
CLASS
  1
MLEADERSTYLE
  2
AcDbMLeaderStyle
  3
ACDB_MLEADERSTYLE_CLASS
 90
     4095
280
     0
281
     0
  0
CLASS
  1
SUN
  2
AcDbSun
  3
SCENEOE
 90
     1153
280
     0
281
     0
  0
CLASS
  1
ACDBPLACEHOLDER
  2
AcDbPlaceHolder
  3
ObjectDBX Classes
 90
        0
280
     0
281
     0
  0
CLASS
  1
LAYOUT
  2
AcDbLayout
  3
ObjectDBX Classes
 90
        0
280
     0
281
     0
  0
ENDSEC
  0
SECTION
  2
TABLES
  0
TABLE
  2
VPORT
  5
8
330
0
100
AcDbSymbolTable
 70
     1
  0
VPORT
  5
29
330
8
100
AcDbSymbolTableRecord
100
AcDbViewportTableRecord
  2
*Active
 70
     0
 10
0.0
 20
0.0
 11
1.0
 21
1.0
 12
400.0
 22
325.0
 13
0.0
 23
0.0
 14
10.0
 24
10.0
 15
10.0
 25
10.0
 16
0.0
 26
0.0
 36
1.0
 17
0.0
 27
0.0
 37
0.0
 40
650.0
 41
1.2307692308
 42
50.0
 43
0.0
 44
0.0
 50
0.0
 51
0.0
 71
     0
 72
  2000
 73
     1
 74
     3
 75
     0
 76
     0
 77
     0
 78
     0
281
     0
 65
     1
110
0.0
120
0.0
130
0.0
111
1.0
121
0.0
131
0.0
112
0.0
122
1.0
132
0.0
 79
     0
146
0.0
  0
ENDTAB
  0
TABLE
  2
LTYPE
  5
5
330
0
100
AcDbSymbolTable
 70
     6
  0
LTYPE
  5
14
330
5
100
AcDbSymbolTableRecord
100
AcDbLinetypeTableRecord
  2
ByBlock
 70
     0
  3

 72
    65
 73
     0
 40
0.0
  0
LTYPE
  5
15
330
5
100
AcDbSymbolTableRecord
100
AcDbLinetypeTableRecord
  2
ByLayer
 70
     0
  3

 72
    65
 73
     0
 40
0.0
  0
LTYPE
  5
16
330
5
100
AcDbSymbolTableRecord
100
AcDbLinetypeTableRecord
  2
Continuous
 70
     0
  3
Solid line
 72
    65
 73
     0
 40
0.0
  0
LTYPE
  5
6E
330
5
100
AcDbSymbolTableRecord
100
AcDbLinetypeTableRecord
  2
HIDDEN
 70
     0
  3
Hidden __ __ __ __ __ __ __ __ __ __ __ __ __ __
 72
    65
 73
     2
 40
1.905
 49
1.27
 74
     0
 49
-0.635
 74
     0
  0
LTYPE
  5
6F
330
5
100
AcDbSymbolTableRecord
100
AcDbLinetypeTableRecord
  2
PHANTOM
 70
     0
  3
Phantom ______  __  __  ______  __  __  ______
 72
    65
 73
     6
 40
12.7
 49
6.35
 74
     0
 49
-1.27
 74
     0
 49
1.27
 74
     0
 49
-1.27
 74
     0
 49
1.27
 74
     0
 49
-1.27
 74
     0
  0
LTYPE
  5
70
330
5
100
AcDbSymbolTableRecord
100
AcDbLinetypeTableRecord
  2
CENTER
 70
     0
  3
Center ____ _ ____ _ ____ _ ____ _ ____ _ ____
 72
    65
 73
     4
 40
10.16
 49
6.35
 74
     0
 49
-1.27
 74
     0
 49
1.27
 74
     0
 49
-1.27
 74
     0
  0
LTYPE
  5
71
330
5
100
AcDbSymbolTableRecord
100
AcDbLinetypeTableRecord
  2
CENTERX2
 70
     0
  3
Center (2x) ________  __  ________  __  _____
 72
    65
 73
     4
 40
20.32
 49
12.7
 74
     0
 49
-2.54
 74
     0
 49
2.54
 74
     0
 49
-2.54
 74
     0
  0
LTYPE
  5
72
330
5
100
AcDbSymbolTableRecord
100
AcDbLinetypeTableRecord
  2
DOT2
 70
     0
  3
Dot (.5x) ........................................
 72
    65
 73
     2
 40
0.635
 49
0.0
 74
     0
 49
-0.635
 74
     0
  0
ENDTAB
  0
TABLE
  2
LAYER
  5
2
330
0
100
AcDbSymbolTable
 70
     1
  0
LAYER
  5
10
330
2
100
AcDbSymbolTableRecord
100
AcDbLayerTableRecord
  2
0
 70
     0
 62
     7
  6
Continuous
370
    -3
390
F
  0
ENDTAB
  0
TABLE
  2
STYLE
  5
3
330
0
100
AcDbSymbolTable
 70
     1
  0
STYLE
  5
11
330
3
100
AcDbSymbolTableRecord
100
AcDbTextStyleTableRecord
  2
Standard
 70
     0
 40
0.0
 41
1.0
 50
0.0
 71
     0
 42
3.5
  3
txt
  4

  0
ENDTAB
  0
TABLE
  2
VIEW
  5
6
330
0
100
AcDbSymbolTable
 70
     0
  0
ENDTAB
  0
TABLE
  2
UCS
  5
7
330
0
100
AcDbSymbolTable
 70
     0
  0
ENDTAB
  0
TABLE
  2
APPID
  5
9
330
0
100
AcDbSymbolTable
 70
     1
  0
APPID
  5
12
330
9
100
AcDbSymbolTableRecord
100
AcDbRegAppTableRecord
  2
ACAD
 70
     0
  0
ENDTAB
  0
TABLE
  2
DIMSTYLE
  5
A
330
0
100
AcDbSymbolTable
 70
     1
100
AcDbDimStyleTable
  0
DIMSTYLE
105
27
330
A
100
AcDbSymbolTableRecord
100
AcDbDimStyleTableRecord
  2
ISO-25
 70
     0
 41
2.5
 42
0.625
 43
3.75
 44
1.25
 73
     0
 74
     0
 77
     1
 78
     8
140
2.5
141
2.5
143
0.0393700787
147
0.625
171
     3
172
     1
178
     0
271
     2
272
     2
274
     3
278
    44
283
     0
284
     8
340
11
  0
ENDTAB
  0
TABLE
  2
BLOCK_RECORD
  5
1
330
0
100
AcDbSymbolTable
 70
     1
  0
BLOCK_RECORD
  5
1F
330
1
100
AcDbSymbolTableRecord
100
AcDbBlockTableRecord
  2
*Model_Space
340
22
  0
BLOCK_RECORD
  5
1B
330
1
100
AcDbSymbolTableRecord
100
AcDbBlockTableRecord
  2
*Paper_Space
340
1E
  0
BLOCK_RECORD
  5
23
330
1
100
AcDbSymbolTableRecord
100
AcDbBlockTableRecord
  2
*Paper_Space0
340
26
  0
ENDTAB
  0
ENDSEC
  0
SECTION
  2
BLOCKS
  0
BLOCK
  5
20
330
1F
100
AcDbEntity
  8
0
100
AcDbBlockBegin
  2
*Model_Space
 70
     0
 10
0.0
 20
0.0
 30
0.0
  3
*Model_Space
  1

  0
ENDBLK
  5
21
330
1F
100
AcDbEntity
  8
0
100
AcDbBlockEnd
  0
BLOCK
  5
1C
330
1B
100
AcDbEntity
 67
     1
  8
0
100
AcDbBlockBegin
  2
*Paper_Space
 70
     0
 10
0.0
 20
0.0
 30
0.0
  3
*Paper_Space
  1

  0
ENDBLK
  5
1D
330
1B
100
AcDbEntity
 67
     1
  8
0
100
AcDbBlockEnd
  0
BLOCK
  5
24
330
23
100
AcDbEntity
  8
0
100
AcDbBlockBegin
  2
*Paper_Space0
 70
     0
 10
0.0
 20
0.0
 30
0.0
  3
*Paper_Space0
  1

  0
ENDBLK
  5
25
330
23
100
AcDbEntity
  8
0
100
AcDbBlockEnd
  0
ENDSEC
  0
SECTION
  2
ENTITIES
  0
LINE
  5
73
330
1F
100
AcDbEntity
  8
0
  6
Continuous
 62
     7
370
    25
100
AcDbLine
 10
153.9149773071
 20
100.7504429891
 30
0.0
 11
443.9149773071
 21
100.7504429891
 31
0.0
  0
LINE
  5
74
330
1F
100
AcDbEntity
  8
0
  6
Continuous
 62
     7
370
    25
100
AcDbLine
 10
468.8404798551
 20
125.6759455371
 30
0.0
 11
468.8404798551
 21
460.6759455371
 31
0.0
  0
ARC
  5
75
330
1F
100
AcDbEntity
  8
0
  6
Continuous
 62
     7
370
    25
100
AcDbCircle
 10
443.9149773071
 20
125.6759455371
 30
0.0
 40
24.92550254794045
100
AcDbArc
 50
270.0
 51
0.0
  0
ARC
  5
76
330
1F
100
AcDbEntity
  8
0
  6
Continuous
 62
     7
370
    25
100
AcDbCircle
 10
153.9149773071
 20
460.6759455371
 30
0.0
 40
24.92550254794043
100
AcDbArc
 50
90.0
 51
180.0
  0
LINE
  5
77
330
1F
100
AcDbEntity
  8
0
  6
Continuous
 62
     7
370
    25
100
AcDbLine
 10
128.9894747592
 20
460.6759455371
 30
0.0
 11
128.9894747592
 21
125.6759455371
 31
0.0
  0
LINE
  5
78
330
1F
100
AcDbEntity
  8
0
  6
Continuous
 62
     7
370
    25
100
AcDbLine
 10
443.9149773071
 20
485.601448085
 30
0.0
 11
153.9149773071
 21
485.601448085
 31
0.0
  0
ARC
  5
79
330
1F
100
AcDbEntity
  8
0
  6
Continuous
 62
     7
370
    25
100
AcDbCircle
 10
153.9149773071
 20
125.6759455371
 30
0.0
 40
24.92550254794048
100
AcDbArc
 50
180.0
 51
270.0
  0
ARC
  5
7A
330
1F
100
AcDbEntity
  8
0
  6
Continuous
 62
     7
370
    25
100
AcDbCircle
 10
443.9149773071
 20
460.6759455371
 30
0.0
 40
24.92550254794048
100
AcDbArc
 50
0.0
 51
90.0
  0
SPLINE
  5
7B
330
1F
100
AcDbEntity
  8
0
  6
Continuous
 62
     7
370
    25
100
AcDbSpline
210
0.0
220
0.0
230
1.0
 70
     8
 71
     3
 72
    15
 73
    11
 74
     0
 42
0.00000001
 43
0.00000001
 40
0.0
 40
0.0
 40
0.0
 40
0.0
 40
0.1277272255720583
 40
0.2500006214609079
 40
0.3758169317197229
 40
0.5000000007328164
 40
0.6241812956716677
 40
0.749999379718506
 40
0.8722718134135469
 40
1.0
 40
1.0
 40
1.0
 40
1.0
 10
153.9149773071103
 20
108.1219995456592
 30
0.0
 10
152.7427824490422
 20
108.1928513986442
 30
0.0
 10
150.4484443259223
 20
108.3315297986373
 30
0.0
 10
147.1348676299619
 20
109.3881584355729
 30
0.0
 10
144.1059603658748
 20
111.0025878983632
 30
0.0
 10
141.4384259104178
 20
113.1993711971267
 30
0.0
 10
139.2416290816717
 20
115.8669145639894
 30
0.0
 10
137.6271992731534
 20
118.8958124986473
 30
0.0
 10
136.5705634840121
 20
122.2094036216589
 30
0.0
 10
136.4318841694003
 20
124.5037418170141
 30
0.0
 10
136.3610313157054
 20
125.6759455370641
 30
0.0
  0
LINE
  5
7C
330
1F
100
AcDbEntity
  8
0
  6
Continuous
 62
     7
370
    25
100
AcDbLine
 10
153.9149773071
 20
100.7504429891
 30
0.0
 11
153.9149773071
 21
108.1219995457
 31
0.0
  0
LINE
  5
7D
330
1F
100
AcDbEntity
  8
0
  6
Continuous
 62
     7
370
    25
100
AcDbLine
 10
128.9894747592
 20
125.6759455371
 30
0.0
 11
136.3610313157
 21
125.6759455371
 31
0.0
  0
SPLINE
  5
7E
330
1F
100
AcDbEntity
  8
0
  6
Continuous
 62
     7
370
    25
100
AcDbSpline
210
0.0
220
0.0
230
1.0
 70
     8
 71
     3
 72
    15
 73
    11
 74
     0
 42
0.00000001
 43
0.00000001
 40
0.0
 40
0.0
 40
0.0
 40
0.0
 40
0.1203969716547336
 40
0.2407933190589452
 40
0.3612955072028615
 40
0.4817982483628453
 40
0.6113057324163225
 40
0.7408138661147203
 40
0.8704068237473348
 40
1.0
 40
1.0
 40
1.0
 40
1.0
 10
460.9884808799387
 20
460.6740475464542
 30
0.0
 10
460.969557774498
 20
447.222553321674
 30
0.0
 10
460.9317116617316
 20
420.3196346172422
 30
0.0
 10
460.9133474514741
 20
379.9388208487037
 30
0.0
 10
460.9260400939682
 20
339.5463213707022
 30
0.0
 10
460.9717896251686
 20
298.1438654040988
 30
0.0
 10
461.0498717782305
 20
255.7518958602169
 30
0.0
 10
461.1607234372202
 20
212.3698938975118
 30
0.0
 10
461.2977452327316
 20
169.0049819077388
 30
0.0
 10
461.411863911168
 20
140.1189657822789
 30
0.0
 10
461.4689232985151
 20
125.6759455370641
 30
0.0
  0
LINE
  5
7F
330
1F
100
AcDbEntity
  8
0
  6
Continuous
 62
     7
370
    25
100
AcDbLine
 10
460.9974248746
 20
460.6759455371
 30
0.0
 11
460.9884808799
 21
460.6740475465
 31
0.0
  0
LINE
  5
80
330
1F
100
AcDbEntity
  8
0
  6
Continuous
 62
     7
370
    25
100
AcDbLine
 10
468.8404798551
 20
460.6759455371
 30
0.0
 11
460.9974248746
 21
460.6759455371
 31
0.0
  0
LINE
  5
81
330
1F
100
AcDbEntity
  8
0
  6
Continuous
 62
     7
370
    25
100
AcDbLine
 10
468.8404798551
 20
125.6759455371
 30
0.0
 11
461.4689232985
 21
125.6759455371
 31
0.0
  0
LINE
  5
82
330
1F
100
AcDbEntity
  8
0
  6
Continuous
 62
     7
370
    25
100
AcDbLine
 10
136.8414737343
 20
460.6740475371
 30
0.0
 11
136.8325297397
 21
460.6759455371
 31
0.0
  0
SPLINE
  5
83
330
1F
100
AcDbEntity
  8
0
  6
Continuous
 62
     7
370
    25
100
AcDbSpline
210
0.0
220
0.0
230
1.0
 70
     8
 71
     3
 72
    14
 73
    10
 74
     0
 42
0.00000001
 43
0.00000001
 40
0.0
 40
0.0
 40
0.0
 40
0.0
 40
0.1421653558241425
 40
0.2843364374989546
 40
0.426500124123032
 40
0.5689494416617653
 40
0.7114078093302308
 40
0.8538541196898948
 40
1.0
 40
1.0
 40
1.0
 40
1.0
 10
136.3610313157054
 20
125.6759455370641
 30
0.0
 10
136.4234054794164
 20
141.5204244694965
 30
0.0
 10
136.5481563190197
 20
173.2100204864607
 30
0.0
 10
136.6940722948091
 20
220.7980605562124
 30
0.0
 10
136.8078218846089
 20
268.4490342307753
 30
0.0
 10
136.8834124459289
 20
316.1608745610792
 30
0.0
 10
136.9166326008257
 20
363.9214215288875
 30
0.0
 10
136.9080313088173
 20
412.1011563655626
 30
0.0
 10
136.863848391519
 20
444.345300612619
 30
0.0
 10
136.8414737342969
 20
460.6740475371136
 30
0.0
  0
LINE
  5
84
330
1F
100
AcDbEntity
  8
0
  6
Continuous
 62
     7
370
    25
100
AcDbLine
 10
128.9894747592
 20
460.6759455371
 30
0.0
 11
136.8325297397
 21
460.6759455371
 31
0.0
  0
LINE
  5
85
330
1F
100
AcDbEntity
  8
0
  6
Continuous
 62
     7
370
    25
100
AcDbLine
 10
274.6649773071
 20
483.9527578764
 30
0.0
 11
274.6649773071
 21
482.8013668391
 31
0.0
  0
ARC
  5
86
330
1F
100
AcDbEntity
  8
0
  6
Continuous
 62
     7
370
    25
100
AcDbCircle
 10
275.4156620702
 20
487.5651135024
 30
0.0
 40
4.822531481011089
100
AcDbArc
 50
261.0448095014
 51
272.9633983002
  0
LINE
  5
87
330
1F
100
AcDbEntity
  8
0
  6
Continuous
 62
     7
370
    25
100
AcDbLine
 10
275.6649773071
 20
482.7490308829
 30
0.0
 11
322.1649773071
 21
482.7490308829
 31
0.0
  0
ARC
  5
88
330
1F
100
AcDbEntity
  8
0
  6
Continuous
 62
     7
370
    25
100
AcDbCircle
 10
322.414292544
 20
487.5651135024
 30
0.0
 40
4.822531481000047
100
AcDbArc
 50
267.0366016998
 51
278.9551904986
  0
LINE
  5
89
330
1F
100
AcDbEntity
  8
0
  6
Continuous
 62
     7
370
    25
100
AcDbLine
 10
323.1649773071
 20
482.8013668391
 30
0.0
 11
323.1649773071
 21
483.9527578764
 31
0.0
  0
ARC
  5
8A
330
1F
100
AcDbEntity
  8
0
  6
Continuous
 62
     7
370
    25
100
AcDbCircle
 10
322.414292544
 20
479.1890112132
 30
0.0
 40
4.822531481017378
100
AcDbArc
 50
81.0448095014
 51
92.9633983002
  0
LINE
  5
8B
330
1F
100
AcDbEntity
  8
0
  6
Continuous
 62
     7
370
    25
100
AcDbLine
 10
322.1649773071
 20
484.0050938327
 30
0.0
 11
275.6649773071
 21
484.0050938327
 31
0.0
  0
ARC
  5
8C
330
1F
100
AcDbEntity
  8
0
  6
Continuous
 62
     7
370
    25
100
AcDbCircle
 10
275.4156620702
 20
479.1890112132
 30
0.0
 40
4.822531481010692
100
AcDbArc
 50
87.0366016998
 51
98.9551904986
  0
SPLINE
  5
8D
330
1F
100
AcDbEntity
  8
0
  6
Continuous
 62
     7
370
    25
100
AcDbSpline
210
0.0
220
0.0
230
1.0
 70
     8
 71
     3
 72
    14
 73
    10
 74
     0
 42
0.00000001
 43
0.00000001
 40
0.0
 40
0.0
 40
0.0
 40
0.0
 40
0.1416418592737026
 40
0.283282754464818
 40
0.4250451509087887
 40
0.5668053210537428
 40
0.675077894007785
 40
0.7833514471234173
 40
1.0
 40
1.0
 40
1.0
 40
1.0
 10
153.9149773071101
 20
477.7583931045061
 30
0.0
 10
167.5978539903477
 20
477.723316683855
 30
0.0
 10
194.9635142245862
 20
477.6531640812998
 30
0.0
 10
236.0509561412353
 20
477.5808870567868
 30
0.0
 10
277.1650484699942
 20
477.5387408989156
 30
0.0
 10
315.0609291591408
 20
477.5368362224015
 30
0.0
 10
349.7111107241067
 20
477.5671498811755
 30
0.0
 10
391.5932950907562
 20
477.6283835916574
 30
0.0
 10
422.9843442482249
 20
477.7063844287081
 30
0.0
 10
443.9149773071102
 20
477.7583931045061
 30
0.0
  0
LINE
  5
8E
330
1F
100
AcDbEntity
  8
0
  6
Continuous
 62
     7
370
    25
100
AcDbLine
 10
153.9149773071
 20
485.601448085
 30
0.0
 11
153.9149773071
 21
477.7583931045
 31
0.0
  0
LINE
  5
8F
330
1F
100
AcDbEntity
  8
0
  6
Continuous
 62
     7
370
    25
100
AcDbLine
 10
443.9149773071
 20
485.601448085
 30
0.0
 11
443.9149773071
 21
477.7583931045
 31
0.0
  0
SPLINE
  5
90
330
1F
100
AcDbEntity
  8
0
  6
Continuous
 62
     7
370
    25
100
AcDbSpline
210
0.0
220
0.0
230
1.0
 70
     8
 71
     3
 72
    15
 73
    11
 74
     0
 42
0.00000001
 43
0.00000001
 40
0.0
 40
0.0
 40
0.0
 40
0.0
 40
0.1277272124220035
 40
0.2500006214662504
 40
0.3758169059605618
 40
0.5000000007414159
 40
0.6241812686443763
 40
0.7499993797240051
 40
0.8722717988525033
 40
1.0
 40
1.0
 40
1.0
 40
1.0
 10
136.8325297396682
 20
460.675945537064
 30
0.0
 10
136.9014785008299
 20
461.8166551609876
 30
0.0
 10
137.0364319912637
 20
464.0493674349486
 30
0.0
 10
138.0646795177755
 20
467.2739413626144
 30
0.0
 10
139.6357454487073
 20
470.2214924006095
 30
0.0
 10
141.773523020385
 20
472.8173768317576
 30
0.0
 10
144.3694163816712
 20
474.9551679619749
 30
0.0
 10
147.3169580777295
 20
476.5262342434174
 30
0.0
 10
150.5415464640631
 20
477.5544889352417
 30
0.0
 10
152.7742588105599
 20
477.6894433414236
 30
0.0
 10
153.9149773071101
 20
477.7583931045061
 30
0.0
  0
SPLINE
  5
91
330
1F
100
AcDbEntity
  8
0
  6
Continuous
 62
     7
370
    25
100
AcDbSpline
210
0.0
220
0.0
230
1.0
 70
     8
 71
     3
 72
    15
 73
    11
 74
     0
 42
0.00000001
 43
0.00000001
 40
0.0
 40
0.0
 40
0.0
 40
0.0
 40
0.1277272117027007
 40
0.2500006214663428
 40
0.3758169053141824
 40
0.500000000741431
 40
0.6241812692474746
 40
0.7499993797239387
 40
0.8722717995237484
 40
1.0
 40
1.0
 40
1.0
 40
1.0
 10
443.9149773071102
 20
477.7583931045061
 30
0.0
 10
445.0556869245814
 20
477.6894443440694
 30
0.0
 10
447.2883991984876
 20
477.5544908542943
 30
0.0
 10
450.5129731214632
 20
476.5262433311879
 30
0.0
 10
453.4605241656569
 20
474.9551773987779
 30
0.0
 10
456.0564086023189
 20
472.8173998248498
 30
0.0
 10
458.1941997351095
 20
470.2215064578391
 30
0.0
 10
459.7652660179327
 20
467.2739647559965
 30
0.0
 10
460.7935207065792
 20
464.0493763740384
 30
0.0
 10
460.9284751121462
 20
461.816664027593
 30
0.0
 10
460.9974248745523
 20
460.6759455370641
 30
0.0
  0
SPLINE
  5
92
330
1F
100
AcDbEntity
  8
0
  6
Continuous
 62
     7
370
    25
100
AcDbSpline
210
0.0
220
0.0
230
1.0
 70
     8
 71
     3
 72
    15
 73
    11
 74
     0
 42
0.00000001
 43
0.00000001
 40
0.0
 40
0.0
 40
0.0
 40
0.0
 40
0.1277272255748726
 40
0.2500006214609055
 40
0.3758169311157538
 40
0.5000000007328543
 40
0.6241812950806371
 40
0.7499993797184956
 40
0.8722718134307326
 40
0.9999999999999999
 40
0.9999999999999999
 40
0.9999999999999999
 40
0.9999999999999999
 10
461.4689232985151
 20
125.6759455370641
 30
0.0
 10
461.3980714455307
 20
124.5037506789714
 30
0.0
 10
461.2593930455414
 20
122.209412555854
 30
0.0
 10
460.2027644102502
 20
118.8958358652032
 30
0.0
 10
458.5883349490348
 20
115.8669286005945
 30
0.0
 10
456.3915516547901
 20
113.1993941480977
 30
0.0
 10
453.7240082848484
 20
111.0025973147808
 30
0.0
 10
450.6951103505842
 20
109.3881675046577
 30
0.0
 10
447.3815192223598
 20
108.3315317139416
 30
0.0
 10
445.0871810270032
 20
108.1928523993396
 30
0.0
 10
443.9149773071103
 20
108.1219995456593
 30
0.0
  0
LINE
  5
93
330
1F
100
AcDbEntity
  8
0
  6
Continuous
 62
     7
370
    25
100
AcDbLine
 10
443.9149773071
 20
100.7504429891
 30
0.0
 11
443.9149773071
 21
108.1219995457
 31
0.0
  0
LINE
  5
94
330
1F
100
AcDbEntity
  8
0
  6
Continuous
 62
     7
370
    25
100
AcDbLine
 10
153.9191535764
 20
108.1348870889
 30
0.0
 11
153.9149773071
 21
108.1219995457
 31
0.0
  0
SPLINE
  5
95
330
1F
100
AcDbEntity
  8
0
  6
Continuous
 62
     7
370
    25
100
AcDbSpline
210
0.0
220
0.0
230
1.0
 70
     8
 71
     3
 72
    13
 73
     9
 74
     0
 42
0.00000001
 43
0.00000001
 40
0.0
 40
0.0
 40
0.0
 40
0.0
 40
0.1664861396825427
 40
0.3329812993316087
 40
0.4994660550566636
 40
0.6663067480585368
 40
0.8331579135514221
 40
1.0
 40
1.0
 40
1.0
 40
1.0
 10
443.9108010314768
 20
108.1348870889291
 30
0.0
 10
427.8256513090278
 20
108.1699692476622
 30
0.0
 10
395.6544803951157
 20
108.2401354658263
 30
0.0
 10
347.3670186600054
 20
108.2974994282345
 30
0.0
 10
299.0354644198053
 20
108.3185402508131
 30
0.0
 10
250.6694437753305
 20
108.2976947908964
 30
0.0
 10
202.2786725064155
 20
108.2403370814202
 30
0.0
 10
170.0387008272906
 20
108.1700364488419
 30
0.0
 10
153.9191535763566
 20
108.1348870889138
 30
0.0
  0
LINE
  5
96
330
1F
100
AcDbEntity
  8
0
  6
Continuous
 62
     7
370
    25
100
AcDbLine
 10
443.9149773071
 20
108.1219995457
 30
0.0
 11
443.9108010315
 21
108.1348870889
 31
0.0
  0
LINE
  5
97
330
1F
100
AcDbEntity
  8
0
  6
Continuous
 62
     7
370
    25
100
AcDbLine
 10
275.6649773071
 20
482.7490308829
 30
0.0
 11
275.6649773071
 21
483.5479345107
 31
0.0
  0
ARC
  5
98
330
1F
100
AcDbEntity
  8
0
  6
Continuous
 62
     7
370
    25
100
AcDbCircle
 10
275.4156620702
 20
488.3640171302
 30
0.0
 40
4.822531481011089
100
AcDbArc
 50
261.0448095014
 51
272.9633983002
  0
LINE
  5
99
330
1F
100
AcDbEntity
  8
0
  6
Continuous
 62
     7
370
    25
100
AcDbLine
 10
322.1649773071
 20
482.7490308829
 30
0.0
 11
322.1649773071
 21
483.5479345107
 31
0.0
  0
ARC
  5
9A
330
1F
100
AcDbEntity
  8
0
  6
Continuous
 62
     7
370
    25
100
AcDbCircle
 10
322.414292544
 20
488.3640171302
 30
0.0
 40
4.822531481000103
100
AcDbArc
 50
267.0366016998
 51
278.9551904986
  0
LINE
  5
9B
330
1F
100
AcDbEntity
  8
0
  6
Continuous
 62
     7
370
    25
100
AcDbLine
 10
275.6649773071
 20
483.5479345107
 30
0.0
 11
322.1649773071
 21
483.5479345107
 31
0.0
  0
LINE
  5
9C
330
1F
100
AcDbEntity
  8
0
  6
Continuous
 62
     7
370
    25
100
AcDbLine
 10
136.3610313157
 20
125.6759455371
 30
0.0
 11
136.4178503678
 21
125.63044105
 31
0.0
  0
SPLINE
  5
9D
330
1F
100
AcDbEntity
  8
0
  6
Continuous
 62
     7
370
    25
100
AcDbSpline
210
0.0
220
0.0
230
1.0
 70
     8
 71
     3
 72
    20
 73
    16
 74
     0
 42
0.00000001
 43
0.00000001
 40
0.0
 40
0.0
 40
0.0
 40
0.0
 40
0.1238994817808226
 40
0.2498468348127867
 40
0.3327161568940994
 40
0.4158493426865211
 40
0.5003138827337015
 40
0.5610643330988697
 40
0.6244975982562699
 40
0.6852560657042478
 40
0.7501883124678864
 40
0.8087829264722687
 40
0.8744877433555924
 40
0.9261458689734474
 40
1.0
 40
1.0
 40
1.0
 40
1.0
 10
136.8414737342969
 20
460.6740475371134
 30
0.0
 10
137.0074583557407
 20
460.6678989978068
 30
0.0
 10
137.3421710736573
 20
460.655500293128
 30
0.0
 10
138.7647797651161
 20
460.3106383173637
 30
0.0
 10
140.4697433491697
 20
459.8450861204191
 30
0.0
 10
142.2583589188248
 20
459.3282820363459
 30
0.0
 10
144.1473987215759
 20
458.7610056793885
 30
0.0
 10
146.051804145998
 20
458.1744214673734
 30
0.0
 10
147.8602887230944
 20
457.6079621256559
 30
0.0
 10
149.815715173932
 20
456.9860928917865
 30
0.0
 10
151.8108140428249
 20
456.3446107613101
 30
0.0
 10
153.9321318849132
 20
455.655278064755
 30
0.0
 10
155.9602340191325
 20
454.9923306804942
 30
0.0
 10
158.2023442495479
 20
454.2541169147373
 30
0.0
 10
159.6964584931844
 20
453.7610748626466
 30
0.0
 10
160.5756276840531
 20
453.4709582374641
 30
0.0
  0
SPLINE
  5
9E
330
1F
100
AcDbEntity
  8
0
  6
Continuous
 62
     7
370
    25
100
AcDbSpline
210
0.0
220
0.0
230
1.0
 70
     8
 71
     3
 72
    14
 73
    10
 74
     0
 42
0.00000001
 43
0.00000001
 40
0.0
 40
0.0
 40
0.0
 40
0.0
 40
0.1285392505246245
 40
0.2736230611079025
 40
0.4187183190146122
 40
0.5638047450221954
 40
0.7092001461728284
 40
0.8546029035485716
 40
1.0
 40
1.0
 40
1.0
 40
1.0
 10
160.5756276840531
 20
453.4709582374642
 30
0.0
 10
160.5769609560479
 20
439.6554608268131
 30
0.0
 10
160.5797991083088
 20
410.2462439782486
 30
0.0
 10
160.5810035487829
 20
365.2268661171852
 30
0.0
 10
160.5842478286593
 20
318.4334309028811
 30
0.0
 10
160.5693138864007
 20
271.6220736601489
 30
0.0
 10
160.515405371402
 20
224.8044080734132
 30
0.0
 10
160.4213128129867
 20
177.982703430755
 30
0.0
 10
160.3244421068926
 20
146.8018818508057
 30
0.0
 10
160.2760076967239
 20
131.21177455526
 30
0.0
  0
SPLINE
  5
9F
330
1F
100
AcDbEntity
  8
0
  6
Continuous
 62
     7
370
    25
100
AcDbSpline
210
0.0
220
0.0
230
1.0
 70
     8
 71
     3
 72
    17
 73
    13
 74
     0
 42
0.00000001
 43
0.00000001
 40
0.0
 40
0.0
 40
0.0
 40
0.0
 40
0.1266199350159332
 40
0.2500906723957797
 40
0.3749952093690982
 40
0.5003472215493809
 40
0.6244895802648522
 40
0.750085635397531
 40
0.8087095798011515
 40
0.874428484289603
 40
0.9260769690972781
 40
1.0
 40
1.0
 40
1.0
 40
1.0
 10
136.4178503677912
 20
125.6304410500405
 30
0.0
 10
136.6351535158858
 20
125.5712098321254
 30
0.0
 10
137.0643552084461
 20
125.4542205514617
 30
0.0
 10
138.755862760487
 20
125.624538925529
 30
0.0
 10
141.1164499051627
 20
126.0378259175098
 30
0.0
 10
144.1411330258834
 20
126.7052026452002
 30
0.0
 10
147.692112268636
 20
127.5920607216565
 30
0.0
 10
150.9470702956149
 20
128.4748068025318
 30
0.0
 10
153.7173550514799
 20
129.2607775641331
 30
0.0
 10
155.7210682030802
 20
129.8431232626519
 30
0.0
 10
157.9346906789576
 20
130.5005320067399
 30
0.0
 10
159.4084288420846
 20
130.9482224643122
 30
0.0
 10
160.2760076967239
 20
131.2117745552681
 30
0.0
  0
SPLINE
  5
A0
330
1F
100
AcDbEntity
  8
0
  6
Continuous
 62
     7
370
    25
100
AcDbSpline
210
0.0
220
0.0
230
1.0
 70
     8
 71
     3
 72
    20
 73
    16
 74
     0
 42
0.00000001
 43
0.00000001
 40
0.0
 40
0.0
 40
0.0
 40
0.0
 40
0.1265688428652104
 40
0.2499873607253526
 40
0.3327598806448896
 40
0.4158800365020201
 40
0.5003308538271425
 40
0.5611043053137734
 40
0.6245378460982876
 40
0.6852967388849938
 40
0.7501963666869376
 40
0.8087939128917631
 40
0.8744838204705034
 40
0.9261733936587778
 40
0.9999999999999999
 40
0.9999999999999999
 40
0.9999999999999999
 40
0.9999999999999999
 10
153.9191535763569
 20
108.1348870889138
 30
0.0
 10
153.9108199426676
 20
108.3007755742905
 30
0.0
 10
153.8943601011768
 20
108.6284235459024
 30
0.0
 10
154.1733759231236
 20
110.0053873671489
 30
0.0
 10
154.5617941227481
 20
111.6337718552898
 30
0.0
 10
155.0067486085935
 20
113.3588240690671
 30
0.0
 10
155.5025132158058
 20
115.1849200725565
 30
0.0
 10
156.0203252836226
 20
117.0296424324575
 30
0.0
 10
156.5239407152232
 20
118.7847153502241
 30
0.0
 10
157.0801153505289
 20
120.6854458489999
 30
0.0
 10
157.6571137168858
 20
122.6285751938643
 30
0.0
 10
158.2803478639245
 20
124.6986546347075
 30
0.0
 10
158.8829832211161
 20
126.6826052073854
 30
0.0
 10
159.5567573249496
 20
128.8796728827008
 30
0.0
 10
160.0096333013537
 20
130.3480806353838
 30
0.0
 10
160.2760076967242
 20
131.2117745552598
 30
0.0
  0
SPLINE
  5
A1
330
1F
100
AcDbEntity
  8
0
  6
Continuous
 62
     7
370
    25
100
AcDbSpline
210
0.0
220
0.0
230
1.0
 70
     8
 71
     3
 72
    13
 73
     9
 74
     0
 42
0.00000001
 43
0.00000001
 40
0.0
 40
0.0
 40
0.0
 40
0.0
 40
0.1532153516038963
 40
0.3335117285126598
 40
0.5138077669700616
 40
0.6942879125043369
 40
0.8747684420969073
 40
1.0
 40
1.0
 40
1.0
 40
1.0
 10
160.2760076967239
 20
131.21177455526
 30
0.0
 10
174.4304828305165
 20
131.2320629175587
 30
0.0
 10
205.2412561547516
 20
131.2762256382526
 30
0.0
 10
252.7365450002072
 20
131.3088081690085
 30
0.0
 10
302.7620193206026
 20
131.3189973117751
 30
0.0
 10
352.803548480334
 20
131.3051049804174
 30
0.0
 10
397.7433509126224
 20
131.2700790392666
 30
0.0
 10
425.9850491927654
 20
131.2287177482804
 30
0.0
 10
437.5539469174966
 20
131.21177455526
 30
0.0
  0
SPLINE
  5
A2
330
1F
100
AcDbEntity
  8
0
  6
Continuous
 62
     7
370
    25
100
AcDbSpline
210
0.0
220
0.0
230
1.0
 70
     8
 71
     3
 72
    17
 73
    13
 74
     0
 42
0.00000001
 43
0.00000001
 40
0.0
 40
0.0
 40
0.0
 40
0.0
 40
0.126624200282166
 40
0.2500966973960827
 40
0.3750011391746846
 40
0.5003518892706037
 40
0.6244925771319287
 40
0.7500871058679406
 40
0.8087091135101023
 40
0.8744289188915414
 40
0.9261485744346063
 40
1.0
 40
1.0
 40
1.0
 40
1.0
 10
443.9108010314768
 20
108.1348870889291
 30
0.0
 10
443.9190662386841
 20
108.3010083478194
 30
0.0
 10
443.9353909303405
 20
108.6291160722762
 30
0.0
 10
443.6220916147809
 20
110.176800913745
 30
0.0
 10
443.0783123081887
 20
112.4060206799231
 30
0.0
 10
442.2966580723864
 20
115.3155605622573
 30
0.0
 10
441.3149650844474
 20
118.7709098910374
 30
0.0
 10
440.3724030256202
 20
121.9654600938565
 30
0.0
 10
439.5496535385349
 20
124.6985550530416
 30
0.0
 10
438.9469403771586
 20
126.6826940973605
 30
0.0
 10
438.2731751611375
 20
128.8797543022586
 30
0.0
 10
437.8202961475092
 20
130.3481658131778
 30
0.0
 10
437.5539469174966
 20
131.21177455526
 30
0.0
  0
SPLINE
  5
A3
330
1F
100
AcDbEntity
  8
0
  6
Continuous
 62
     7
370
    25
100
AcDbSpline
210
0.0
220
0.0
230
1.0
 70
     8
 71
     3
 72
    19
 73
    15
 74
     0
 42
0.00000001
 43
0.00000001
 40
0.0
 40
0.0
 40
0.0
 40
0.0
 40
0.0609285033155397
 40
0.1075851967377191
 40
0.152697377683947
 40
0.2035645507327383
 40
0.2498915470303136
 40
0.335502290193481
 40
0.4181341588157986
 40
0.4997559269722095
 40
0.6250820973863693
 40
0.7499608846711026
 40
0.8734061679748579
 40
1.0
 40
1.0
 40
1.0
 40
1.0
 10
437.5539469174967
 20
131.21177455526
 30
0.0
 10
438.2691938526077
 20
130.9942636559129
 30
0.0
 10
439.5321492518476
 20
130.6101913149652
 30
0.0
 10
441.3058331906404
 20
130.0810855774128
 30
0.0
 10
442.943617673371
 20
129.599717180572
 30
0.0
 10
444.5510213831381
 20
129.1360825002972
 30
0.0
 10
446.5710786149434
 20
128.5645103898435
 30
0.0
 10
448.8595937785373
 20
127.9375847898622
 30
0.0
 10
451.3605447119777
 20
127.2850409834845
 30
0.0
 10
454.0314004583405
 20
126.6296559382757
 30
0.0
 10
456.7137549233809
 20
126.0377579483438
 30
0.0
 10
459.0740261437163
 20
125.6245568602886
 30
0.0
 10
460.7656162419006
 20
125.4542160127441
 30
0.0
 10
461.1948067571014
 20
125.5712083107564
 30
0.0
 10
461.4121042464028
 20
125.6304410564141
 30
0.0
  0
SPLINE
  5
A4
330
1F
100
AcDbEntity
  8
0
  6
Continuous
 62
     7
370
    25
100
AcDbSpline
210
0.0
220
0.0
230
1.0
 70
     8
 71
     3
 72
    15
 73
    11
 74
     0
 42
0.00000001
 43
0.00000001
 40
0.0
 40
0.0
 40
0.0
 40
0.0
 40
0.1297941873541713
 40
0.2595881683953805
 40
0.3894568310387371
 40
0.5193249251085723
 40
0.6394460709200768
 40
0.7595667430326071
 40
0.8797831318606987
 40
1.0
 40
1.0
 40
1.0
 40
1.0
 10
437.5539469174966
 20
131.2117745552598
 30
0.0
 10
437.5102174504694
 20
145.1285375096705
 30
0.0
 10
437.4227585859244
 20
172.9620412972503
 30
0.0
 10
437.3320160288426
 20
214.7613262373806
 30
0.0
 10
437.2745860661457
 20
256.5928009910162
 30
0.0
 10
437.250764311121
 20
297.4080217190589
 30
0.0
 10
437.2495412652943
 20
337.1907989810965
 30
0.0
 10
437.2537555792645
 20
375.9438743616403
 30
0.0
 10
437.2486281558405
 20
414.7081920698745
 30
0.0
 10
437.2524273362006
 20
440.5500190094377
 30
0.0
 10
437.2543269301674
 20
453.4709582374641
 30
0.0
  0
SPLINE
  5
A5
330
1F
100
AcDbEntity
  8
0
  6
Continuous
 62
     7
370
    25
100
AcDbSpline
210
0.0
220
0.0
230
1.0
 70
     8
 71
     3
 72
    19
 73
    15
 74
     0
 42
0.00000001
 43
0.00000001
 40
0.0
 40
0.0
 40
0.0
 40
0.0
 40
0.0608916764531274
 40
0.1075592781701916
 40
0.1527038169053528
 40
0.2035793155923094
 40
0.2499014344020631
 40
0.3355488354048981
 40
0.4181785294456961
 40
0.4997722410757722
 40
0.6250900273305245
 40
0.750092722612549
 40
0.8760709826323863
 40
1.0
 40
1.0
 40
1.0
 40
1.0
 10
437.2543269301675
 20
453.4709582374641
 30
0.0
 10
437.9790679102078
 20
453.7101661417317
 30
0.0
 10
439.259253006335
 20
454.1327038515523
 30
0.0
 10
441.0561038479213
 20
454.7245757875834
 30
0.0
 10
442.7147892647201
 20
455.2687871941153
 30
0.0
 10
444.3412270441165
 20
455.7994978801206
 30
0.0
 10
446.3831787034621
 20
456.4623495810559
 30
0.0
 10
448.6928237685841
 20
457.2038587225669
 30
0.0
 10
451.2097558302229
 20
457.9985202805717
 30
0.0
 10
453.8872726703548
 20
458.825702894652
 30
0.0
 10
456.558962006031
 20
459.6216327940886
 30
0.0
 10
458.8879842053065
 20
460.2678379044013
 30
0.0
 10
460.4870889135802
 20
460.6552923128696
 30
0.0
 10
460.8222663775519
 20
460.6678300718503
 30
0.0
 10
460.9884808799387
 20
460.6740475464542
 30
0.0
  0
LINE
  5
A6
330
1F
100
AcDbEntity
  8
0
  6
Continuous
 62
     7
370
    25
100
AcDbLine
 10
461.4121042464
 20
125.6304410564
 30
0.0
 11
461.4689232985
 21
125.6759455371
 31
0.0
  0
SPLINE
  5
A7
330
1F
100
AcDbEntity
  8
0
  6
Continuous
 62
     7
370
    25
100
AcDbSpline
210
0.0
220
0.0
230
1.0
 70
     8
 71
     3
 72
    15
 73
    11
 74
     0
 42
0.00000001
 43
0.00000001
 40
0.0
 40
0.0
 40
0.0
 40
0.0
 40
0.1250485647648296
 40
0.2500560396443431
 40
0.3750352273637311
 40
0.4999999995579364
 40
0.6249647717823651
 40
0.7499439595730052
 40
0.8749514385700569
 40
1.0
 40
1.0
 40
1.0
 40
1.0
 10
443.9108010314795
 20
108.1348870889292
 30
0.0
 10
445.0517171400679
 20
108.2045642085017
 30
0.0
 10
447.3331744620019
 20
108.3438955523429
 30
0.0
 10
450.624892613541
 20
109.3912904578471
 30
0.0
 10
453.6606740787739
 20
111.0110362740337
 30
0.0
 10
456.3237855320709
 20
113.2024435877572
 30
0.0
 10
458.5171377332214
 20
115.86590455448
 30
0.0
 10
460.1410967565378
 20
118.9043684933253
 30
0.0
 10
461.1946711550833
 20
122.2008387066185
 30
0.0
 10
461.3396186113501
 20
124.487115066822
 30
0.0
 10
461.4121042464028
 20
125.6304410564141
 30
0.0
  0
SPLINE
  5
A8
330
1F
100
AcDbEntity
  8
0
  6
Continuous
 62
     7
370
    25
100
AcDbSpline
210
0.0
220
0.0
230
1.0
 70
     8
 71
     3
 72
    15
 73
    11
 74
     0
 42
0.00000001
 43
0.00000001
 40
0.0
 40
0.0
 40
0.0
 40
0.0
 40
0.1250485637390563
 40
0.2500560404331589
 40
0.3750352282041676
 40
0.5000000004149723
 40
0.6249647726227976
 40
0.7499439603618203
 40
0.8749514375442667
 40
1.0
 40
1.0
 40
1.0
 40
1.0
 10
153.9191535763565
 20
108.134887088914
 30
0.0
 10
152.7782374775949
 20
108.204564207442
 30
0.0
 10
150.4967801493995
 20
108.3438955507771
 30
0.0
 10
147.2050619907532
 20
109.3912904580644
 30
0.0
 10
144.1692805135038
 20
111.0110362857103
 30
0.0
 10
141.5061690636802
 20
113.2024436024886
 30
0.0
 10
139.312816867163
 20
115.8659045707653
 30
0.0
 10
137.6888578564912
 20
118.9043684953885
 30
0.0
 10
136.6352834605092
 20
122.2008386991676
 30
0.0
 10
136.4903360038589
 20
124.4871150514326
 30
0.0
 10
136.4178503677911
 20
125.6304410500405
 30
0.0
  0
LINE
  5
A9
330
1F
100
AcDbEntity
  8
0
  6
Continuous
 62
     7
370
    25
100
AcDbLine
 10
153.8957814709
 20
477.7243086957
 30
0.0
 11
153.9149773071
 21
477.7583931045
 31
0.0
  0
LINE
  5
AA
330
1F
100
AcDbEntity
  8
0
  6
Continuous
 62
     7
370
    25
100
AcDbLine
 10
443.9341731526
 20
477.7243086958
 30
0.0
 11
443.9149773071
 21
477.7583931045
 31
0.0
  0
SPLINE
  5
AB
330
1F
100
AcDbEntity
  8
0
  6
Continuous
 62
     7
370
    25
100
AcDbSpline
210
0.0
220
0.0
230
1.0
 70
     8
 71
     3
 72
    19
 73
    15
 74
     0
 42
0.00000001
 43
0.00000001
 40
0.0
 40
0.0
 40
0.0
 40
0.0
 40
0.0571951907011246
 40
0.1012386229203415
 40
0.152704477127895
 40
0.2035799468192274
 40
0.2499049111694466
 40
0.3355521358503269
 40
0.4181835141861061
 40
0.4997809440829017
 40
0.6251008314803014
 40
0.7501036376053276
 40
0.8760744652838679
 40
1.0
 40
1.0
 40
1.0
 40
1.0
 10
437.2543269301675
 20
453.4709582374641
 30
0.0
 10
437.4775671083961
 20
454.1530314104985
 30
0.0
 10
437.8727144616491
 20
455.3603383172932
 30
0.0
 10
438.4572708481109
 20
457.1664153371501
 30
0.0
 10
439.0063693576432
 20
458.8795235774772
 30
0.0
 10
439.5478979439322
 20
460.5903999895049
 30
0.0
 10
440.1919503436705
 20
462.6505474686321
 30
0.0
 10
440.9065890343051
 20
464.9864363085131
 30
0.0
 10
441.6631850999038
 20
467.5408530309166
 30
0.0
 10
442.4390968217489
 20
470.2691592786117
 30
0.0
 10
443.1666167976293
 20
473.0089619477212
 30
0.0
 10
443.7244138828303
 20
475.4263742936561
 30
0.0
 10
444.0158754699078
 20
477.121834538091
 30
0.0
 10
443.9612582523271
 20
477.5245827494762
 30
0.0
 10
443.9341731526139
 20
477.724308695759
 30
0.0
  0
SPLINE
  5
AC
330
1F
100
AcDbEntity
  8
0
  6
Continuous
 62
     7
370
    25
100
AcDbSpline
210
0.0
220
0.0
230
1.0
 70
     8
 71
     3
 72
    14
 73
    10
 74
     0
 42
0.00000001
 43
0.00000001
 40
0.0
 40
0.0
 40
0.0
 40
0.0
 40
0.214532213421905
 40
0.3218404806755492
 40
0.4291479606400775
 40
0.5717931378587126
 40
0.7144401314222913
 40
0.8572195843739369
 40
1.0
 40
1.0
 40
1.0
 40
1.0
 10
437.2543269301674
 20
453.4709582374641
 30
0.0
 10
417.4793247330466
 20
453.4506547482622
 30
0.0
 10
387.8129351919804
 20
453.4201955243539
 30
0.0
 10
348.2286028102606
 20
453.4548231058293
 30
0.0
 10
315.2679140496493
 20
453.4966173859596
 30
0.0
 10
279.0405150270176
 20
453.4892960968395
 30
0.0
 10
239.5476256815177
 20
453.4405296879719
 30
0.0
 10
200.0556175984447
 20
453.4265284086762
 30
0.0
 10
173.7356538986502
 20
453.4561482612501
 30
0.0
 10
160.5756276840531
 20
453.4709582374641
 30
0.0
  0
SPLINE
  5
AD
330
1F
100
AcDbEntity
  8
0
  6
Continuous
 62
     7
370
    25
100
AcDbSpline
210
0.0
220
0.0
230
1.0
 70
     8
 71
     3
 72
    19
 73
    15
 74
     0
 42
0.00000001
 43
0.00000001
 40
0.0
 40
0.0
 40
0.0
 40
0.0
 40
0.0572170919384312
 40
0.1012397191517093
 40
0.1527050890721181
 40
0.20358086835067
 40
0.2499049067935501
 40
0.3355531512428716
 40
0.4181845737194115
 40
0.4997809419083352
 40
0.6251008305048592
 40
0.7501036373913961
 40
0.8760750143916399
 40
1.0
 40
1.0
 40
1.0
 40
1.0
 10
160.5756276840531
 20
453.4709582374641
 30
0.0
 10
160.3523027480193
 20
454.1532928280303
 30
0.0
 10
159.9571523997988
 20
455.3606132278636
 30
0.0
 10
159.3725946517002
 20
457.166691758089
 30
0.0
 10
158.8235758818607
 20
458.879554439837
 30
0.0
 10
158.2820509691113
 20
460.5904174698894
 30
0.0
 10
157.6379979300381
 20
462.6505691075273
 30
0.0
 10
156.9233583472642
 20
464.9864586544267
 30
0.0
 10
156.1667643671551
 20
467.5408733386576
 30
0.0
 10
155.390855414748
 20
470.2691680054663
 30
0.0
 10
154.6633382127869
 20
473.0089619865685
 30
0.0
 10
154.1055394525538
 20
475.426377818879
 30
0.0
 10
153.8140812061895
 20
477.1218364806427
 30
0.0
 10
153.8686971319084
 20
477.5245839851443
 30
0.0
 10
153.8957814709441
 20
477.7243086957329
 30
0.0
  0
SPLINE
  5
AE
330
1F
100
AcDbEntity
  8
0
  6
Continuous
 62
     7
370
    25
100
AcDbSpline
210
0.0
220
0.0
230
1.0
 70
     8
 71
     3
 72
    15
 73
    11
 74
     0
 42
0.00000001
 43
0.00000001
 40
0.0
 40
0.0
 40
0.0
 40
0.0
 40
0.1250258700962937
 40
0.250029866812248
 40
0.3750187806357314
 40
0.4999999995599279
 40
0.6249812185054348
 40
0.7499701323940448
 40
0.8749741324286378
 40
0.9999999999999999
 40
0.9999999999999999
 40
0.9999999999999999
 40
0.9999999999999999
 10
460.9884808799387
 20
460.6740475464593
 30
0.0
 10
460.9211689813592
 20
461.7868106155972
 30
0.0
 10
460.7865569604731
 20
464.0121420750453
 30
0.0
 10
459.7665136781141
 20
467.2227840272841
 30
0.0
 10
458.1877094064173
 20
470.1834577284443
 30
0.0
 10
456.0508594018015
 20
472.7797771357751
 30
0.0
 10
453.4534051701568
 20
474.9166386342287
 30
0.0
 10
450.4904702620755
 20
476.496626460645
 30
0.0
 10
447.2765960768292
 20
477.5188973576441
 30
0.0
 10
445.0483790870808
 20
477.6558342575673
 30
0.0
 10
443.9341731526139
 20
477.724308695759
 30
0.0
  0
SPLINE
  5
AF
330
1F
100
AcDbEntity
  8
0
  6
Continuous
 62
     7
370
    25
100
AcDbSpline
210
0.0
220
0.0
230
1.0
 70
     8
 71
     3
 72
    15
 73
    11
 74
     0
 42
0.00000001
 43
0.00000001
 40
0.0
 40
0.0
 40
0.0
 40
0.0
 40
0.1250258690640295
 40
0.2500298676061386
 40
0.3750187814816455
 40
0.5000000004225776
 40
0.6249812193513486
 40
0.749970133187943
 40
0.874974131396379
 40
1.0
 40
1.0
 40
1.0
 40
1.0
 10
136.841473734297
 20
460.6740475371136
 30
0.0
 10
136.9087856319179
 20
461.7868105976198
 30
0.0
 10
137.0433976524262
 20
464.0121420652453
 30
0.0
 10
138.0634409374641
 20
467.2227840273929
 30
0.0
 10
139.6422452218477
 20
470.1834577430414
 30
0.0
 10
141.7790952314148
 20
472.7797771493239
 30
0.0
 10
144.3765494669545
 20
474.9166386451702
 30
0.0
 10
147.339484363781
 20
476.4966264606286
 30
0.0
 10
150.5533585426216
 20
477.5188973560587
 30
0.0
 10
152.7815755266169
 20
477.6558342564997
 30
0.0
 10
153.8957814709441
 20
477.7243086957329
 30
0.0
  0
CIRCLE
  5
B0
330
1F
100
AcDbEntity
  8
0
  6
Continuous
 62
     7
370
    25
100
AcDbCircle
 10
298.9149773071
 20
375.6759455371
 30
0.0
 40
70.0
  0
CIRCLE
  5
B1
330
1F
100
AcDbEntity
  8
0
  6
Continuous
 62
     7
370
    25
100
AcDbCircle
 10
298.9149773071
 20
375.6759455371
 30
0.0
 40
58.94765075494627
  0
CIRCLE
  5
B2
330
1F
100
AcDbEntity
  8
0
  6
Continuous
 62
     7
370
    25
100
AcDbCircle
 10
298.9149773071
 20
375.6759455371
 30
0.0
 40
57.5
  0
CIRCLE
  5
B3
330
1F
100
AcDbEntity
  8
0
  6
Continuous
 62
     7
370
    25
100
AcDbCircle
 10
298.9149773071
 20
375.6759455371
 30
0.0
 40
56.58715574274765
  0
CIRCLE
  5
B4
330
1F
100
AcDbEntity
  8
0
  6
Continuous
 62
     7
370
    25
100
AcDbCircle
 10
298.9149773071
 20
375.6759455371
 30
0.0
 40
45.0
  0
LINE
  5
B5
330
1F
100
AcDbEntity
  8
0
  6
Continuous
 62
     7
370
    25
100
AcDbLine
 10
525.9149773071
 20
100.7504429891
 30
0.0
 11
645.9149773071
 21
100.7504429891
 31
0.0
  0
ARC
  5
B6
330
1F
100
AcDbEntity
  8
0
  6
Continuous
 62
     7
370
    25
100
AcDbCircle
 10
645.9149773071
 20
125.6759455371
 30
0.0
 40
24.92550254794045
100
AcDbArc
 50
270.0
 51
0.0
  0
ARC
  5
B7
330
1F
100
AcDbEntity
  8
0
  6
Continuous
 62
     7
370
    25
100
AcDbCircle
 10
645.9149773071
 20
460.6759455371
 30
0.0
 40
24.92550254794048
100
AcDbArc
 50
0.0
 51
90.0
  0
LINE
  5
B8
330
1F
100
AcDbEntity
  8
0
  6
Continuous
 62
     7
370
    25
100
AcDbLine
 10
670.8404798551
 20
125.6759455371
 30
0.0
 11
670.8404798551
 21
460.6759455371
 31
0.0
  0
ARC
  5
B9
330
1F
100
AcDbEntity
  8
0
  6
Continuous
 62
     7
370
    25
100
AcDbCircle
 10
525.9149773071
 20
460.6759455371
 30
0.0
 40
24.92550254794048
100
AcDbArc
 50
90.0
 51
180.0
  0
LINE
  5
BA
330
1F
100
AcDbEntity
  8
0
  6
Continuous
 62
     7
370
    25
100
AcDbLine
 10
500.9894747592
 20
460.6759455371
 30
0.0
 11
500.9894747592
 21
125.6759455371
 31
0.0
  0
LINE
  5
BB
330
1F
100
AcDbEntity
  8
0
  6
Continuous
 62
     7
370
    25
100
AcDbLine
 10
645.9149773071
 20
485.601448085
 30
0.0
 11
525.9149773071
 21
485.601448085
 31
0.0
  0
ARC
  5
BC
330
1F
100
AcDbEntity
  8
0
  6
Continuous
 62
     7
370
    25
100
AcDbCircle
 10
525.9149773071
 20
125.6759455371
 30
0.0
 40
24.92550254794048
100
AcDbArc
 50
180.0
 51
270.0
  0
LINE
  5
BD
330
1F
100
AcDbEntity
  8
0
  6
Continuous
 62
     7
370
    25
100
AcDbLine
 10
670.8404798551
 20
460.6759455371
 30
0.0
 11
664.9243168455
 21
460.6759455371
 31
0.0
  0
SPLINE
  5
BE
330
1F
100
AcDbEntity
  8
0
  6
Continuous
 62
     7
370
    25
100
AcDbSpline
210
0.0
220
0.0
230
1.0
 70
     8
 71
     3
 72
    15
 73
    11
 74
     0
 42
0.00000001
 43
0.00000001
 40
0.0
 40
0.0
 40
0.0
 40
0.0
 40
0.1277272623577337
 40
0.2500006214467104
 40
0.3758169984179297
 40
0.5000000007106086
 40
0.6241813611010919
 40
0.7499993797044747
 40
0.8722718487862451
 40
1.0
 40
1.0
 40
1.0
 40
1.0
 10
645.9149773071103
 20
479.6852850754941
 30
0.0
 10
647.1843589334054
 20
479.6085588705135
 30
0.0
 10
649.6689200957519
 20
479.4583826389689
 30
0.0
 10
653.2572252458167
 20
478.3141488762877
 30
0.0
 10
656.5372581157496
 20
476.5658674338979
 30
0.0
 10
659.4259575805805
 20
474.1869488035773
 30
0.0
 10
661.8048897707149
 20
471.2982404072257
 30
0.0
 10
663.5531715616521
 20
468.0182168830493
 30
0.0
 10
664.6974124906479
 20
464.4298972736158
 30
0.0
 10
664.8475896382457
 20
461.9453360395126
 30
0.0
 10
664.9243168455404
 20
460.6759455370641
 30
0.0
  0
LINE
  5
BF
330
1F
100
AcDbEntity
  8
0
  6
Continuous
 62
     7
370
    25
100
AcDbLine
 10
645.9149773071
 20
485.601448085
 30
0.0
 11
645.9149773071
 21
479.6852850755
 31
0.0
  0
LINE
  5
C0
330
1F
100
AcDbEntity
  8
0
  6
Continuous
 62
     7
370
    25
100
AcDbLine
 10
670.8404798551
 20
125.6759455371
 30
0.0
 11
665.432522074
 21
125.6759455371
 31
0.0
  0
SPLINE
  5
C1
330
1F
100
AcDbEntity
  8
0
  6
Continuous
 62
     7
370
    25
100
AcDbSpline
210
0.0
220
0.0
230
1.0
 70
     8
 71
     3
 72
    11
 73
     7
 74
     0
 42
0.00000001
 43
0.00000001
 40
0.0
 40
0.0
 40
0.0
 40
0.0
 40
0.2498896755908641
 40
0.499783554587735
 40
0.7498916387505243
 40
1.0
 40
1.0
 40
1.0
 40
1.0
 10
664.8598919729471
 20
332.4919030892218
 30
0.0
 10
664.8845764437099
 20
315.2445697064409
 30
0.0
 10
664.9339458004541
 20
280.7496128226713
 30
0.0
 10
665.0648643662939
 20
229.0319945761145
 30
0.0
 10
665.2251461404719
 20
177.3304115800203
 30
0.0
 10
665.3633967373131
 20
142.8941072431912
 30
0.0
 10
665.4325220740247
 20
125.6759455370641
 30
0.0
  0
SPLINE
  5
C2
330
1F
100
AcDbEntity
  8
0
  6
Continuous
 62
     7
370
    25
100
AcDbSpline
210
0.0
220
0.0
230
1.0
 70
     8
 71
     3
 72
     9
 73
     5
 74
     0
 42
0.00000001
 43
0.00000001
 40
0.0
 40
0.0
 40
0.0
 40
0.0
 40
0.3379797629439176
 40
0.9999999999999999
 40
0.9999999999999999
 40
0.9999999999999999
 40
0.9999999999999999
 10
664.8370154731982
 20
358.4889477344508
 30
0.0
 10
664.8388543631643
 20
355.5598987775653
 30
0.0
 10
664.8442951917808
 20
346.8935545817698
 30
0.0
 10
664.853679422381
 20
338.2284064858251
 30
0.0
 10
664.8598919729471
 20
332.4919030892218
 30
0.0
  0
SPLINE
  5
C3
330
1F
100
AcDbEntity
  8
0
  6
Continuous
 62
     7
370
    25
100
AcDbSpline
210
0.0
220
0.0
230
1.0
 70
     8
 71
     3
 72
     9
 73
     5
 74
     0
 42
0.00000001
 43
0.00000001
 40
0.0
 40
0.0
 40
0.0
 40
0.0
 40
0.4999259907934862
 40
1.0
 40
1.0
 40
1.0
 40
1.0
 10
664.8370154731982
 20
392.8629433396541
 30
0.0
 10
664.8307534111677
 20
387.1347923161169
 30
0.0
 10
664.8182274330312
 20
375.6767942743562
 30
0.0
 10
664.8307521751784
 20
364.2187952460302
 30
0.0
 10
664.8370154731982
 20
358.4889477344508
 30
0.0
  0
LINE
  5
C4
330
1F
100
AcDbEntity
  8
0
  6
Continuous
 62
     7
370
    25
100
AcDbLine
 10
664.8598919729
 20
418.8599879849
 30
0.0
 11
664.8370154732
 21
392.8629433397
 31
0.0
  0
LINE
  5
C5
330
1F
100
AcDbEntity
  8
0
  6
Continuous
 62
     7
370
    25
100
AcDbLine
 10
664.9243168455
 20
460.6759455371
 30
0.0
 11
664.8598919729
 21
418.8599879849
 31
0.0
  0
LINE
  5
C6
330
1F
100
AcDbEntity
  8
0
  6
Continuous
 62
     7
370
    25
100
AcDbLine
 10
500.9894747592
 20
460.6759455371
 30
0.0
 11
506.9056377687
 21
460.6759455371
 31
0.0
  0
LINE
  5
C7
330
1F
100
AcDbEntity
  8
0
  6
Continuous
 62
     7
370
    25
100
AcDbLine
 10
506.9700626413
 20
418.8599879849
 30
0.0
 11
506.9056377687
 21
460.6759455371
 31
0.0
  0
SPLINE
  5
C8
330
1F
100
AcDbEntity
  8
0
  6
Continuous
 62
     7
370
    25
100
AcDbSpline
210
0.0
220
0.0
230
1.0
 70
     8
 71
     3
 72
     9
 73
     5
 74
     0
 42
0.00000001
 43
0.00000001
 40
0.0
 40
0.0
 40
0.0
 40
0.0
 40
0.3379797629438767
 40
1.0
 40
1.0
 40
1.0
 40
1.0
 10
506.9929391410224
 20
392.8629433396773
 30
0.0
 10
506.9911002510563
 20
395.7919922965626
 30
0.0
 10
506.9856594224398
 20
404.4583364923593
 30
0.0
 10
506.9762751918396
 20
413.1234845883047
 30
0.0
 10
506.9700626412734
 20
418.8599879849089
 30
0.0
  0
SPLINE
  5
C9
330
1F
100
AcDbEntity
  8
0
  6
Continuous
 62
     7
370
    25
100
AcDbSpline
210
0.0
220
0.0
230
1.0
 70
     8
 71
     3
 72
     9
 73
     5
 74
     0
 42
0.00000001
 43
0.00000001
 40
0.0
 40
0.0
 40
0.0
 40
0.0
 40
0.4999259907937704
 40
1.0
 40
1.0
 40
1.0
 40
1.0
 10
506.9929391410224
 20
358.4889477344742
 30
0.0
 10
506.999201203053
 20
364.2170987580145
 30
0.0
 10
507.0117271811895
 20
375.6750967997752
 30
0.0
 10
506.9992024390422
 20
387.1330958281013
 30
0.0
 10
506.9929391410224
 20
392.8629433396773
 30
0.0
  0
LINE
  5
CA
330
1F
100
AcDbEntity
  8
0
  6
Continuous
 62
     7
370
    25
100
AcDbLine
 10
506.9700626413
 20
332.4919030893
 30
0.0
 11
506.992939141
 21
358.4889477345
 31
0.0
  0
SPLINE
  5
CB
330
1F
100
AcDbEntity
  8
0
  6
Continuous
 62
     7
370
    25
100
AcDbSpline
210
0.0
220
0.0
230
1.0
 70
     8
 71
     3
 72
    11
 73
     7
 74
     0
 42
0.00000001
 43
0.00000001
 40
0.0
 40
0.0
 40
0.0
 40
0.0
 40
0.2499022779800566
 40
0.4998042800723552
 40
0.7499042466015203
 40
0.9999999999999999
 40
0.9999999999999999
 40
0.9999999999999999
 40
0.9999999999999999
 10
506.3974325401961
 20
125.6759455370641
 30
0.0
 10
506.4665036733082
 20
142.8799154591688
 30
0.0
 10
506.6046458632791
 20
177.2878363104955
 30
0.0
 10
506.7649305974482
 20
228.9751572225036
 30
0.0
 10
506.8959370285467
 20
280.7069457332168
 30
0.0
 10
506.9453542424442
 20
315.2303475670345
 30
0.0
 10
506.9700626412734
 20
332.4919030892528
 30
0.0
  0
LINE
  5
CC
330
1F
100
AcDbEntity
  8
0
  6
Continuous
 62
     7
370
    25
100
AcDbLine
 10
500.9894747592
 20
125.6759455371
 30
0.0
 11
506.3974325402
 21
125.6759455371
 31
0.0
  0
LINE
  5
CD
330
1F
100
AcDbEntity
  8
0
  6
Continuous
 62
     7
370
    25
100
AcDbLine
 10
525.9149773071
 20
485.601448085
 30
0.0
 11
525.9149773071
 21
479.6852850755
 31
0.0
  0
SPLINE
  5
CE
330
1F
100
AcDbEntity
  8
0
  6
Continuous
 62
     7
370
    25
100
AcDbSpline
210
0.0
220
0.0
230
1.0
 70
     8
 71
     3
 72
    15
 73
    11
 74
     0
 42
0.00000001
 43
0.00000001
 40
0.0
 40
0.0
 40
0.0
 40
0.0
 40
0.1277272627099492
 40
0.250000621446625
 40
0.3758169987343124
 40
0.5000000007105162
 40
0.6241813610876445
 40
0.7499993797044302
 40
0.8722718487713164
 40
1.0
 40
1.0
 40
1.0
 40
1.0
 10
506.9056377686803
 20
460.6759455370641
 30
0.0
 10
506.9823639740561
 20
461.9453271668756
 30
0.0
 10
507.1325402059599
 20
464.429888329252
 30
0.0
 10
508.2767739704952
 20
468.0181934818712
 30
0.0
 10
510.0250554120842
 20
471.2982263484276
 30
0.0
 10
512.4039740429524
 20
474.186925812427
 30
0.0
 10
515.2926824368346
 20
476.5658580005965
 30
0.0
 10
518.5727059608669
 20
478.3141397914944
 30
0.0
 10
522.1610255704086
 20
479.4583807205701
 30
0.0
 10
524.645586804513
 20
479.6085578681828
 30
0.0
 10
525.9149773071103
 20
479.6852850754941
 30
0.0
  0
LINE
  5
CF
330
1F
100
AcDbEntity
  8
0
  6
Continuous
 62
     7
370
    25
100
AcDbLine
 10
645.9149773071
 20
100.7504429891
 30
0.0
 11
645.9149773071
 21
106.1584007701
 31
0.0
  0
SPLINE
  5
D0
330
1F
100
AcDbEntity
  8
0
  6
Continuous
 62
     7
370
    25
100
AcDbSpline
210
0.0
220
0.0
230
1.0
 70
     8
 71
     3
 72
    15
 73
    11
 74
     0
 42
0.00000001
 43
0.00000001
 40
0.0
 40
0.0
 40
0.0
 40
0.0
 40
0.1277272741241815
 40
0.2500006214420569
 40
0.3758170202055807
 40
0.5000000007032447
 40
0.6241813832160595
 40
0.7499993796997784
 40
0.8722718609166435
 40
1.0
 40
1.0
 40
1.0
 40
1.0
 10
665.4325220740247
 20
125.6759455370641
 30
0.0
 10
665.3537446185292
 20
124.3726275043279
 30
0.0
 10
665.1995534877428
 20
121.821642835197
 30
0.0
 10
664.0247291074364
 20
118.1374059362154
 30
0.0
 10
662.2297082260613
 20
114.7696831475274
 30
0.0
 10
659.7871902035572
 20
111.8037556164006
 30
0.0
 10
656.8212537473346
 20
109.3612240440871
 30
0.0
 10
653.4535402966526
 20
107.5662028140527
 30
0.0
 10
649.7692889488915
 20
106.3913712731199
 30
0.0
 10
647.2183042082851
 20
106.2371792270888
 30
0.0
 10
645.9149773071103
 20
106.1584007701499
 30
0.0
  0
SPLINE
  5
D1
330
1F
100
AcDbEntity
  8
0
  6
Continuous
 62
     7
370
    25
100
AcDbSpline
210
0.0
220
0.0
230
1.0
 70
     8
 71
     3
 72
    15
 73
    11
 74
     0
 42
0.00000001
 43
0.00000001
 40
0.0
 40
0.0
 40
0.0
 40
0.0
 40
0.1277272737931554
 40
0.2500006214421393
 40
0.3758170199082528
 40
0.5000000007033374
 40
0.624181383219557
 40
0.7499993796998213
 40
0.8722718609204512
 40
1.0
 40
1.0
 40
1.0
 40
1.0
 10
525.9149773071103
 20
106.1584007701499
 30
0.0
 10
524.6116592777672
 20
106.237178225264
 30
0.0
 10
522.0606746086652
 20
106.391369355704
 30
0.0
 10
518.3764377121485
 20
107.5661937342211
 30
0.0
 10
515.0087149202022
 20
109.3612146163687
 30
0.0
 10
512.0427873883456
 20
111.8037326382854
 30
0.0
 10
509.6002558141175
 20
114.7696690968693
 30
0.0
 10
507.8052345840687
 20
118.1373825475897
 30
0.0
 10
506.6304030431583
 20
121.821633895322
 30
0.0
 10
506.4762109971307
 20
124.372618635928
 30
0.0
 10
506.3974325401961
 20
125.6759455370641
 30
0.0
  0
LINE
  5
D2
330
1F
100
AcDbEntity
  8
0
  6
Continuous
 62
     7
370
    25
100
AcDbLine
 10
525.9149773071
 20
100.7504429891
 30
0.0
 11
525.9149773071
 21
106.1584007701
 31
0.0
  0
LINE
  5
D3
330
1F
100
AcDbEntity
  8
0
  6
Continuous
 62
     7
370
    25
100
AcDbLine
 10
525.9254752961
 20
106.1759314352
 30
0.0
 11
525.9149773071
 21
106.1584007701
 31
0.0
  0
SPLINE
  5
D4
330
1F
100
AcDbEntity
  8
0
  6
Continuous
 62
     7
370
    25
100
AcDbSpline
210
0.0
220
0.0
230
1.0
 70
     8
 71
     3
 72
     9
 73
     5
 74
     0
 42
0.00000001
 43
0.00000001
 40
0.0
 40
0.0
 40
0.0
 40
0.0
 40
0.4999053010549145
 40
0.9999999999999999
 40
0.9999999999999999
 40
0.9999999999999999
 40
0.9999999999999999
 10
645.9044793181381
 20
106.1759314351867
 30
0.0
 10
625.9117664824729
 20
106.1912303057477
 30
0.0
 10
585.9187662212713
 20
106.221833843115
 30
0.0
 10
545.9257638012425
 20
106.1912341696672
 30
0.0
 10
525.9254752960878
 20
106.1759314351867
 30
0.0
  0
LINE
  5
D5
330
1F
100
AcDbEntity
  8
0
  6
Continuous
 62
     7
370
    25
100
AcDbLine
 10
645.9149773071
 20
106.1584007701
 30
0.0
 11
645.9044793181
 21
106.1759314352
 31
0.0
  0
LINE
  5
D6
330
1F
100
AcDbEntity
  8
0
  6
Continuous
 62
     7
370
    25
100
AcDbLine
 10
561.6649773071
 20
483.9527578764
 30
0.0
 11
561.6649773071
 21
482.8013668391
 31
0.0
  0
ARC
  5
D7
330
1F
100
AcDbEntity
  8
0
  6
Continuous
 62
     7
370
    25
100
AcDbCircle
 10
562.4156620702
 20
487.5651135024
 30
0.0
 40
4.822531480996972
100
AcDbArc
 50
261.0448095014
 51
272.9633983003
  0
LINE
  5
D8
330
1F
100
AcDbEntity
  8
0
  6
Continuous
 62
     7
370
    25
100
AcDbLine
 10
562.6649773071
 20
482.7490308829
 30
0.0
 11
609.1649773071
 21
482.7490308829
 31
0.0
  0
ARC
  5
D9
330
1F
100
AcDbEntity
  8
0
  6
Continuous
 62
     7
370
    25
100
AcDbCircle
 10
609.414292544
 20
487.5651135024
 30
0.0
 40
4.822531481005281
100
AcDbArc
 50
267.0366016998
 51
278.9551904986
  0
LINE
  5
DA
330
1F
100
AcDbEntity
  8
0
  6
Continuous
 62
     7
370
    25
100
AcDbLine
 10
610.1649773071
 20
482.8013668391
 30
0.0
 11
610.1649773071
 21
483.9527578764
 31
0.0
  0
ARC
  5
DB
330
1F
100
AcDbEntity
  8
0
  6
Continuous
 62
     7
370
    25
100
AcDbCircle
 10
609.414292544
 20
479.1890112132
 30
0.0
 40
4.822531481007874
100
AcDbArc
 50
81.0448095014
 51
92.9633983002
  0
LINE
  5
DC
330
1F
100
AcDbEntity
  8
0
  6
Continuous
 62
     7
370
    25
100
AcDbLine
 10
609.1649773071
 20
484.0050938327
 30
0.0
 11
562.6649773071
 21
484.0050938327
 31
0.0
  0
ARC
  5
DD
330
1F
100
AcDbEntity
  8
0
  6
Continuous
 62
     7
370
    25
100
AcDbCircle
 10
562.4156620702
 20
479.1890112132
 30
0.0
 40
4.822531481011218
100
AcDbArc
 50
87.0366016998
 51
98.9551904986
  0
LINE
  5
DE
330
1F
100
AcDbEntity
  8
0
  6
Continuous
 62
     7
370
    25
100
AcDbLine
 10
645.9149773071
 20
479.6852850755
 30
0.0
 11
645.9149773071
 21
479.6819457013
 31
0.0
  0
SPLINE
  5
DF
330
1F
100
AcDbEntity
  8
0
  6
Continuous
 62
     7
370
    25
100
AcDbSpline
210
0.0
220
0.0
230
1.0
 70
     8
 71
     3
 72
    10
 73
     6
 74
     0
 42
0.00000001
 43
0.00000001
 40
0.0
 40
0.0
 40
0.0
 40
0.0
 40
0.4136404926186354
 40
0.8274784233077283
 40
0.9999999999999999
 40
0.9999999999999999
 40
0.9999999999999999
 40
0.9999999999999999
 10
525.9153281088576
 20
479.6819457013273
 30
0.0
 10
542.4596633254199
 20
479.6641970470216
 30
0.0
 10
575.5562306682535
 20
479.6286912666573
 30
0.0
 10
615.5648935683806
 20
479.6447889197768
 30
0.0
 10
639.015016160127
 20
479.6734985985171
 30
0.0
 10
645.9146265053615
 20
479.6819457013273
 30
0.0
  0
LINE
  5
E0
330
1F
100
AcDbEntity
  8
0
  6
Continuous
 62
     7
370
    25
100
AcDbLine
 10
525.9149773071
 20
479.6852850755
 30
0.0
 11
525.9149773071
 21
479.6819457013
 31
0.0
  0
LINE
  5
E1
330
1F
100
AcDbEntity
  8
0
  6
Continuous
 62
     7
370
    25
100
AcDbLine
 10
562.6649773071
 20
482.7490308829
 30
0.0
 11
562.6649773071
 21
483.5479345107
 31
0.0
  0
ARC
  5
E2
330
1F
100
AcDbEntity
  8
0
  6
Continuous
 62
     7
370
    25
100
AcDbCircle
 10
562.4156620702
 20
488.3640171302
 30
0.0
 40
4.822531480996972
100
AcDbArc
 50
261.0448095014
 51
272.9633983003
  0
LINE
  5
E3
330
1F
100
AcDbEntity
  8
0
  6
Continuous
 62
     7
370
    25
100
AcDbLine
 10
609.1649773071
 20
482.7490308829
 30
0.0
 11
609.1649773071
 21
483.5479345107
 31
0.0
  0
ARC
  5
E4
330
1F
100
AcDbEntity
  8
0
  6
Continuous
 62
     7
370
    25
100
AcDbCircle
 10
609.414292544
 20
488.3640171302
 30
0.0
 40
4.822531481005785
100
AcDbArc
 50
267.0366016998
 51
278.9551904986
  0
LINE
  5
E5
330
1F
100
AcDbEntity
  8
0
  6
Continuous
 62
     7
370
    25
100
AcDbLine
 10
562.6649773071
 20
483.5479345107
 30
0.0
 11
609.1649773071
 21
483.5479345107
 31
0.0
  0
LINE
  5
E6
330
1F
100
AcDbEntity
  8
0
  6
Continuous
 62
     7
370
    25
100
AcDbLine
 10
506.3974325402
 20
125.6759455371
 30
0.0
 11
506.5238772967
 21
125.5805326214
 31
0.0
  0
ARC
  5
E7
330
1F
100
AcDbEntity
  8
0
  6
Continuous
 62
     7
370
    25
100
AcDbCircle
 10
526.0922529871
 20
643.2119950428
 30
0.0
 40
311.3079403215106
100
AcDbArc
 50
266.4783713873
 51
270.9501490104
  0
SPLINE
  5
E8
330
1F
100
AcDbEntity
  8
0
  6
Continuous
 62
     7
370
    25
100
AcDbSpline
210
0.0
220
0.0
230
1.0
 70
     8
 71
     3
 72
    11
 73
     7
 74
     0
 42
0.00000001
 43
0.00000001
 40
0.0
 40
0.0
 40
0.0
 40
0.0
 40
0.2498936679328964
 40
0.4997914232229196
 40
0.7498955641934061
 40
0.9999999999999999
 40
0.9999999999999999
 40
0.9999999999999999
 40
0.9999999999999999
 10
531.2545071175892
 20
331.9468591224154
 30
0.0
 10
531.2749332110942
 20
315.0377994857654
 30
0.0
 10
531.3157857322009
 20
281.2194036413703
 30
0.0
 10
531.2470693876069
 20
230.5152970100266
 30
0.0
 10
531.1279032211307
 20
179.8264177049479
 30
0.0
 10
531.0078246526494
 20
146.063363126872
 30
0.0
 10
530.9477853330201
 20
129.1818258874173
 30
0.0
  0
SPLINE
  5
E9
330
1F
100
AcDbEntity
  8
0
  6
Continuous
 62
     7
370
    25
100
AcDbSpline
210
0.0
220
0.0
230
1.0
 70
     8
 71
     3
 72
    17
 73
    13
 74
     0
 42
0.00000001
 43
0.00000001
 40
0.0
 40
0.0
 40
0.0
 40
0.0
 40
0.1241314772146317
 40
0.250130851110116
 40
0.3750215843349317
 40
0.5004023149057557
 40
0.624496521969993
 40
0.7501168504303367
 40
0.8087704767254359
 40
0.8744317763066288
 40
0.9261932155695172
 40
1.0
 40
1.0
 40
1.0
 40
1.0
 10
506.5238772966845
 20
125.5805326213805
 30
0.0
 10
506.7736068708047
 20
125.5053349985448
 30
0.0
 10
507.2768238817006
 20
125.3538081995134
 30
0.0
 10
509.047280346298
 20
125.3786996388851
 30
0.0
 10
511.4958669508005
 20
125.5929551779037
 30
0.0
 10
514.5836555848655
 20
126.0033551016482
 30
0.0
 10
518.1968647558347
 20
126.5911182321938
 30
0.0
 10
521.5035115460714
 20
127.2031366481813
 30
0.0
 10
524.3140331847891
 20
127.7611471683869
 30
0.0
 10
526.3454546282753
 20
128.1803647593146
 30
0.0
 10
528.5853890074151
 20
128.6581624197049
 30
0.0
 10
530.0732480578419
 20
128.9879705138713
 30
0.0
 10
530.9477853330201
 20
129.1818258874175
 30
0.0
  0
SPLINE
  5
EA
330
1F
100
AcDbEntity
  8
0
  6
Continuous
 62
     7
370
    25
100
AcDbSpline
210
0.0
220
0.0
230
1.0
 70
     8
 71
     3
 72
    19
 73
    15
 74
     0
 42
0.00000001
 43
0.00000001
 40
0.0
 40
0.0
 40
0.0
 40
0.0
 40
0.0608313093535153
 40
0.1075187037192395
 40
0.1526603287839268
 40
0.2035023078473873
 40
0.2498604810890755
 40
0.3354359629895988
 40
0.4180519152604008
 40
0.4997036051419119
 40
0.6250577961365241
 40
0.7499220934962478
 40
0.875894194723267
 40
1.0
 40
1.0
 40
1.0
 40
1.0
 10
640.8821692812006
 20
129.1818258874175
 30
0.0
 10
641.6030412301
 20
129.021755108337
 30
0.0
 10
642.8771748681382
 20
128.7388316787253
 30
0.0
 10
644.6712809127068
 20
128.353210322849
 30
0.0
 10
646.3303499029727
 20
128.0048720011327
 30
0.0
 10
647.9602976784562
 20
127.672588524995
 30
0.0
 10
650.0095483503827
 20
127.2674126987601
 30
0.0
 10
652.3334855219198
 20
126.8303526092091
 30
0.0
 10
654.8758921498401
 20
126.3872423324231
 30
0.0
 10
657.5954067136809
 20
125.9569922272494
 30
0.0
 10
660.3343434478948
 20
125.5929094315773
 30
0.0
 10
662.7826015341968
 20
125.378712656977
 30
0.0
 10
664.5531454295233
 20
125.3538035705076
 30
0.0
 10
665.0563518074767
 20
125.5053332191822
 30
0.0
 10
665.3060773175365
 20
125.5805326213806
 30
0.0
  0
SPLINE
  5
EB
330
1F
100
AcDbEntity
  8
0
  6
Continuous
 62
     7
370
    25
100
AcDbSpline
210
0.0
220
0.0
230
1.0
 70
     8
 71
     3
 72
    12
 73
     8
 74
     0
 42
0.00000001
 43
0.00000001
 40
0.0
 40
0.0
 40
0.0
 40
0.0
 40
0.2190320550286952
 40
0.4142269280405063
 40
0.6094215884746141
 40
0.8047117873893156
 40
1.0
 40
1.0
 40
1.0
 40
1.0
 10
640.8821692812006
 20
129.1818258874175
 30
0.0
 10
640.8294341161688
 20
143.9655501683584
 30
0.0
 10
640.7297029356897
 20
171.9240911823197
 30
0.0
 10
640.6210066502993
 20
213.0969966830059
 30
0.0
 10
640.5499145359847
 20
252.6875128920049
 30
0.0
 10
640.5209866755204
 20
292.3034296332089
 30
0.0
 10
640.5572939511419
 20
318.7324274279514
 30
0.0
 10
640.5754474966315
 20
331.9468591223962
 30
0.0
  0
ARC
  5
EC
330
1F
100
AcDbEntity
  8
0
  6
Continuous
 62
     7
370
    25
100
AcDbCircle
 10
645.7377016272
 20
643.2119950437
 30
0.0
 40
311.3079403224501
100
AcDbArc
 50
269.0498509896
 51
273.5216286126
  0
LINE
  5
ED
330
1F
100
AcDbEntity
  8
0
  6
Continuous
 62
     7
370
    25
100
AcDbLine
 10
665.3060773175
 20
125.5805326214
 30
0.0
 11
665.432522074
 21
125.6759455371
 31
0.0
  0
SPLINE
  5
EE
330
1F
100
AcDbEntity
  8
0
  6
Continuous
 62
     7
370
    25
100
AcDbSpline
210
0.0
220
0.0
230
1.0
 70
     8
 71
     3
 72
     9
 73
     5
 74
     0
 42
0.00000001
 43
0.00000001
 40
0.0
 40
0.0
 40
0.0
 40
0.0
 40
0.404647319999399
 40
1.0
 40
1.0
 40
1.0
 40
1.0
 10
530.9477853330201
 20
129.1818258874175
 30
0.0
 10
545.7756507050798
 20
129.1882707311113
 30
0.0
 10
582.4195740407927
 20
129.2041977949403
 30
0.0
 10
619.0651358487221
 20
129.1901746213791
 30
0.0
 10
640.8821692812006
 20
129.1818258874174
 30
0.0
  0
SPLINE
  5
EF
330
1F
100
AcDbEntity
  8
0
  6
Continuous
 62
     7
370
    25
100
AcDbSpline
210
0.0
220
0.0
230
1.0
 70
     8
 71
     3
 72
    19
 73
    15
 74
     0
 42
0.00000001
 43
0.00000001
 40
0.0
 40
0.0
 40
0.0
 40
0.0
 40
0.0608076124359583
 40
0.107501746995459
 40
0.1526598071602811
 40
0.2035017919409982
 40
0.2498557172616038
 40
0.3354313373807295
 40
0.4180453880567441
 40
0.4996933650038619
 40
0.6250461096813422
 40
0.7499110703522103
 40
0.8758904735323136
 40
0.9999999999999999
 40
0.9999999999999999
 40
0.9999999999999999
 40
0.9999999999999999
 10
640.8821692812006
 20
129.1818258874175
 30
0.0
 10
641.0462683221476
 20
128.4650752817411
 30
0.0
 10
641.3363789328982
 20
127.1979322517233
 30
0.0
 10
641.7431167373444
 20
125.4243560599028
 30
0.0
 10
642.1172733166882
 20
123.7902536215776
 30
0.0
 10
642.4821837425145
 20
122.1922841152797
 30
0.0
 10
642.9377328349452
 20
120.1928966456274
 30
0.0
 10
643.4473755487135
 20
117.9410462163269
 30
0.0
 10
643.993818286553
 20
115.5015315430925
 30
0.0
 10
644.5636666407772
 20
112.9212914831537
 30
0.0
 10
645.1141616470384
 20
110.3686318423876
 30
0.0
 10
645.5692650436442
 20
108.1613958469115
 30
0.0
 10
645.8559489522308
 20
106.6530321143038
 30
0.0
 10
645.8883833652192
 20
106.3341703012079
 30
0.0
 10
645.9044793181381
 20
106.1759314351867
 30
0.0
  0
SPLINE
  5
F0
330
1F
100
AcDbEntity
  8
0
  6
Continuous
 62
     7
370
    25
100
AcDbSpline
210
0.0
220
0.0
230
1.0
 70
     8
 71
     3
 72
    20
 73
    16
 74
     0
 42
0.00000001
 43
0.00000001
 40
0.0
 40
0.0
 40
0.0
 40
0.0
 40
0.1240820338308105
 40
0.2500322893338593
 40
0.3328498870346461
 40
0.4159799446120135
 40
0.5003865382934225
 40
0.5612046299390955
 40
0.6245457031895613
 40
0.6853772146288094
 40
0.7502311079414169
 40
0.8088567286586037
 40
0.8744889458150351
 40
0.9261973337277521
 40
1.0
 40
1.0
 40
1.0
 40
1.0
 10
525.9254752960878
 20
106.1759314351867
 30
0.0
 10
525.941526584776
 20
106.3339597627348
 30
0.0
 10
525.9738708358622
 20
106.6523957465479
 30
0.0
 10
526.2290223712542
 20
107.9945532913741
 30
0.0
 10
526.5588845388962
 20
109.6098808014871
 30
0.0
 10
526.9188342772752
 20
111.3118283194953
 30
0.0
 10
527.3109357433802
 20
113.1205231322791
 30
0.0
 10
527.7149236261815
 20
114.9532242979429
 30
0.0
 10
528.1047447952399
 20
116.7027818960942
 30
0.0
 10
528.5321138544052
 20
118.6017662489859
 30
0.0
 10
528.9731834707907
 20
120.5490747769849
 30
0.0
 10
529.4468216164629
 20
122.626464168326
 30
0.0
 10
529.9026161823532
 20
124.62131696867
 30
0.0
 10
530.4099190212082
 20
126.8324543882686
 30
0.0
 10
530.7486220851581
 20
128.311891392675
 30
0.0
 10
530.9477853330201
 20
129.1818258874175
 30
0.0
  0
SPLINE
  5
F1
330
1F
100
AcDbEntity
  8
0
  6
Continuous
 62
     7
370
    25
100
AcDbSpline
210
0.0
220
0.0
230
1.0
 70
     8
 71
     3
 72
    15
 73
    11
 74
     0
 42
0.00000001
 43
0.00000001
 40
0.0
 40
0.0
 40
0.0
 40
0.0
 40
0.1250887709663164
 40
0.2501023990873116
 40
0.375064355378494
 40
0.500000000397178
 40
0.6249356454494696
 40
0.7498976017103899
 40
0.874911232255707
 40
1.0
 40
1.0
 40
1.0
 40
1.0
 10
525.9254752960867
 20
106.1759314351897
 30
0.0
 10
524.6632706179286
 20
106.2549218808976
 30
0.0
 10
522.1396194883513
 20
106.4128553214762
 30
0.0
 10
518.4982492605754
 20
107.5774170082688
 30
0.0
 10
515.13929341896
 20
109.3746915405399
 30
0.0
 10
512.1908086699998
 20
111.8039571219417
 30
0.0
 10
509.759369846134
 20
114.7554478822639
 30
0.0
 10
507.9547102445628
 20
118.1225880892152
 30
0.0
 10
506.7781763082622
 20
121.7766763434335
 30
0.0
 10
506.6086606095036
 20
124.3123266038599
 30
0.0
 10
506.5238772966845
 20
125.5805326213805
 30
0.0
  0
SPLINE
  5
F2
330
1F
100
AcDbEntity
  8
0
  6
Continuous
 62
     7
370
    25
100
AcDbSpline
210
0.0
220
0.0
230
1.0
 70
     8
 71
     3
 72
    15
 73
    11
 74
     0
 42
0.00000001
 43
0.00000001
 40
0.0
 40
0.0
 40
0.0
 40
0.0
 40
0.1250887719768053
 40
0.2501023983104012
 40
0.3750643545508662
 40
0.4999999995532491
 40
0.6249356446218542
 40
0.7498976009334998
 40
0.8749112332662109
 40
0.9999999999999999
 40
0.9999999999999999
 40
0.9999999999999999
 40
0.9999999999999999
 10
645.9044793181388
 20
106.1759314351882
 30
0.0
 10
647.1666840065509
 20
106.2549218820218
 30
0.0
 10
649.6903351284045
 20
106.4128553230856
 30
0.0
 10
653.3317053471395
 20
107.5774170075088
 30
0.0
 10
656.6906611744432
 20
109.3746915266266
 30
0.0
 10
659.6391459261177
 20
111.8039571038333
 30
0.0
 10
662.0705847541437
 20
114.7554478614066
 30
0.0
 10
663.8752443688716
 20
118.122588082677
 30
0.0
 10
665.0517783075737
 20
121.7766763459696
 30
0.0
 10
665.2212940058877
 20
124.3123266141609
 30
0.0
 10
665.3060773175363
 20
125.5805326213806
 30
0.0
  0
SPLINE
  5
F3
330
1F
100
AcDbEntity
  8
0
  6
Continuous
 62
     7
370
    25
100
AcDbSpline
210
0.0
220
0.0
230
1.0
 70
     8
 71
     3
 72
    20
 73
    16
 74
     0
 42
0.00000001
 43
0.00000001
 40
0.0
 40
0.0
 40
0.0
 40
0.0
 40
0.0608080542914468
 40
0.107392533300775
 40
0.1525152662258747
 40
0.2034184526056608
 40
0.2497514199696005
 40
0.3349134555808744
 40
0.417618294768148
 40
0.4997037244819806
 40
0.5856893805665783
 40
0.6691537125016892
 40
0.750151493090558
 40
0.8741636374803338
 40
1.0
 40
1.0
 40
1.0
 40
1.0
 10
640.5344012497001
 20
455.5669051921834
 30
0.0
 10
640.7187237738891
 20
456.3065648766088
 30
0.0
 10
641.0442540518712
 20
457.6128708950546
 30
0.0
 10
641.4996610729739
 20
459.4488427700784
 30
0.0
 10
641.917968130999
 20
461.1449624001042
 30
0.0
 10
642.325235959805
 20
462.8089299120559
 30
0.0
 10
642.83115778033
 20
464.891500370271
 30
0.0
 10
643.3948577214337
 20
467.2460638398277
 30
0.0
 10
643.9958842861803
 20
469.811658086675
 30
0.0
 10
644.5330063431032
 20
472.1685073728607
 30
0.0
 10
644.9938875836527
 20
474.2712976574583
 30
0.0
 10
645.3688335144867
 20
476.0679520970938
 30
0.0
 10
645.6961328520817
 20
477.7558157430087
 30
0.0
 10
645.9312517689974
 20
479.1762313330096
 30
0.0
 10
645.9201951690798
 20
479.5125557105094
 30
0.0
 10
645.9146265053615
 20
479.6819457013273
 30
0.0
  0
SPLINE
  5
F4
330
1F
100
AcDbEntity
  8
0
  6
Continuous
 62
     7
370
    25
100
AcDbSpline
210
0.0
220
0.0
230
1.0
 70
     8
 71
     3
 72
    10
 73
     6
 74
     0
 42
0.00000001
 43
0.00000001
 40
0.0
 40
0.0
 40
0.0
 40
0.0
 40
0.1362084811390909
 40
0.5680082725762484
 40
1.0
 40
1.0
 40
1.0
 40
1.0
 10
640.5344012496989
 20
455.5669051921835
 30
0.0
 10
635.5754294076419
 20
455.5717946863829
 30
0.0
 10
614.8958285031672
 20
455.5921845558736
 30
0.0
 10
578.4763690910935
 20
455.62330997806
 30
0.0
 10
547.0248214696796
 20
455.5857095724343
 30
0.0
 10
531.2955533645217
 20
455.5669051921835
 30
0.0
  0
SPLINE
  5
F5
330
1F
100
AcDbEntity
  8
0
  6
Continuous
 62
     7
370
    25
100
AcDbSpline
210
0.0
220
0.0
230
1.0
 70
     8
 71
     3
 72
    17
 73
    13
 74
     0
 42
0.00000001
 43
0.00000001
 40
0.0
 40
0.0
 40
0.0
 40
0.0
 40
0.1258906977181924
 40
0.2499563896265311
 40
0.3723279775634349
 40
0.5003048062339968
 40
0.6251202176382715
 40
0.7501724917960445
 40
0.8088211492242431
 40
0.8746129921031575
 40
0.9261677616094899
 40
1.0
 40
1.0
 40
1.0
 40
1.0
 10
525.9153281088575
 20
479.6819457013273
 30
0.0
 10
525.9098180292433
 20
479.512317325532
 30
0.0
 10
525.8988777482547
 20
479.1755196338796
 30
0.0
 10
526.162503010741
 20
477.5811959941797
 30
0.0
 10
526.6223628542982
 20
475.2606771631216
 30
0.0
 10
527.2823108493516
 20
472.2160240298092
 30
0.0
 10
528.1210032365819
 20
468.5655719390748
 30
0.0
 10
528.9201796316501
 20
465.2126679056396
 30
0.0
 10
529.6151913886051
 20
462.3553051986521
 30
0.0
 10
530.1242070911287
 20
460.2812150099513
 30
0.0
 10
530.6921398075692
 20
457.9891775181324
 30
0.0
 10
531.0719234973508
 20
456.4646185966316
 30
0.0
 10
531.2955533645205
 20
455.5669051921835
 30
0.0
  0
ARC
  5
F6
330
1F
100
AcDbEntity
  8
0
  6
Continuous
 62
     7
370
    25
100
AcDbCircle
 10
645.7377016273
 20
108.1398960388
 30
0.0
 40
311.3079403140791
100
AcDbArc
 50
86.4783713873
 51
90.9501490105
  0
LINE
  5
F7
330
1F
100
AcDbEntity
  8
0
  6
Continuous
 62
     7
370
    25
100
AcDbLine
 10
640.5754474966
 20
419.4050319517
 30
0.0
 11
640.5344012497
 21
455.5669051922
 31
0.0
  0
SPLINE
  5
F8
330
1F
100
AcDbEntity
  8
0
  6
Continuous
 62
     7
370
    25
100
AcDbSpline
210
0.0
220
0.0
230
1.0
 70
     8
 71
     3
 72
    19
 73
    15
 74
     0
 42
0.00000001
 43
0.00000001
 40
0.0
 40
0.0
 40
0.0
 40
0.0
 40
0.0608471788740695
 40
0.107433965381121
 40
0.1525502748409044
 40
0.2034652598742189
 40
0.2498089164197776
 40
0.3349911081548865
 40
0.4177151733118212
 40
0.4998188885285862
 40
0.6277655946758485
 40
0.7501118722822073
 40
0.8741457111837755
 40
1.0
 40
1.0
 40
1.0
 40
1.0
 10
640.5344012496989
 20
455.5669051921892
 30
0.0
 10
641.2750622346231
 20
455.7503532910271
 30
0.0
 10
642.5827998830385
 20
456.0742558459929
 30
0.0
 10
644.4225355231208
 20
456.5252766910079
 30
0.0
 10
646.1230021455167
 20
456.9383054494888
 30
0.0
 10
647.7927010608784
 20
457.3390731791728
 30
0.0
 10
649.8844699710222
 20
457.8351924100694
 30
0.0
 10
652.2522324861561
 20
458.3849563579618
 30
0.0
 10
654.837071018445
 20
458.9664853593948
 30
0.0
 10
657.6126245532241
 20
459.5666681164552
 30
0.0
 10
660.3462985830193
 20
460.1170913561679
 30
0.0
 10
662.7103977559079
 20
460.5329360761008
 30
0.0
 10
664.3522705309919
 20
460.7494242029813
 30
0.0
 10
664.722466040068
 20
460.7054560078798
 30
0.0
 10
664.9089122427876
 20
460.6833117548671
 30
0.0
  0
LINE
  5
F9
330
1F
100
AcDbEntity
  8
0
  6
Continuous
 62
     7
370
    25
100
AcDbLine
 10
664.9243168455
 20
460.6759455371
 30
0.0
 11
664.9089122428
 21
460.6833117549
 31
0.0
  0
SPLINE
  5
FA
330
1F
100
AcDbEntity
  8
0
  6
Continuous
 62
     7
370
    25
100
AcDbSpline
210
0.0
220
0.0
230
1.0
 70
     8
 71
     3
 72
    20
 73
    16
 74
     0
 42
0.00000001
 43
0.00000001
 40
0.0
 40
0.0
 40
0.0
 40
0.0
 40
0.1258237059362091
 40
0.2498274043302738
 40
0.3308242993088512
 40
0.4142859761699192
 40
0.5002669681546932
 40
0.5614149837572037
 40
0.6251584968952414
 40
0.685732663265913
 40
0.7502835080378105
 40
0.8089082124610538
 40
0.874668837544394
 40
0.9262270931581499
 40
1.0
 40
1.0
 40
1.0
 40
1.0
 10
506.921042371433
 20
460.6833117548677
 30
0.0
 10
507.1072563292059
 20
460.7055124263322
 30
0.0
 10
507.4769907077505
 20
460.7495926422587
 30
0.0
 10
508.9395907753043
 20
460.5564062292716
 30
0.0
 10
510.6618083798458
 20
460.2633975536924
 30
0.0
 10
512.4860768165746
 20
459.9162684268387
 30
0.0
 10
514.4372043858039
 20
459.5171266063417
 30
0.0
 10
516.4099733878327
 20
459.0929524867728
 30
0.0
 10
518.2708770861909
 20
458.6801881567034
 30
0.0
 10
520.2757910004176
 20
458.2231026589708
 30
0.0
 10
522.3183662630963
 20
457.7473522828127
 30
0.0
 10
524.4929116155103
 20
457.230606413921
 30
0.0
 10
526.5738495874201
 20
456.7288755259019
 30
0.0
 10
528.871200249423
 20
456.166997718055
 30
0.0
 10
530.3972714904093
 20
455.7892540882348
 30
0.0
 10
531.2955533645217
 20
455.5669051921835
 30
0.0
  0
LINE
  5
FB
330
1F
100
AcDbEntity
  8
0
  6
Continuous
 62
     7
370
    25
100
AcDbLine
 10
531.2955533645
 20
455.5669051922
 30
0.0
 11
531.2545071176
 21
419.4050319517
 31
0.0
  0
ARC
  5
FC
330
1F
100
AcDbEntity
  8
0
  6
Continuous
 62
     7
370
    25
100
AcDbCircle
 10
526.0922529867
 20
108.1398960423
 30
0.0
 40
311.307940310636
100
AcDbArc
 50
89.0498509895
 51
93.5216286127
  0
LINE
  5
FD
330
1F
100
AcDbEntity
  8
0
  6
Continuous
 62
     7
370
    25
100
AcDbLine
 10
506.9056377687
 20
460.6759455371
 30
0.0
 11
506.9210423714
 21
460.6833117549
 31
0.0
  0
SPLINE
  5
FE
330
1F
100
AcDbEntity
  8
0
  6
Continuous
 62
     7
370
    25
100
AcDbSpline
210
0.0
220
0.0
230
1.0
 70
     8
 71
     3
 72
    15
 73
    11
 74
     0
 42
0.00000001
 43
0.00000001
 40
0.0
 40
0.0
 40
0.0
 40
0.0
 40
0.1250113491964498
 40
0.2500131191738828
 40
0.3750082557931618
 40
0.4999999995703748
 40
0.6249917433631845
 40
0.7499868800288304
 40
0.8749886511069087
 40
1.0
 40
1.0
 40
1.0
 40
1.0
 10
664.9089122427876
 20
460.6833117548687
 30
0.0
 10
664.834146048347
 20
461.924569280727
 30
0.0
 10
664.6846193885598
 20
464.406989218858
 30
0.0
 10
663.5487325025445
 20
467.9881274155102
 30
0.0
 10
661.7901004684016
 20
471.2899412507781
 30
0.0
 10
659.4095740540538
 20
474.1844533652653
 30
0.0
 10
656.5159236146329
 20
476.5653254863972
 30
0.0
 10
653.2154640290304
 20
478.3237614098109
 30
0.0
 10
649.6360940541152
 20
479.4589594960518
 30
0.0
 10
647.155147369348
 20
479.607615067941
 30
0.0
 10
645.9146265053615
 20
479.6819457013273
 30
0.0
  0
SPLINE
  5
FF
330
1F
100
AcDbEntity
  8
0
  6
Continuous
 62
     7
370
    25
100
AcDbSpline
210
0.0
220
0.0
230
1.0
 70
     8
 71
     3
 72
    15
 73
    11
 74
     0
 42
0.00000001
 43
0.00000001
 40
0.0
 40
0.0
 40
0.0
 40
0.0
 40
0.1250113499314235
 40
0.2500131191725227
 40
0.3750082557857881
 40
0.4999999995617452
 40
0.624991743355813
 40
0.749986880027465
 40
0.8749886518418833
 40
1.0
 40
1.0
 40
1.0
 40
1.0
 10
525.9153281088575
 20
479.6819457013273
 30
0.0
 10
524.6748072345084
 20
479.6076150668308
 30
0.0
 10
522.1938605575486
 20
479.4589594944309
 30
0.0
 10
518.6144905917805
 20
478.3237614105644
 30
0.0
 10
515.3140310206063
 20
476.5653255004034
 30
0.0
 10
512.4203805784126
 20
474.1844533835157
 30
0.0
 10
510.0398541598246
 20
471.2899412718047
 30
0.0
 10
508.2812221124317
 20
467.9881274221047
 30
0.0
 10
507.1453352240396
 20
464.4069892163014
 30
0.0
 10
506.9958085647599
 20
461.9245692703578
 30
0.0
 10
506.921042371433
 20
460.683311754868
 30
0.0
  0
SPLINE
  5
100
330
1F
100
AcDbEntity
  8
0
  6
Continuous
 62
     7
370
    25
100
AcDbSpline
210
0.0
220
0.0
230
1.0
 70
     8
 71
     3
 72
     9
 73
     5
 74
     0
 42
0.00000001
 43
0.00000001
 40
0.0
 40
0.0
 40
0.0
 40
0.0
 40
0.7923136092253538
 40
1.0
 40
1.0
 40
1.0
 40
1.0
 10
640.5754474966224
 20
331.9468591223962
 30
0.0
 10
640.6057136428203
 20
337.7389046735607
 30
0.0
 10
640.6439133478937
 20
345.0491988345146
 30
0.0
 10
640.6775818114088
 20
352.3603461677365
 30
0.0
 10
640.6845742930791
 20
353.878771969795
 30
0.0
  0
LINE
  5
101
330
1F
100
AcDbEntity
  8
0
  6
Continuous
 62
     7
370
    25
100
AcDbLine
 10
642.1346877023
 20
358.2258793709
 30
0.0
 11
640.6845742931
 21
353.8787719698
 31
0.0
  0
LWPOLYLINE
  5
102
330
1F
100
AcDbEntity
  8
0
  6
Continuous
 62
     7
370
    25
100
AcDbPolyline
 90
       13
 70
   128
 43
0.0
 10
642.1346877023
 20
358.2258793709
 10
645.0740237613
 20
358.2322358881
 10
647.9397933951
 20
358.2422222905
 10
650.6914748485
 20
358.2556973711
 10
653.290159564
 20
358.2724705933
 10
655.6991023457
 20
358.2923047852
 10
657.8842409338
 20
358.3149194927
 10
659.8146776419
 20
358.3399949458
 10
661.4631162481
 20
358.3671765796
 10
662.8062479612
 20
358.3960800477
 10
663.8250810054
 20
358.4262966577
 10
664.5052091621
 20
358.4573991488
 10
664.8370154732
 20
358.4889477345
  0
SPLINE
  5
103
330
1F
100
AcDbEntity
  8
0
  6
Continuous
 62
     7
370
    25
100
AcDbSpline
210
0.0
220
0.0
230
1.0
 70
     8
 71
     3
 72
     9
 73
     5
 74
     0
 42
0.00000001
 43
0.00000001
 40
0.0
 40
0.0
 40
0.0
 40
0.0
 40
0.7923136092265197
 40
1.0
 40
1.0
 40
1.0
 40
1.0
 10
531.2545071175997
 20
419.4050319517334
 30
0.0
 10
531.2242409714012
 20
413.6129864005682
 30
0.0
 10
531.1860412663272
 20
406.3026922396242
 30
0.0
 10
531.152372802812
 20
398.9915449064126
 30
0.0
 10
531.1453803211417
 20
397.4731191043648
 30
0.0
  0
LINE
  5
104
330
1F
100
AcDbEntity
  8
0
  6
Continuous
 62
     7
370
    25
100
AcDbLine
 10
529.6952669119
 20
393.1260117033
 30
0.0
 11
531.1453803211
 21
397.4731191044
 31
0.0
  0
LWPOLYLINE
  5
105
330
1F
100
AcDbEntity
  8
0
  6
Continuous
 62
     7
370
    25
100
AcDbPolyline
 90
       13
 70
   128
 43
0.0
 10
506.992939141
 20
392.8629433397
 10
507.3247454521
 20
392.8944919253
 10
508.0048736089
 20
392.9255944165
 10
509.023706653
 20
392.9558110264
 10
510.3668383661
 20
392.9847144946
 10
512.0152769723
 20
393.0118961283
 10
513.9457136804
 20
393.0369715814
 10
516.1308522685
 20
393.059586289
 10
518.5397950502
 20
393.0794204808
 10
521.1384797657
 20
393.0961937031
 10
523.8901612191
 20
393.1096687837
 10
526.755930853
 20
393.1196551861
 10
529.6952669119
 20
393.1260117033
  0
LWPOLYLINE
  5
106
330
1F
100
AcDbEntity
  8
0
  6
Continuous
 62
     7
370
    25
100
AcDbPolyline
 90
       13
 70
   128
 43
0.0
 10
506.992939141
 20
358.4889477345
 10
507.3247454521
 20
358.4573991488
 10
508.0048736089
 20
358.4262966576
 10
509.023706653
 20
358.3960800477
 10
510.3668383661
 20
358.3671765795
 10
512.0152769723
 20
358.3399949458
 10
513.9457136804
 20
358.3149194927
 10
516.1308522685
 20
358.2923047852
 10
518.5397950502
 20
358.2724705933
 10
521.1384797657
 20
358.2556973711
 10
523.8901612191
 20
358.2422222905
 10
526.755930853
 20
358.2322358881
 10
529.6952669119
 20
358.2258793708
  0
LINE
  5
107
330
1F
100
AcDbEntity
  8
0
  6
Continuous
 62
     7
370
    25
100
AcDbLine
 10
531.1453803211
 20
353.8787719698
 30
0.0
 11
529.6952669119
 21
358.2258793708
 31
0.0
  0
LINE
  5
108
330
1F
100
AcDbEntity
  8
0
  6
Continuous
 62
     7
370
    25
100
AcDbLine
 10
531.1453803211
 20
353.8787719698
 30
0.0
 11
531.2545071176
 21
331.9468591224
 31
0.0
  0
LWPOLYLINE
  5
109
330
1F
100
AcDbEntity
  8
0
  6
Continuous
 62
     7
370
    25
100
AcDbPolyline
 90
       13
 70
   128
 43
0.0
 10
642.1346877023
 20
393.1260117033
 10
645.0740237612
 20
393.1196551861
 10
647.9397933951
 20
393.1096687837
 10
650.6914748485
 20
393.0961937031
 10
653.290159564
 20
393.0794204808
 10
655.6991023457
 20
393.059586289
 10
657.8842409338
 20
393.0369715814
 10
659.8146776419
 20
393.0118961283
 10
661.4631162481
 20
392.9847144946
 10
662.8062479612
 20
392.9558110264
 10
663.8250810053
 20
392.9255944165
 10
664.5052091621
 20
392.8944919253
 10
664.8370154732
 20
392.8629433397
  0
LINE
  5
10A
330
1F
100
AcDbEntity
  8
0
  6
Continuous
 62
     7
370
    25
100
AcDbLine
 10
640.6845742931
 20
397.4731191043
 30
0.0
 11
642.1346877023
 21
393.1260117033
 31
0.0
  0
LINE
  5
10B
330
1F
100
AcDbEntity
  8
0
  6
Continuous
 62
     7
370
    25
100
AcDbLine
 10
640.6845742931
 20
397.4731191043
 30
0.0
 11
640.5754474966
 21
419.4050319517
 31
0.0
  0
SPLINE
  5
10C
330
1F
100
AcDbEntity
  8
0
  6
Continuous
 62
     7
370
    25
100
AcDbSpline
210
0.0
220
0.0
230
1.0
 70
     8
 71
     3
 72
    13
 73
     9
 74
     0
 42
0.00000001
 43
0.00000001
 40
0.0
 40
0.0
 40
0.0
 40
0.0
 40
0.146943200574478
 40
0.2938841073259581
 40
0.4451146978153878
 40
0.5963449041424983
 40
0.7968470915539033
 40
1.0
 40
1.0
 40
1.0
 40
1.0
 10
642.1346877022748
 20
393.1260117032996
 30
0.0
 10
642.5788313990939
 20
391.4510850632077
 30
0.0
 10
643.4671118595292
 20
388.1012579290805
 30
0.0
 10
644.2761824305855
 20
382.9087208641113
 30
0.0
 10
644.6772341090303
 20
377.6209644460168
 30
0.0
 10
644.598369081089
 20
371.6881519402334
 30
0.0
 10
643.9082213485352
 20
365.1621805657669
 30
0.0
 10
642.7284480282958
 20
360.5480797235345
 30
0.0
 10
642.1346877022812
 20
358.2258793708502
 30
0.0
  0
SPLINE
  5
10D
330
1F
100
AcDbEntity
  8
0
  6
Continuous
 62
     7
370
    25
100
AcDbSpline
210
0.0
220
0.0
230
1.0
 70
     8
 71
     3
 72
    13
 73
     9
 74
     0
 42
0.00000001
 43
0.00000001
 40
0.0
 40
0.0
 40
0.0
 40
0.0
 40
0.1469432005743953
 40
0.2938841073257907
 40
0.4451146978151333
 40
0.5963449041421567
 40
0.7968470915537197
 40
1.0
 40
1.0
 40
1.0
 40
1.0
 10
529.6952669119459
 20
358.2258793708285
 30
0.0
 10
529.2511232151269
 20
359.9008060109204
 30
0.0
 10
528.3628427546917
 20
363.2506331450476
 30
0.0
 10
527.5537721836348
 20
368.4431702100172
 30
0.0
 10
527.1527205051908
 20
373.7309266281112
 30
0.0
 10
527.2315855331316
 20
379.663739133898
 30
0.0
 10
527.9217332656867
 20
386.1897105083714
 30
0.0
 10
529.1015065859291
 20
390.8038113506099
 30
0.0
 10
529.6952669119452
 20
393.1260117032975
 30
0.0
  0
ARC
  5
10E
330
1F
100
AcDbEntity
  8
0
  6
Continuous
 62
     7
370
    25
100
AcDbCircle
 10
585.9149773071
 20
375.6759455371
 30
0.0
 40
70.00000000000003
100
AcDbArc
 50
218.6602622186
 51
321.3397377814
  0
ARC
  5
10F
330
1F
100
AcDbEntity
  8
0
  6
Continuous
 62
     7
370
    25
100
AcDbCircle
 10
524.1842811596
 20
374.2583888226
 30
0.0
 40
19.65599544996711
100
AcDbArc
 50
69.7354800181
 51
73.7176071175
  0
SPLINE
  5
110
330
1F
100
AcDbEntity
  8
0
  6
Continuous
 62
     7
370
    25
100
AcDbSpline
210
0.0
220
0.0
230
1.0
 70
     8
 71
     3
 72
    13
 73
     9
 74
     0
 42
0.00000001
 43
0.00000001
 40
0.0
 40
0.0
 40
0.0
 40
0.0
 40
0.1381090453208641
 40
0.2762182853529067
 40
0.4183393515909899
 40
0.5604604460263488
 40
0.7783004899418556
 40
0.9999999999999999
 40
0.9999999999999999
 40
0.9999999999999999
 40
0.9999999999999999
 10
530.9922296073661
 20
392.6977487644025
 30
0.0
 10
530.5579319208618
 20
391.1670468890443
 30
0.0
 10
529.6893359355646
 20
388.1056409802886
 30
0.0
 10
528.8658356119544
 20
383.3511516997268
 30
0.0
 10
528.4123981256763
 20
378.5032009738235
 30
0.0
 10
528.3845971136781
 20
372.7174771721629
 30
0.0
 10
529.0160446946595
 20
366.0183712296506
 30
0.0
 10
530.3296564915862
 20
361.1232129262549
 30
0.0
 10
530.992229607367
 20
358.6541423097231
 30
0.0
  0
ARC
  5
111
330
1F
100
AcDbEntity
  8
0
  6
Continuous
 62
     7
370
    25
100
AcDbCircle
 10
524.1842811594
 20
377.0935022522
 30
0.0
 40
19.65599545070852
100
AcDbArc
 50
286.2823928826
 51
290.2645199818
  0
SPLINE
  5
112
330
1F
100
AcDbEntity
  8
0
  6
Continuous
 62
     7
370
    25
100
AcDbSpline
210
0.0
220
0.0
230
1.0
 70
     8
 71
     3
 72
    13
 73
     9
 74
     0
 42
0.00000001
 43
0.00000001
 40
0.0
 40
0.0
 40
0.0
 40
0.0
 40
0.1381090453209418
 40
0.2762182853530625
 40
0.4183393515912265
 40
0.5604604460266653
 40
0.7783004899420188
 40
0.9999999999999999
 40
0.9999999999999999
 40
0.9999999999999999
 40
0.9999999999999999
 10
640.8377250068602
 20
358.6541423097441
 30
0.0
 10
641.272022693364
 20
360.1848441851025
 30
0.0
 10
642.1406186786602
 20
363.2462500938585
 30
0.0
 10
642.964119002269
 20
368.0007393744206
 30
0.0
 10
643.4175564885453
 20
372.8486901003241
 30
0.0
 10
643.4453575005416
 20
378.6344139019814
 30
0.0
 10
642.8139099195594
 20
385.3335198444871
 30
0.0
 10
641.500298122634
 20
390.2286781478765
 30
0.0
 10
640.8377250068537
 20
392.6977487644052
 30
0.0
  0
ARC
  5
113
330
1F
100
AcDbEntity
  8
0
  6
Continuous
 62
     7
370
    25
100
AcDbCircle
 10
647.6456734549
 20
374.2583888218
 30
0.0
 40
19.65599545088733
100
AcDbArc
 50
106.2823928826
 51
110.2645199818
  0
ARC
  5
114
330
1F
100
AcDbEntity
  8
0
  6
Continuous
 62
     7
370
    25
100
AcDbCircle
 10
647.6456734549
 20
377.0935022525
 30
0.0
 40
19.65599545104685
100
AcDbArc
 50
249.7354800182
 51
253.7176071174
  0
ARC
  5
115
330
1F
100
AcDbEntity
  8
0
  6
Continuous
 62
     7
370
    25
100
AcDbCircle
 10
585.9149773071
 20
375.6759455371
 30
0.0
 40
70.0
100
AcDbArc
 50
38.6602622186
 51
141.3397377814
  0
ARC
  5
116
330
1F
100
AcDbEntity
  8
0
  6
Continuous
 62
     7
370
    25
100
AcDbCircle
 10
585.9149773071
 20
375.6759455371
 30
0.0
 40
58.94765075495761
100
AcDbArc
 50
21.7015386848
 51
158.2984613152
  0
ARC
  5
117
330
1F
100
AcDbEntity
  8
0
  6
Continuous
 62
     7
370
    25
100
AcDbCircle
 10
585.9149773071
 20
375.6759455371
 30
0.0
 40
58.94765075494607
100
AcDbArc
 50
201.7015386848
 51
338.2984613152
  0
LINE
  5
118
330
1F
100
AcDbEntity
  8
0
  6
Continuous
 62
     7
370
    25
100
AcDbLine
 10
532.4904254147
 20
396.9378188105
 30
0.0
 11
531.1453803211
 21
397.4731191044
 31
0.0
  0
LINE
  5
119
330
1F
100
AcDbEntity
  8
0
  6
Continuous
 62
     7
370
    25
100
AcDbLine
 10
532.4904254147
 20
396.9378188105
 30
0.0
 11
530.9922296074
 21
392.6977487644
 31
0.0
  0
LINE
  5
11A
330
1F
100
AcDbEntity
  8
0
  6
Continuous
 62
     7
370
    25
100
AcDbLine
 10
640.6845742931
 20
353.8787719698
 30
0.0
 11
639.3395291995
 21
354.4140722636
 31
0.0
  0
LINE
  5
11B
330
1F
100
AcDbEntity
  8
0
  6
Continuous
 62
     7
370
    25
100
AcDbLine
 10
639.3395291995
 20
354.4140722636
 30
0.0
 11
640.8377250069
 21
358.6541423097
 31
0.0
  0
LINE
  5
11C
330
1F
100
AcDbEntity
  8
0
  6
Continuous
 62
     7
370
    25
100
AcDbLine
 10
531.1453803211
 20
353.8787719698
 30
0.0
 11
532.4904254147
 21
354.4140722636
 31
0.0
  0
LINE
  5
11D
330
1F
100
AcDbEntity
  8
0
  6
Continuous
 62
     7
370
    25
100
AcDbLine
 10
530.9922296074
 20
358.6541423097
 30
0.0
 11
532.4904254147
 21
354.4140722636
 31
0.0
  0
LINE
  5
11E
330
1F
100
AcDbEntity
  8
0
  6
Continuous
 62
     7
370
    25
100
AcDbLine
 10
639.3395291995
 20
396.9378188105
 30
0.0
 11
640.6845742931
 21
397.4731191043
 31
0.0
  0
LINE
  5
11F
330
1F
100
AcDbEntity
  8
0
  6
Continuous
 62
     7
370
    25
100
AcDbLine
 10
640.8377250069
 20
392.6977487644
 30
0.0
 11
639.3395291995
 21
396.9378188105
 31
0.0
  0
ARC
  5
120
330
1F
100
AcDbEntity
  8
0
  6
Continuous
 62
     7
370
    25
100
AcDbCircle
 10
585.9149773071
 20
375.6759455371
 30
0.0
 40
57.49999999999981
100
AcDbArc
 50
21.7015386848
 51
158.2984613152
  0
ARC
  5
121
330
1F
100
AcDbEntity
  8
0
  6
Continuous
 62
     7
370
    25
100
AcDbCircle
 10
585.9149773071
 20
375.6759455371
 30
0.0
 40
57.49999999999981
100
AcDbArc
 50
201.7015386848
 51
338.2984613152
  0
CIRCLE
  5
122
330
1F
100
AcDbEntity
  8
0
  6
Continuous
 62
     7
370
    25
100
AcDbCircle
 10
585.9149773071
 20
375.6759455371
 30
0.0
 40
56.58715574274748
  0
CIRCLE
  5
123
330
1F
100
AcDbEntity
  8
0
  6
Continuous
 62
     7
370
    25
100
AcDbCircle
 10
585.9149773071
 20
375.6759455371
 30
0.0
 40
45.00000000000011
  0
ARC
  5
124
330
1F
100
AcDbEntity
  8
0
  6
Continuous
 62
     7
370
    25
100
AcDbCircle
 10
101.9149773071
 20
574.6759455371
 30
0.0
 40
10.00000000000011
100
AcDbArc
 50
90.0
 51
180.0
  0
LINE
  5
125
330
1F
100
AcDbEntity
  8
0
  6
Continuous
 62
     7
370
    25
100
AcDbLine
 10
697.9149773071
 20
584.6759455371
 30
0.0
 11
101.9149773071
 21
584.6759455371
 31
0.0
  0
ARC
  5
126
330
1F
100
AcDbEntity
  8
0
  6
Continuous
 62
     7
370
    25
100
AcDbCircle
 10
697.9149773071
 20
574.6759455371
 30
0.0
 40
10.00000000000011
100
AcDbArc
 50
0.0
 51
90.0
  0
LINE
  5
127
330
1F
100
AcDbEntity
  8
0
  6
Continuous
 62
     7
370
    25
100
AcDbLine
 10
707.9149773071
 20
74.6759455371
 30
0.0
 11
707.9149773071
 21
574.6759455371
 31
0.0
  0
ARC
  5
128
330
1F
100
AcDbEntity
  8
0
  6
Continuous
 62
     7
370
    25
100
AcDbCircle
 10
697.9149773071
 20
74.6759455371
 30
0.0
 40
10.00000000000001
100
AcDbArc
 50
270.0
 51
0.0
  0
LINE
  5
129
330
1F
100
AcDbEntity
  8
0
  6
Continuous
 62
     7
370
    25
100
AcDbLine
 10
101.9149773071
 20
64.6759455371
 30
0.0
 11
697.9149773071
 21
64.6759455371
 31
0.0
  0
ARC
  5
12A
330
1F
100
AcDbEntity
  8
0
  6
Continuous
 62
     7
370
    25
100
AcDbCircle
 10
101.9149773071
 20
74.6759455371
 30
0.0
 40
10.00000000000001
100
AcDbArc
 50
180.0
 51
270.0
  0
LINE
  5
12B
330
1F
100
AcDbEntity
  8
0
  6
Continuous
 62
     7
370
    25
100
AcDbLine
 10
91.9149773071
 20
574.6759455371
 30
0.0
 11
91.9149773071
 21
74.6759455371
 31
0.0
  0
LINE
  5
12C
330
1F
100
AcDbEntity
  8
0
  6
Continuous
 62
     7
370
    25
100
AcDbLine
 10
689.9149773071
 20
324.6759455371
 30
0.0
 11
689.9149773071
 21
543.6759455371
 31
0.0
  0
ARC
  5
12D
330
1F
100
AcDbEntity
  8
0
  6
Continuous
 62
     7
370
    25
100
AcDbCircle
 10
666.9149773071
 20
543.6759455371
 30
0.0
 40
23.00000000000011
100
AcDbArc
 50
0.0
 51
90.0
  0
LINE
  5
12E
330
1F
100
AcDbEntity
  8
0
  6
Continuous
 62
     7
370
    25
100
AcDbLine
 10
666.9149773071
 20
566.6759455371
 30
0.0
 11
132.9149773071
 21
566.6759455371
 31
0.0
  0
ARC
  5
12F
330
1F
100
AcDbEntity
  8
0
  6
Continuous
 62
     7
370
    25
100
AcDbCircle
 10
132.9149773071
 20
543.6759455371
 30
0.0
 40
23.00000000000001
100
AcDbArc
 50
90.0
 51
180.0
  0
LINE
  5
130
330
1F
100
AcDbEntity
  8
0
  6
Continuous
 62
     7
370
    25
100
AcDbLine
 10
109.9149773071
 20
543.6759455371
 30
0.0
 11
109.9149773071
 21
105.6759455371
 31
0.0
  0
ARC
  5
131
330
1F
100
AcDbEntity
  8
0
  6
Continuous
 62
     7
370
    25
100
AcDbCircle
 10
132.9149773071
 20
105.6759455371
 30
0.0
 40
23.00000000000001
100
AcDbArc
 50
180.0
 51
270.0
  0
LINE
  5
132
330
1F
100
AcDbEntity
  8
0
  6
Continuous
 62
     7
370
    25
100
AcDbLine
 10
132.9149773071
 20
82.6759455371
 30
0.0
 11
666.9149773071
 21
82.6759455371
 31
0.0
  0
ARC
  5
133
330
1F
100
AcDbEntity
  8
0
  6
Continuous
 62
     7
370
    25
100
AcDbCircle
 10
666.9149773071
 20
105.6759455371
 30
0.0
 40
23.00000000000001
100
AcDbArc
 50
270.0
 51
0.0
  0
LINE
  5
134
330
1F
100
AcDbEntity
  8
0
  6
Continuous
 62
     7
370
    25
100
AcDbLine
 10
689.9149773071
 20
105.6759455371
 30
0.0
 11
689.9149773071
 21
324.6759455371
 31
0.0
  0
LINE
  5
135
330
1F
100
AcDbEntity
  8
0
  6
Continuous
 62
     7
370
    25
100
AcDbLine
 10
689.9149773071
 20
543.6759455371
 30
0.0
 11
689.1488517178
 21
543.6759455371
 31
0.0
  0
LINE
  5
136
330
1F
100
AcDbEntity
  8
0
  6
Continuous
 62
     7
370
    25
100
AcDbLine
 10
689.9149773071
 20
324.6759455371
 30
0.0
 11
689.1488517178
 21
324.6759455371
 31
0.0
  0
LINE
  5
137
330
1F
100
AcDbEntity
  8
0
  6
Continuous
 62
     7
370
    25
100
AcDbLine
 10
689.1488517178
 20
324.6759455371
 30
0.0
 11
689.1488517178
 21
543.6759455371
 31
0.0
  0
LINE
  5
138
330
1F
100
AcDbEntity
  8
0
  6
Continuous
 62
     7
370
    25
100
AcDbLine
 10
689.9149773071
 20
105.6759455371
 30
0.0
 11
689.1488517178
 21
105.6759455371
 31
0.0
  0
LINE
  5
139
330
1F
100
AcDbEntity
  8
0
  6
Continuous
 62
     7
370
    25
100
AcDbLine
 10
689.1488517178
 20
105.6759455371
 30
0.0
 11
689.1488517178
 21
324.6759455371
 31
0.0
  0
LINE
  5
13A
330
1F
100
AcDbEntity
  8
0
  6
Continuous
 62
     7
370
    25
100
AcDbLine
 10
666.9149773071
 20
82.6759455371
 30
0.0
 11
666.9149773071
 21
83.4420711264
 31
0.0
  0
LINE
  5
13B
330
1F
100
AcDbEntity
  8
0
  6
Continuous
 62
     7
370
    25
100
AcDbLine
 10
132.9149773071
 20
82.6759455371
 30
0.0
 11
132.9149773071
 21
83.4420711264
 31
0.0
  0
LINE
  5
13C
330
1F
100
AcDbEntity
  8
0
  6
Continuous
 62
     7
370
    25
100
AcDbLine
 10
132.9149773071
 20
83.4420711264
 30
0.0
 11
666.9149773071
 21
83.4420711264
 31
0.0
  0
LINE
  5
13D
330
1F
100
AcDbEntity
  8
0
  6
Continuous
 62
     7
370
    25
100
AcDbLine
 10
109.9149773071
 20
543.6759455371
 30
0.0
 11
110.6811028964
 21
543.6759455371
 31
0.0
  0
LINE
  5
13E
330
1F
100
AcDbEntity
  8
0
  6
Continuous
 62
     7
370
    25
100
AcDbLine
 10
132.9149773071
 20
566.6759455371
 30
0.0
 11
132.9149773071
 21
565.9098199477
 31
0.0
  0
ARC
  5
13F
330
1F
100
AcDbEntity
  8
0
  6
Continuous
 62
     7
370
    25
100
AcDbCircle
 10
132.9149773071
 20
543.6759455371
 30
0.0
 40
22.23387441067962
100
AcDbArc
 50
90.0
 51
180.0
  0
LINE
  5
140
330
1F
100
AcDbEntity
  8
0
  6
Continuous
 62
     7
370
    25
100
AcDbLine
 10
109.9149773071
 20
105.6759455371
 30
0.0
 11
110.6811028964
 21
105.6759455371
 31
0.0
  0
LINE
  5
141
330
1F
100
AcDbEntity
  8
0
  6
Continuous
 62
     7
370
    25
100
AcDbLine
 10
110.6811028964
 20
543.6759455371
 30
0.0
 11
110.6811028964
 21
105.6759455371
 31
0.0
  0
LINE
  5
142
330
1F
100
AcDbEntity
  8
0
  6
Continuous
 62
     7
370
    25
100
AcDbLine
 10
666.9149773071
 20
566.6759455371
 30
0.0
 11
666.9149773071
 21
565.9098199477
 31
0.0
  0
ARC
  5
143
330
1F
100
AcDbEntity
  8
0
  6
Continuous
 62
     7
370
    25
100
AcDbCircle
 10
666.9149773071
 20
543.6759455371
 30
0.0
 40
22.23387441067962
100
AcDbArc
 50
0.0
 51
90.0
  0
ARC
  5
144
330
1F
100
AcDbEntity
  8
0
  6
Continuous
 62
     7
370
    25
100
AcDbCircle
 10
132.9149773071
 20
105.6759455371
 30
0.0
 40
22.23387441067959
100
AcDbArc
 50
180.0
 51
270.0
  0
LINE
  5
145
330
1F
100
AcDbEntity
  8
0
  6
Continuous
 62
     7
370
    25
100
AcDbLine
 10
666.9149773071
 20
565.9098199477
 30
0.0
 11
132.9149773071
 21
565.9098199477
 31
0.0
  0
ARC
  5
146
330
1F
100
AcDbEntity
  8
0
  6
Continuous
 62
     7
370
    25
100
AcDbCircle
 10
666.9149773071
 20
105.6759455371
 30
0.0
 40
22.23387441067962
100
AcDbArc
 50
270.0
 51
0.0
  0
LINE
  5
147
330
1F
100
AcDbEntity
  8
0
  6
Continuous
 62
     7
370
    25
100
AcDbLine
 10
132.9149773071
 20
565.9098199477
 30
0.0
 11
132.9149773071
 21
564.9522105201
 31
0.0
  0
LINE
  5
148
330
1F
100
AcDbEntity
  8
0
  6
Continuous
 62
     7
370
    25
100
AcDbLine
 10
666.9149773071
 20
565.9098199477
 30
0.0
 11
666.9149773071
 21
564.9522105201
 31
0.0
  0
LINE
  5
149
330
1F
100
AcDbEntity
  8
0
  6
Continuous
 62
     7
370
    25
100
AcDbLine
 10
666.9149773071
 20
564.9522105201
 30
0.0
 11
132.9149773071
 21
564.9522105201
 31
0.0
  0
LINE
  5
14A
330
1F
100
AcDbEntity
  8
0
  6
Continuous
 62
     7
370
    25
100
AcDbLine
 10
689.1488517178
 20
105.6759455371
 30
0.0
 11
688.1912422902
 21
105.6759455371
 31
0.0
  0
LINE
  5
14B
330
1F
100
AcDbEntity
  8
0
  6
Continuous
 62
     7
370
    25
100
AcDbLine
 10
666.9149773071
 20
83.4420711264
 30
0.0
 11
666.9149773071
 21
84.399680554
 31
0.0
  0
ARC
  5
14C
330
1F
100
AcDbEntity
  8
0
  6
Continuous
 62
     7
370
    25
100
AcDbCircle
 10
666.9149773071
 20
105.6759455371
 30
0.0
 40
21.27626498307336
100
AcDbArc
 50
270.0
 51
0.0
  0
LINE
  5
14D
330
1F
100
AcDbEntity
  8
0
  6
Continuous
 62
     7
370
    25
100
AcDbLine
 10
688.1912422902
 20
105.6759455371
 30
0.0
 11
688.1912422902
 21
324.6759455371
 31
0.0
  0
LINE
  5
14E
330
1F
100
AcDbEntity
  8
0
  6
Continuous
 62
     7
370
    25
100
AcDbLine
 10
689.1488517178
 20
324.6759455371
 30
0.0
 11
688.1912422902
 21
324.6759455371
 31
0.0
  0
LINE
  5
14F
330
1F
100
AcDbEntity
  8
0
  6
Continuous
 62
     7
370
    25
100
AcDbLine
 10
689.1488517178
 20
543.6759455371
 30
0.0
 11
688.1912422902
 21
543.6759455371
 31
0.0
  0
LINE
  5
150
330
1F
100
AcDbEntity
  8
0
  6
Continuous
 62
     7
370
    25
100
AcDbLine
 10
688.1912422902
 20
324.6759455371
 30
0.0
 11
688.1912422902
 21
543.6759455371
 31
0.0
  0
ARC
  5
151
330
1F
100
AcDbEntity
  8
0
  6
Continuous
 62
     7
370
    25
100
AcDbCircle
 10
666.9149773071
 20
543.6759455371
 30
0.0
 40
21.27626498307336
100
AcDbArc
 50
0.0
 51
90.0
  0
LINE
  5
152
330
1F
100
AcDbEntity
  8
0
  6
Continuous
 62
     7
370
    25
100
AcDbLine
 10
132.9149773071
 20
83.4420711264
 30
0.0
 11
132.9149773071
 21
84.399680554
 31
0.0
  0
LINE
  5
153
330
1F
100
AcDbEntity
  8
0
  6
Continuous
 62
     7
370
    25
100
AcDbLine
 10
132.9149773071
 20
84.399680554
 30
0.0
 11
666.9149773071
 21
84.399680554
 31
0.0
  0
LINE
  5
154
330
1F
100
AcDbEntity
  8
0
  6
Continuous
 62
     7
370
    25
100
AcDbLine
 10
110.6811028964
 20
543.6759455371
 30
0.0
 11
111.638712324
 21
543.6759455371
 31
0.0
  0
ARC
  5
155
330
1F
100
AcDbEntity
  8
0
  6
Continuous
 62
     7
370
    25
100
AcDbCircle
 10
132.9149773071
 20
543.6759455371
 30
0.0
 40
21.27626498307336
100
AcDbArc
 50
90.0
 51
180.0
  0
LINE
  5
156
330
1F
100
AcDbEntity
  8
0
  6
Continuous
 62
     7
370
    25
100
AcDbLine
 10
110.6811028964
 20
105.6759455371
 30
0.0
 11
111.638712324
 21
105.6759455371
 31
0.0
  0
ARC
  5
157
330
1F
100
AcDbEntity
  8
0
  6
Continuous
 62
     7
370
    25
100
AcDbCircle
 10
132.9149773071
 20
105.6759455371
 30
0.0
 40
21.27626498307333
100
AcDbArc
 50
180.0
 51
270.0
  0
LINE
  5
158
330
1F
100
AcDbEntity
  8
0
  6
Continuous
 62
     7
370
    25
100
AcDbLine
 10
111.638712324
 20
543.6759455371
 30
0.0
 11
111.638712324
 21
105.6759455371
 31
0.0
  0
LINE
  5
159
330
1F
100
AcDbEntity
  8
0
  6
Continuous
 62
     7
370
    25
100
AcDbLine
 10
132.9149773071
 20
564.9522105201
 30
0.0
 11
132.9149773071
 21
559.5893313949
 31
0.0
  0
LINE
  5
15A
330
1F
100
AcDbEntity
  8
0
  6
Continuous
 62
     7
370
    25
100
AcDbLine
 10
666.9149773071
 20
564.9522105201
 30
0.0
 11
666.9149773071
 21
559.5893313949
 31
0.0
  0
LINE
  5
15B
330
1F
100
AcDbEntity
  8
0
  6
Continuous
 62
     7
370
    25
100
AcDbLine
 10
666.9149773071
 20
559.5893313949
 30
0.0
 11
132.9149773071
 21
559.5893313949
 31
0.0
  0
LINE
  5
15C
330
1F
100
AcDbEntity
  8
0
  6
Continuous
 62
     7
370
    25
100
AcDbLine
 10
111.638712324
 20
543.6759455371
 30
0.0
 11
117.0015914493
 21
543.6759455371
 31
0.0
  0
ARC
  5
15D
330
1F
100
AcDbEntity
  8
0
  6
Continuous
 62
     7
370
    25
100
AcDbCircle
 10
132.9149773071
 20
543.6759455371
 30
0.0
 40
15.91338585783035
100
AcDbArc
 50
90.0
 51
180.0
  0
LINE
  5
15E
330
1F
100
AcDbEntity
  8
0
  6
Continuous
 62
     7
370
    25
100
AcDbLine
 10
688.1912422902
 20
543.6759455371
 30
0.0
 11
682.8283631649
 21
543.6759455371
 31
0.0
  0
LINE
  5
15F
330
1F
100
AcDbEntity
  8
0
  6
Continuous
 62
     7
370
    25
100
AcDbLine
 10
688.1912422902
 20
324.6759455371
 30
0.0
 11
682.8283631649
 21
324.6759455371
 31
0.0
  0
LINE
  5
160
330
1F
100
AcDbEntity
  8
0
  6
Continuous
 62
     7
370
    25
100
AcDbLine
 10
682.8283631649
 20
324.6759455371
 30
0.0
 11
682.8283631649
 21
543.6759455371
 31
0.0
  0
LINE
  5
161
330
1F
100
AcDbEntity
  8
0
  6
Continuous
 62
     7
370
    25
100
AcDbLine
 10
132.9149773071
 20
84.399680554
 30
0.0
 11
132.9149773071
 21
89.7625596792
 31
0.0
  0
LINE
  5
162
330
1F
100
AcDbEntity
  8
0
  6
Continuous
 62
     7
370
    25
100
AcDbLine
 10
111.638712324
 20
105.6759455371
 30
0.0
 11
117.0015914493
 21
105.6759455371
 31
0.0
  0
ARC
  5
163
330
1F
100
AcDbEntity
  8
0
  6
Continuous
 62
     7
370
    25
100
AcDbCircle
 10
132.9149773071
 20
105.6759455371
 30
0.0
 40
15.91338585783031
100
AcDbArc
 50
180.0
 51
270.0
  0
LINE
  5
164
330
1F
100
AcDbEntity
  8
0
  6
Continuous
 62
     7
370
    25
100
AcDbLine
 10
688.1912422902
 20
105.6759455371
 30
0.0
 11
682.8283631649
 21
105.6759455371
 31
0.0
  0
LINE
  5
165
330
1F
100
AcDbEntity
  8
0
  6
Continuous
 62
     7
370
    25
100
AcDbLine
 10
682.8283631649
 20
105.6759455371
 30
0.0
 11
682.8283631649
 21
324.6759455371
 31
0.0
  0
ARC
  5
166
330
1F
100
AcDbEntity
  8
0
  6
Continuous
 62
     7
370
    25
100
AcDbCircle
 10
666.9149773071
 20
543.6759455371
 30
0.0
 40
15.91338585783046
100
AcDbArc
 50
0.0
 51
90.0
  0
LINE
  5
167
330
1F
100
AcDbEntity
  8
0
  6
Continuous
 62
     7
370
    25
100
AcDbLine
 10
666.9149773071
 20
84.399680554
 30
0.0
 11
666.9149773071
 21
89.7625596792
 31
0.0
  0
LINE
  5
168
330
1F
100
AcDbEntity
  8
0
  6
Continuous
 62
     7
370
    25
100
AcDbLine
 10
132.9149773071
 20
89.7625596792
 30
0.0
 11
666.9149773071
 21
89.7625596792
 31
0.0
  0
ARC
  5
169
330
1F
100
AcDbEntity
  8
0
  6
Continuous
 62
     7
370
    25
100
AcDbCircle
 10
666.9149773071
 20
105.6759455371
 30
0.0
 40
15.91338585783031
100
AcDbArc
 50
270.0
 51
0.0
  0
LINE
  5
16A
330
1F
100
AcDbEntity
  8
0
  6
Continuous
 62
     7
370
    25
100
AcDbLine
 10
117.0015914493
 20
543.6759455371
 30
0.0
 11
117.0015914493
 21
105.6759455371
 31
0.0
  0
LINE
  5
16B
330
1F
100
AcDbEntity
  8
0
  6
Continuous
 62
     7
370
    25
100
AcDbLine
 10
526.4149773071
 20
99.6759455371
 30
0.0
 11
645.4149773071
 21
99.6759455371
 31
0.0
  0
LINE
  5
16C
330
1F
100
AcDbEntity
  8
0
  6
Continuous
 62
     7
370
    25
100
AcDbLine
 10
645.4149773071
 20
94.6759455371
 30
0.0
 11
645.4149773071
 21
99.6759455371
 31
0.0
  0
LINE
  5
16D
330
1F
100
AcDbEntity
  8
0
  6
Continuous
 62
     7
370
    25
100
AcDbLine
 10
645.4149773071
 20
94.6759455371
 30
0.0
 11
526.4149773071
 21
94.6759455371
 31
0.0
  0
LINE
  5
16E
330
1F
100
AcDbEntity
  8
0
  6
Continuous
 62
     7
370
    25
100
AcDbLine
 10
526.4149773071
 20
99.6759455371
 30
0.0
 11
526.4149773071
 21
94.6759455371
 31
0.0
  0
LINE
  5
16F
330
1F
100
AcDbEntity
  8
0
  6
Continuous
 62
     7
370
    25
100
AcDbLine
 10
645.4149773071
 20
486.6759455371
 30
0.0
 11
526.4149773071
 21
486.6759455371
 31
0.0
  0
LINE
  5
170
330
1F
100
AcDbEntity
  8
0
  6
Continuous
 62
     7
370
    25
100
AcDbLine
 10
526.4149773071
 20
486.6759455371
 30
0.0
 11
526.4149773071
 21
491.6759455371
 31
0.0
  0
LINE
  5
171
330
1F
100
AcDbEntity
  8
0
  6
Continuous
 62
     7
370
    25
100
AcDbLine
 10
526.4149773071
 20
491.6759455371
 30
0.0
 11
645.4149773071
 21
491.6759455371
 31
0.0
  0
LINE
  5
172
330
1F
100
AcDbEntity
  8
0
  6
Continuous
 62
     7
370
    25
100
AcDbLine
 10
645.4149773071
 20
491.6759455371
 30
0.0
 11
645.4149773071
 21
486.6759455371
 31
0.0
  0
LINE
  5
173
330
1F
100
AcDbEntity
  8
0
  6
Continuous
 62
     7
370
    25
100
AcDbLine
 10
154.4149773071
 20
491.6759455371
 30
0.0
 11
443.4149773071
 21
491.6759455371
 31
0.0
  0
ARC
  5
174
330
1F
100
AcDbEntity
  8
0
  6
Continuous
 62
     7
370
    25
100
AcDbCircle
 10
154.4149773071
 20
460.1759455371
 30
0.0
 40
31.50000000000011
100
AcDbArc
 50
90.0
 51
180.0
  0
LINE
  5
175
330
1F
100
AcDbEntity
  8
0
  6
Continuous
 62
     7
370
    25
100
AcDbLine
 10
122.9149773071
 20
126.1759455371
 30
0.0
 11
122.9149773071
 21
460.1759455371
 31
0.0
  0
ARC
  5
176
330
1F
100
AcDbEntity
  8
0
  6
Continuous
 62
     7
370
    25
100
AcDbCircle
 10
154.4149773071
 20
126.1759455371
 30
0.0
 40
31.50000000000009
100
AcDbArc
 50
180.0
 51
270.0
  0
LINE
  5
177
330
1F
100
AcDbEntity
  8
0
  6
Continuous
 62
     7
370
    25
100
AcDbLine
 10
443.4149773071
 20
94.6759455371
 30
0.0
 11
154.4149773071
 21
94.6759455371
 31
0.0
  0
ARC
  5
178
330
1F
100
AcDbEntity
  8
0
  6
Continuous
 62
     7
370
    25
100
AcDbCircle
 10
443.4149773071
 20
126.1759455371
 30
0.0
 40
31.50000000000011
100
AcDbArc
 50
270.0
 51
0.0
  0
LINE
  5
179
330
1F
100
AcDbEntity
  8
0
  6
Continuous
 62
     7
370
    25
100
AcDbLine
 10
474.9149773071
 20
460.1759455371
 30
0.0
 11
474.9149773071
 21
126.1759455371
 31
0.0
  0
ARC
  5
17A
330
1F
100
AcDbEntity
  8
0
  6
Continuous
 62
     7
370
    25
100
AcDbCircle
 10
443.4149773071
 20
460.1759455371
 30
0.0
 40
31.50000000000011
100
AcDbArc
 50
0.0
 51
90.0
  0
LINE
  5
17B
330
1F
100
AcDbEntity
  8
0
  6
Continuous
 62
     7
370
    25
100
AcDbLine
 10
676.9149773071
 20
460.1759455371
 30
0.0
 11
676.9149773071
 21
126.1759455371
 31
0.0
  0
ARC
  5
17C
330
1F
100
AcDbEntity
  8
0
  6
Continuous
 62
     7
370
    25
100
AcDbCircle
 10
645.4149773071
 20
460.1759455371
 30
0.0
 40
31.50000000000011
100
AcDbArc
 50
0.0
 51
90.0
  0
ARC
  5
17D
330
1F
100
AcDbEntity
  8
0
  6
Continuous
 62
     7
370
    25
100
AcDbCircle
 10
526.4149773071
 20
460.1759455371
 30
0.0
 40
31.50000000000011
100
AcDbArc
 50
90.0
 51
180.0
  0
LINE
  5
17E
330
1F
100
AcDbEntity
  8
0
  6
Continuous
 62
     7
370
    25
100
AcDbLine
 10
494.9149773071
 20
126.1759455371
 30
0.0
 11
494.9149773071
 21
460.1759455371
 31
0.0
  0
ARC
  5
17F
330
1F
100
AcDbEntity
  8
0
  6
Continuous
 62
     7
370
    25
100
AcDbCircle
 10
526.4149773071
 20
126.1759455371
 30
0.0
 40
31.50000000000009
100
AcDbArc
 50
180.0
 51
270.0
  0
ARC
  5
180
330
1F
100
AcDbEntity
  8
0
  6
Continuous
 62
     7
370
    25
100
AcDbCircle
 10
645.4149773071
 20
126.1759455371
 30
0.0
 40
31.50000000000011
100
AcDbArc
 50
270.0
 51
0.0
  0
CIRCLE
  5
181
330
1F
100
AcDbEntity
  8
0
  6
Continuous
 62
     7
370
    25
100
AcDbCircle
 10
484.9149773071
 20
528.6759455371
 30
0.0
 40
17.50000000000006
  0
ARC
  5
182
330
1F
100
AcDbEntity
  8
0
  6
Continuous
 62
     7
370
    25
100
AcDbCircle
 10
645.4149773071
 20
126.1759455371
 30
0.0
 40
26.5
100
AcDbArc
 50
270.0
 51
0.0
  0
LINE
  5
183
330
1F
100
AcDbEntity
  8
0
  6
Continuous
 62
     7
370
    25
100
AcDbLine
 10
676.9149773071
 20
126.1759455371
 30
0.0
 11
671.9149773071
 21
126.1759455371
 31
0.0
  0
LINE
  5
184
330
1F
100
AcDbEntity
  8
0
  6
Continuous
 62
     7
370
    25
100
AcDbLine
 10
474.9149773071
 20
460.1759455371
 30
0.0
 11
469.9149773071
 21
460.1759455371
 31
0.0
  0
ARC
  5
185
330
1F
100
AcDbEntity
  8
0
  6
Continuous
 62
     7
370
    25
100
AcDbCircle
 10
443.4149773071
 20
460.1759455371
 30
0.0
 40
26.5
100
AcDbArc
 50
0.0
 51
90.0
  0
LINE
  5
186
330
1F
100
AcDbEntity
  8
0
  6
Continuous
 62
     7
370
    25
100
AcDbLine
 10
443.4149773071
 20
491.6759455371
 30
0.0
 11
443.4149773071
 21
486.6759455371
 31
0.0
  0
LINE
  5
187
330
1F
100
AcDbEntity
  8
0
  6
Continuous
 62
     7
370
    25
100
AcDbLine
 10
127.9149773071
 20
460.1759455371
 30
0.0
 11
127.9149773071
 21
126.1759455371
 31
0.0
  0
LINE
  5
188
330
1F
100
AcDbEntity
  8
0
  6
Continuous
 62
     7
370
    25
100
AcDbLine
 10
127.9149773071
 20
126.1759455371
 30
0.0
 11
122.9149773071
 21
126.1759455371
 31
0.0
  0
LINE
  5
189
330
1F
100
AcDbEntity
  8
0
  6
Continuous
 62
     7
370
    25
100
AcDbLine
 10
122.9149773071
 20
460.1759455371
 30
0.0
 11
127.9149773071
 21
460.1759455371
 31
0.0
  0
ARC
  5
18A
330
1F
100
AcDbEntity
  8
0
  6
Continuous
 62
     7
370
    25
100
AcDbCircle
 10
154.4149773071
 20
126.1759455371
 30
0.0
 40
26.5
100
AcDbArc
 50
180.0
 51
270.0
  0
LINE
  5
18B
330
1F
100
AcDbEntity
  8
0
  6
Continuous
 62
     7
370
    25
100
AcDbLine
 10
154.4149773071
 20
99.6759455371
 30
0.0
 11
154.4149773071
 21
94.6759455371
 31
0.0
  0
ARC
  5
18C
330
1F
100
AcDbEntity
  8
0
  6
Continuous
 62
     7
370
    25
100
AcDbCircle
 10
526.4149773071
 20
460.1759455371
 30
0.0
 40
26.5
100
AcDbArc
 50
90.0
 51
180.0
  0
LINE
  5
18D
330
1F
100
AcDbEntity
  8
0
  6
Continuous
 62
     7
370
    25
100
AcDbLine
 10
499.9149773071
 20
460.1759455371
 30
0.0
 11
494.9149773071
 21
460.1759455371
 31
0.0
  0
LINE
  5
18E
330
1F
100
AcDbEntity
  8
0
  6
Continuous
 62
     7
370
    25
100
AcDbLine
 10
676.9149773071
 20
460.1759455371
 30
0.0
 11
671.9149773071
 21
460.1759455371
 31
0.0
  0
ARC
  5
18F
330
1F
100
AcDbEntity
  8
0
  6
Continuous
 62
     7
370
    25
100
AcDbCircle
 10
645.4149773071
 20
460.1759455371
 30
0.0
 40
26.5
100
AcDbArc
 50
0.0
 51
90.0
  0
LINE
  5
190
330
1F
100
AcDbEntity
  8
0
  6
Continuous
 62
     7
370
    25
100
AcDbLine
 10
499.9149773071
 20
460.1759455371
 30
0.0
 11
499.9149773071
 21
126.1759455371
 31
0.0
  0
LINE
  5
191
330
1F
100
AcDbEntity
  8
0
  6
Continuous
 62
     7
370
    25
100
AcDbLine
 10
499.9149773071
 20
126.1759455371
 30
0.0
 11
494.9149773071
 21
126.1759455371
 31
0.0
  0
LINE
  5
192
330
1F
100
AcDbEntity
  8
0
  6
Continuous
 62
     7
370
    25
100
AcDbLine
 10
671.9149773071
 20
126.1759455371
 30
0.0
 11
671.9149773071
 21
460.1759455371
 31
0.0
  0
ARC
  5
193
330
1F
100
AcDbEntity
  8
0
  6
Continuous
 62
     7
370
    25
100
AcDbCircle
 10
526.4149773071
 20
126.1759455371
 30
0.0
 40
26.49999999999996
100
AcDbArc
 50
180.0
 51
270.0
  0
LINE
  5
194
330
1F
100
AcDbEntity
  8
0
  6
Continuous
 62
     7
370
    25
100
AcDbLine
 10
469.9149773071
 20
126.1759455371
 30
0.0
 11
469.9149773071
 21
460.1759455371
 31
0.0
  0
LINE
  5
195
330
1F
100
AcDbEntity
  8
0
  6
Continuous
 62
     7
370
    25
100
AcDbLine
 10
469.9149773071
 20
126.1759455371
 30
0.0
 11
474.9149773071
 21
126.1759455371
 31
0.0
  0
ARC
  5
196
330
1F
100
AcDbEntity
  8
0
  6
Continuous
 62
     7
370
    25
100
AcDbCircle
 10
443.4149773071
 20
126.1759455371
 30
0.0
 40
26.5
100
AcDbArc
 50
270.0
 51
0.0
  0
LINE
  5
197
330
1F
100
AcDbEntity
  8
0
  6
Continuous
 62
     7
370
    25
100
AcDbLine
 10
443.4149773071
 20
99.6759455371
 30
0.0
 11
443.4149773071
 21
94.6759455371
 31
0.0
  0
LINE
  5
198
330
1F
100
AcDbEntity
  8
0
  6
Continuous
 62
     7
370
    25
100
AcDbLine
 10
154.4149773071
 20
491.6759455371
 30
0.0
 11
154.4149773071
 21
486.6759455371
 31
0.0
  0
ARC
  5
199
330
1F
100
AcDbEntity
  8
0
  6
Continuous
 62
     7
370
    25
100
AcDbCircle
 10
154.4149773071
 20
460.1759455371
 30
0.0
 40
26.5
100
AcDbArc
 50
90.0
 51
180.0
  0
LINE
  5
19A
330
1F
100
AcDbEntity
  8
0
  6
Continuous
 62
     7
370
    25
100
AcDbLine
 10
154.4149773071
 20
99.6759455371
 30
0.0
 11
443.4149773071
 21
99.6759455371
 31
0.0
  0
LINE
  5
19B
330
1F
100
AcDbEntity
  8
0
  6
Continuous
 62
     7
370
    25
100
AcDbLine
 10
443.4149773071
 20
486.6759455371
 30
0.0
 11
154.4149773071
 21
486.6759455371
 31
0.0
  0
LINE
  5
19C
330
1F
100
AcDbEntity
  8
0
  6
Continuous
 62
     8
370
    25
100
AcDbLine
 10
443.9149773071
 20
100.7504429891
 30
0.0
 11
443.9149773071
 21
99.6806629381
 31
0.0
  0
LINE
  5
19D
330
1F
100
AcDbEntity
  8
0
  6
Continuous
 62
     8
370
    25
100
AcDbLine
 10
153.9149773071
 20
100.7504429891
 30
0.0
 11
153.9149773071
 21
99.6806629381
 31
0.0
  0
LINE
  5
19E
330
1F
100
AcDbEntity
  8
0
  6
Continuous
 62
     8
370
    25
100
AcDbLine
 10
469.9102599061
 20
125.6759455371
 30
0.0
 11
468.8404798551
 21
125.6759455371
 31
0.0
  0
LINE
  5
19F
330
1F
100
AcDbEntity
  8
0
  6
Continuous
 62
     8
370
    25
100
AcDbLine
 10
469.9102599061
 20
460.6759455371
 30
0.0
 11
468.8404798551
 21
460.6759455371
 31
0.0
  0
LINE
  5
1A0
330
1F
100
AcDbEntity
  8
0
  6
Continuous
 62
     8
370
    25
100
AcDbLine
 10
128.9894747592
 20
460.6759455371
 30
0.0
 11
127.9196947081
 21
460.6759455371
 31
0.0
  0
LINE
  5
1A1
330
1F
100
AcDbEntity
  8
0
  6
Continuous
 62
     8
370
    25
100
AcDbLine
 10
153.9149773071
 20
486.671228136
 30
0.0
 11
153.9149773071
 21
485.601448085
 31
0.0
  0
LINE
  5
1A2
330
1F
100
AcDbEntity
  8
0
  6
Continuous
 62
     8
370
    25
100
AcDbLine
 10
128.9894747592
 20
125.6759455371
 30
0.0
 11
127.9196947081
 21
125.6759455371
 31
0.0
  0
LINE
  5
1A3
330
1F
100
AcDbEntity
  8
0
  6
Continuous
 62
     8
370
    25
100
AcDbLine
 10
443.9149773071
 20
486.671228136
 30
0.0
 11
443.9149773071
 21
485.601448085
 31
0.0
  0
LINE
  5
1A4
330
1F
100
AcDbEntity
  8
0
  6
Continuous
 62
     8
370
    25
100
AcDbLine
 10
645.9149773071
 20
100.7504429891
 30
0.0
 11
645.9149773071
 21
99.6806629381
 31
0.0
  0
LINE
  5
1A5
330
1F
100
AcDbEntity
  8
0
  6
Continuous
 62
     8
370
    25
100
AcDbLine
 10
525.9149773071
 20
100.7504429891
 30
0.0
 11
525.9149773071
 21
99.6806629381
 31
0.0
  0
LINE
  5
1A6
330
1F
100
AcDbEntity
  8
0
  6
Continuous
 62
     8
370
    25
100
AcDbLine
 10
671.9102599061
 20
125.6759455371
 30
0.0
 11
670.8404798551
 21
125.6759455371
 31
0.0
  0
LINE
  5
1A7
330
1F
100
AcDbEntity
  8
0
  6
Continuous
 62
     8
370
    25
100
AcDbLine
 10
671.9102599061
 20
460.6759455371
 30
0.0
 11
670.8404798551
 21
460.6759455371
 31
0.0
  0
LINE
  5
1A8
330
1F
100
AcDbEntity
  8
0
  6
Continuous
 62
     8
370
    25
100
AcDbLine
 10
645.9149773071
 20
486.671228136
 30
0.0
 11
645.9149773071
 21
485.601448085
 31
0.0
  0
LINE
  5
1A9
330
1F
100
AcDbEntity
  8
0
  6
Continuous
 62
     8
370
    25
100
AcDbLine
 10
500.9894747592
 20
460.6759455371
 30
0.0
 11
499.9196947081
 21
460.6759455371
 31
0.0
  0
LINE
  5
1AA
330
1F
100
AcDbEntity
  8
0
  6
Continuous
 62
     8
370
    25
100
AcDbLine
 10
525.9149773071
 20
486.671228136
 30
0.0
 11
525.9149773071
 21
485.601448085
 31
0.0
  0
LINE
  5
1AB
330
1F
100
AcDbEntity
  8
0
  6
Continuous
 62
     8
370
    25
100
AcDbLine
 10
500.9894747592
 20
125.6759455371
 30
0.0
 11
499.9196947081
 21
125.6759455371
 31
0.0
  0
ENDSEC
  0
SECTION
  2
OBJECTS
  0
DICTIONARY
  5
C
330
0
100
AcDbDictionary
281
     1
  3
ACAD_GROUP
350
D
  3
ACAD_LAYOUT
350
1A
  3
ACAD_MLINESTYLE
350
17
  3
ACAD_PLOTSETTINGS
350
19
  3
ACAD_PLOTSTYLENAME
350
E
  3
ACAD_SCALELIST
350
47
  3
DWGPROPS
350
1AC
  0
DICTIONARY
  5
D
102
{ACAD_REACTORS
330
C
102
}
330
C
100
AcDbDictionary
281
     1
  0
DICTIONARY
  5
1A
102
{ACAD_REACTORS
330
C
102
}
330
C
100
AcDbDictionary
281
     1
  3
Layout1
350
1E
  3
Layout2
350
26
  3
Model
350
22
  0
DICTIONARY
  5
17
102
{ACAD_REACTORS
330
C
102
}
330
C
100
AcDbDictionary
281
     1
  3
Standard
350
18
  0
DICTIONARY
  5
19
102
{ACAD_REACTORS
330
C
102
}
330
C
100
AcDbDictionary
281
     1
  0
ACDBDICTIONARYWDFLT
  5
E
102
{ACAD_REACTORS
330
C
102
}
330
C
100
AcDbDictionary
281
     1
  3
Normal
350
F
100
AcDbDictionaryWithDefault
340
F
  0
DICTIONARY
  5
47
102
{ACAD_REACTORS
330
C
102
}
330
C
100
AcDbDictionary
281
     1
  3
A0
350
48
  3
A1
350
49
  3
A2
350
4A
  3
A3
350
4B
  3
A4
350
4C
  3
A5
350
4D
  3
A6
350
4E
  3
A7
350
4F
  3
A8
350
50
  3
A9
350
51
  3
B0
350
52
  3
B1
350
53
  3
B2
350
54
  3
B3
350
55
  3
B4
350
56
  3
B5
350
57
  3
B6
350
58
  3
B7
350
59
  3
B8
350
5A
  3
B9
350
5B
  3
C0
350
5C
  3
C1
350
5D
  3
C2
350
5E
  3
C3
350
5F
  3
C4
350
60
  3
C5
350
61
  3
C6
350
62
  3
C7
350
63
  3
C8
350
64
  3
C9
350
65
  3
D0
350
66
  3
D1
350
67
  3
D2
350
68
  0
XRECORD
  5
1AC
102
{ACAD_REACTORS
330
C
102
}
330
C
100
AcDbXrecord
280
     1
  1
DWGPROPS COOKIE
  2

  3

  4

  6

  7

  8
KalleMourujärvi
  9

300
=
301
=
302
=
303
=
304
=
305
=
306
=
307
=
308
=
309
=
 40
0.0
 41
2460130.408400498
 42
2460130.408401018
  1

 90
        0
  0
LAYOUT
  5
1E
102
{ACAD_REACTORS
330
1A
102
}
330
1A
100
AcDbPlotSettings
  1

  2
none_device
  4

  6

 40
0.0
 41
0.0
 42
0.0
 43
0.0
 44
0.0
 45
0.0
 46
0.0
 47
0.0
 48
0.0
 49
0.0
140
0.0
141
0.0
142
1.0
143
1.0
 70
   688
 72
     1
 73
     0
 74
     5
  7

 75
    16
147
1.0
148
0.0
149
0.0
100
AcDbLayout
  1
Layout1
 70
     1
 71
     1
 10
0.0
 20
0.0
 11
420.0
 21
297.0
 12
0.0
 22
0.0
 32
0.0
 14
1.0000000000E+20
 24
1.0000000000E+20
 34
1.0000000000E+20
 15
-1.0000000000E+20
 25
-1.0000000000E+20
 35
-1.0000000000E+20
146
0.0
 13
0.0
 23
0.0
 33
0.0
 16
1.0
 26
0.0
 36
0.0
 17
0.0
 27
1.0
 37
0.0
 76
     0
330
1B
  0
LAYOUT
  5
26
102
{ACAD_REACTORS
330
1A
102
}
330
1A
100
AcDbPlotSettings
  1

  2
none_device
  4

  6

 40
0.0
 41
0.0
 42
0.0
 43
0.0
 44
0.0
 45
0.0
 46
0.0
 47
0.0
 48
0.0
 49
0.0
140
0.0
141
0.0
142
1.0
143
1.0
 70
   688
 72
     1
 73
     0
 74
     5
  7

 75
    16
147
1.0
148
0.0
149
0.0
100
AcDbLayout
  1
Layout2
 70
     1
 71
     2
 10
0.0
 20
0.0
 11
0.0
 21
0.0
 12
0.0
 22
0.0
 32
0.0
 14
0.0
 24
0.0
 34
0.0
 15
0.0
 25
0.0
 35
0.0
146
0.0
 13
0.0
 23
0.0
 33
0.0
 16
1.0
 26
0.0
 36
0.0
 17
0.0
 27
1.0
 37
0.0
 76
     0
330
23
  0
LAYOUT
  5
22
102
{ACAD_REACTORS
330
1A
102
}
330
1A
100
AcDbPlotSettings
  1

  2
none_device
  4
Letter_(8.50_x_11.00_Inches)
  6

 40
6.35
 41
6.35
 42
6.35000508
 43
6.35000508
 44
215.9
 45
279.4
 46
0.0
 47
0.0
 48
0.0
 49
0.0
140
0.0
141
0.0
142
1.0
143
1.0
 70
  1712
 72
     1
 73
     0
 74
     0
  7

 75
     0
147
1.0
148
0.0
149
0.0
100
AcDbLayout
  1
Model
 70
     1
 71
     0
 10
0.0
 20
0.0
 11
800.0
 21
650.0
 12
0.0
 22
0.0
 32
0.0
 14
0.0
 24
0.0
 34
0.0
 15
800.0
 25
650.0
 35
0.0
146
0.0
 13
0.0
 23
0.0
 33
0.0
 16
1.0
 26
0.0
 36
0.0
 17
0.0
 27
1.0
 37
0.0
 76
     0
330
1F
331
29
  0
MLINESTYLE
  5
18
102
{ACAD_REACTORS
330
17
102
}
330
17
100
AcDbMlineStyle
  2
Standard
 70
     0
  3

 62
   256
 51
90.0
 52
90.0
 71
     2
 49
0.5
 62
   256
  6
BYLAYER
 49
-0.5
 62
   256
  6
BYLAYER
  0
ACDBPLACEHOLDER
  5
F
102
{ACAD_REACTORS
330
E
102
}
330
E
  0
SCALE
  5
48
102
{ACAD_REACTORS
330
47
102
}
330
47
100
AcDbScale
 70
     0
300
1:1
140
1.0
141
1.0
290
     1
  0
SCALE
  5
49
102
{ACAD_REACTORS
330
47
102
}
330
47
100
AcDbScale
 70
     0
300
1:2
140
1.0
141
2.0
290
     0
  0
SCALE
  5
4A
102
{ACAD_REACTORS
330
47
102
}
330
47
100
AcDbScale
 70
     0
300
1:4
140
1.0
141
4.0
290
     0
  0
SCALE
  5
4B
102
{ACAD_REACTORS
330
47
102
}
330
47
100
AcDbScale
 70
     0
300
1:5
140
1.0
141
5.0
290
     0
  0
SCALE
  5
4C
102
{ACAD_REACTORS
330
47
102
}
330
47
100
AcDbScale
 70
     0
300
1:8
140
1.0
141
8.0
290
     0
  0
SCALE
  5
4D
102
{ACAD_REACTORS
330
47
102
}
330
47
100
AcDbScale
 70
     0
300
1:10
140
1.0
141
10.0
290
     0
  0
SCALE
  5
4E
102
{ACAD_REACTORS
330
47
102
}
330
47
100
AcDbScale
 70
     0
300
1:16
140
1.0
141
16.0
290
     0
  0
SCALE
  5
4F
102
{ACAD_REACTORS
330
47
102
}
330
47
100
AcDbScale
 70
     0
300
1:20
140
1.0
141
20.0
290
     0
  0
SCALE
  5
50
102
{ACAD_REACTORS
330
47
102
}
330
47
100
AcDbScale
 70
     0
300
1:30
140
1.0
141
30.0
290
     0
  0
SCALE
  5
51
102
{ACAD_REACTORS
330
47
102
}
330
47
100
AcDbScale
 70
     0
300
1:40
140
1.0
141
40.0
290
     0
  0
SCALE
  5
52
102
{ACAD_REACTORS
330
47
102
}
330
47
100
AcDbScale
 70
     0
300
1:50
140
1.0
141
50.0
290
     0
  0
SCALE
  5
53
102
{ACAD_REACTORS
330
47
102
}
330
47
100
AcDbScale
 70
     0
300
1:100
140
1.0
141
100.0
290
     0
  0
SCALE
  5
54
102
{ACAD_REACTORS
330
47
102
}
330
47
100
AcDbScale
 70
     0
300
2:1
140
2.0
141
1.0
290
     0
  0
SCALE
  5
55
102
{ACAD_REACTORS
330
47
102
}
330
47
100
AcDbScale
 70
     0
300
4:1
140
4.0
141
1.0
290
     0
  0
SCALE
  5
56
102
{ACAD_REACTORS
330
47
102
}
330
47
100
AcDbScale
 70
     0
300
8:1
140
8.0
141
1.0
290
     0
  0
SCALE
  5
57
102
{ACAD_REACTORS
330
47
102
}
330
47
100
AcDbScale
 70
     0
300
10:1
140
10.0
141
1.0
290
     0
  0
SCALE
  5
58
102
{ACAD_REACTORS
330
47
102
}
330
47
100
AcDbScale
 70
     0
300
100:1
140
100.0
141
1.0
290
     0
  0
SCALE
  5
59
102
{ACAD_REACTORS
330
47
102
}
330
47
100
AcDbScale
 70
     0
300
1/128" = 1'-0"
140
0.0078125
141
12.0
290
     0
  0
SCALE
  5
5A
102
{ACAD_REACTORS
330
47
102
}
330
47
100
AcDbScale
 70
     0
300
1/64" = 1'-0"
140
0.015625
141
12.0
290
     0
  0
SCALE
  5
5B
102
{ACAD_REACTORS
330
47
102
}
330
47
100
AcDbScale
 70
     0
300
1/32" = 1'-0"
140
0.03125
141
12.0
290
     0
  0
SCALE
  5
5C
102
{ACAD_REACTORS
330
47
102
}
330
47
100
AcDbScale
 70
     0
300
1/16" = 1'-0"
140
0.0625
141
12.0
290
     0
  0
SCALE
  5
5D
102
{ACAD_REACTORS
330
47
102
}
330
47
100
AcDbScale
 70
     0
300
3/32" = 1'-0"
140
0.09375
141
12.0
290
     0
  0
SCALE
  5
5E
102
{ACAD_REACTORS
330
47
102
}
330
47
100
AcDbScale
 70
     0
300
1/8" = 1'-0"
140
0.125
141
12.0
290
     0
  0
SCALE
  5
5F
102
{ACAD_REACTORS
330
47
102
}
330
47
100
AcDbScale
 70
     0
300
3/16" = 1'-0"
140
0.1875
141
12.0
290
     0
  0
SCALE
  5
60
102
{ACAD_REACTORS
330
47
102
}
330
47
100
AcDbScale
 70
     0
300
1/4" = 1'-0"
140
0.25
141
12.0
290
     0
  0
SCALE
  5
61
102
{ACAD_REACTORS
330
47
102
}
330
47
100
AcDbScale
 70
     0
300
3/8" = 1'-0"
140
0.375
141
12.0
290
     0
  0
SCALE
  5
62
102
{ACAD_REACTORS
330
47
102
}
330
47
100
AcDbScale
 70
     0
300
1/2" = 1'-0"
140
0.5
141
12.0
290
     0
  0
SCALE
  5
63
102
{ACAD_REACTORS
330
47
102
}
330
47
100
AcDbScale
 70
     0
300
3/4" = 1'-0"
140
0.75
141
12.0
290
     0
  0
SCALE
  5
64
102
{ACAD_REACTORS
330
47
102
}
330
47
100
AcDbScale
 70
     0
300
1" = 1'-0"
140
1.0
141
12.0
290
     0
  0
SCALE
  5
65
102
{ACAD_REACTORS
330
47
102
}
330
47
100
AcDbScale
 70
     0
300
1-1/2" = 1'-0"
140
1.5
141
12.0
290
     0
  0
SCALE
  5
66
102
{ACAD_REACTORS
330
47
102
}
330
47
100
AcDbScale
 70
     0
300
3" = 1'-0"
140
3.0
141
12.0
290
     0
  0
SCALE
  5
67
102
{ACAD_REACTORS
330
47
102
}
330
47
100
AcDbScale
 70
     0
300
6" = 1'-0"
140
6.0
141
12.0
290
     0
  0
SCALE
  5
68
102
{ACAD_REACTORS
330
47
102
}
330
47
100
AcDbScale
 70
     0
300
1'-0" = 1'-0"
140
12.0
141
12.0
290
     0
  0
ENDSEC
  0
EOF
