  0
SECTION
  2
HEADER
  9
$ACADVER
  1
AC1015
  9
$ACADMAINTVER
 70
     6
  9
$DWGCODEPAGE
  3
ANSI_1252
  9
$INSBASE
 10
0.0
 20
0.0
 30
0.0
  9
$EXTMIN
 10
0.0
 20
0.0
 30
0.0
  9
$EXTMAX
 10
1050.0
 20
650.0
 30
0.0
  9
$LIMMIN
 10
0.0
 20
0.0
  9
$LIMMAX
 10
1050.0
 20
650.0
  9
$ORTHOMODE
 70
     0
  9
$REGENMODE
 70
     1
  9
$FILLMODE
 70
     1
  9
$QTEXTMODE
 70
     0
  9
$MIRRTEXT
 70
     1
  9
$LTSCALE
 40
1.0
  9
$ATTMODE
 70
     1
  9
$TEXTSIZE
 40
3.5
  9
$TRACEWID
 40
1.0
  9
$TEXTSTYLE
  7
Standard
  9
$CLAYER
  8
0
  9
$CELTYPE
  6
ByLayer
  9
$CECOLOR
 62
   256
  9
$CELTSCALE
 40
1.0
  9
$DISPSILH
 70
     0
  9
$DIMSCALE
 40
1.0
  9
$DIMASZ
 40
3.302
  9
$DIMEXO
 40
1.0
  9
$DIMDLI
 40
3.75
  9
$DIMRND
 40
0.0
  9
$DIMDLE
 40
0.0
  9
$DIMEXE
 40
1.0
  9
$DIMTP
 40
0.0
  9
$DIMTM
 40
0.0
  9
$DIMTXT
 40
3.5
  9
$DIMCEN
 40
2.5
  9
$DIMTSZ
 40
0.0
  9
$DIMTOL
 70
     0
  9
$DIMLIM
 70
     0
  9
$DIMTIH
 70
     1
  9
$DIMTOH
 70
     1
  9
$DIMSE1
 70
     0
  9
$DIMSE2
 70
     0
  9
$DIMTAD
 70
     1
  9
$DIMZIN
 70
     1
  9
$DIMBLK
  1

  9
$DIMASO
 70
     1
  9
$DIMSHO
 70
     1
  9
$DIMPOST
  1

  9
$DIMAPOST
  1

  9
$DIMALT
 70
     0
  9
$DIMALTD
 70
     3
  9
$DIMALTF
 40
0.0393700787
  9
$DIMLFAC
 40
1.0
  9
$DIMTOFL
 70
     1
  9
$DIMTVP
 40
0.0
  9
$DIMTIX
 70
     0
  9
$DIMSOXD
 70
     0
  9
$DIMSAH
 70
     0
  9
$DIMBLK1
  1

  9
$DIMBLK2
  1

  9
$DIMSTYLE
  2
ISO-25
  9
$DIMCLRD
 70
     0
  9
$DIMCLRE
 70
     0
  9
$DIMCLRT
 70
     0
  9
$DIMTFAC
 40
1.0
  9
$DIMGAP
 40
1.524
  9
$DIMJUST
 70
     0
  9
$DIMSD1
 70
     0
  9
$DIMSD2
 70
     0
  9
$DIMTOLJ
 70
     0
  9
$DIMTZIN
 70
     1
  9
$DIMALTZ
 70
     0
  9
$DIMALTTZ
 70
     0
  9
$DIMUPT
 70
     0
  9
$DIMDEC
 70
     2
  9
$DIMTDEC
 70
     2
  9
$DIMALTU
 70
     2
  9
$DIMALTTD
 70
     3
  9
$DIMTXSTY
  7
Standard
  9
$DIMAUNIT
 70
     0
  9
$DIMADEC
 70
     2
  9
$DIMALTRND
 40
0.0
  9
$DIMAZIN
 70
     0
  9
$DIMDSEP
 70
    44
  9
$DIMATFIT
 70
     3
  9
$DIMFRAC
 70
     0
  9
$DIMLDRBLK
  1

  9
$DIMLUNIT
 70
     2
  9
$DIMLWD
 70
    -2
  9
$DIMLWE
 70
    -2
  9
$DIMTMOVE
 70
     0
  9
$LUNITS
 70
     2
  9
$LUPREC
 70
     1
  9
$SKETCHINC
 40
1.0
  9
$FILLETRAD
 40
10.0
  9
$AUNITS
 70
     0
  9
$AUPREC
 70
     1
  9
$MENU
  1
.
  9
$ELEVATION
 40
0.0
  9
$PELEVATION
 40
0.0
  9
$THICKNESS
 40
0.0
  9
$LIMCHECK
 70
     0
  9
$CHAMFERA
 40
0.0
  9
$CHAMFERB
 40
0.0
  9
$CHAMFERC
 40
0.0
  9
$CHAMFERD
 40
0.0
  9
$SKPOLY
 70
     0
  9
$TDCREATE
 40
2460130.52618154
  9
$TDUCREATE
 40
2460130.40118154
  9
$TDUPDATE
 40
2460130.526181979
  9
$TDUUPDATE
 40
2460130.401181979
  9
$TDINDWG
 40
0.0000000116
  9
$TDUSRTIMER
 40
0.0000000116
  9
$USRTIMER
 70
     1
  9
$ANGBASE
 50
0.0
  9
$ANGDIR
 70
     0
  9
$PDMODE
 70
     0
  9
$PDSIZE
 40
-1.0
  9
$PLINEWID
 40
0.0
  9
$SPLFRAME
 70
     0
  9
$SPLINETYPE
 70
     6
  9
$SPLINESEGS
 70
     8
  9
$HANDSEED
  5
188
  9
$SURFTAB1
 70
     6
  9
$SURFTAB2
 70
     6
  9
$SURFTYPE
 70
     6
  9
$SURFU
 70
     6
  9
$SURFV
 70
     6
  9
$UCSBASE
  2

  9
$UCSNAME
  2

  9
$UCSORG
 10
0.0
 20
0.0
 30
0.0
  9
$UCSXDIR
 10
1.0
 20
0.0
 30
0.0
  9
$UCSYDIR
 10
0.0
 20
1.0
 30
0.0
  9
$UCSORTHOREF
  2

  9
$UCSORTHOVIEW
 70
     0
  9
$UCSORGTOP
 10
0.0
 20
0.0
 30
0.0
  9
$UCSORGBOTTOM
 10
0.0
 20
0.0
 30
0.0
  9
$UCSORGLEFT
 10
0.0
 20
0.0
 30
0.0
  9
$UCSORGRIGHT
 10
0.0
 20
0.0
 30
0.0
  9
$UCSORGFRONT
 10
0.0
 20
0.0
 30
0.0
  9
$UCSORGBACK
 10
0.0
 20
0.0
 30
0.0
  9
$PUCSBASE
  2

  9
$PUCSNAME
  2

  9
$PUCSORG
 10
0.0
 20
0.0
 30
0.0
  9
$PUCSXDIR
 10
1.0
 20
0.0
 30
0.0
  9
$PUCSYDIR
 10
0.0
 20
1.0
 30
0.0
  9
$PUCSORTHOREF
  2

  9
$PUCSORTHOVIEW
 70
     0
  9
$PUCSORGTOP
 10
0.0
 20
0.0
 30
0.0
  9
$PUCSORGBOTTOM
 10
0.0
 20
0.0
 30
0.0
  9
$PUCSORGLEFT
 10
0.0
 20
0.0
 30
0.0
  9
$PUCSORGRIGHT
 10
0.0
 20
0.0
 30
0.0
  9
$PUCSORGFRONT
 10
0.0
 20
0.0
 30
0.0
  9
$PUCSORGBACK
 10
0.0
 20
0.0
 30
0.0
  9
$USERI1
 70
     0
  9
$USERI2
 70
     0
  9
$USERI3
 70
     0
  9
$USERI4
 70
     0
  9
$USERI5
 70
     0
  9
$USERR1
 40
0.0
  9
$USERR2
 40
0.0
  9
$USERR3
 40
0.0
  9
$USERR4
 40
0.0
  9
$USERR5
 40
0.0
  9
$WORLDVIEW
 70
     1
  9
$SHADEDGE
 70
     3
  9
$SHADEDIF
 70
    70
  9
$TILEMODE
 70
     1
  9
$MAXACTVP
 70
    64
  9
$PINSBASE
 10
0.0
 20
0.0
 30
0.0
  9
$PLIMCHECK
 70
     0
  9
$PEXTMIN
 10
1.0000000000E+20
 20
1.0000000000E+20
 30
1.0000000000E+20
  9
$PEXTMAX
 10
-1.0000000000E+20
 20
-1.0000000000E+20
 30
-1.0000000000E+20
  9
$PLIMMIN
 10
0.0
 20
0.0
  9
$PLIMMAX
 10
420.0
 20
297.0
  9
$UNITMODE
 70
     0
  9
$VISRETAIN
 70
     1
  9
$PLINEGEN
 70
     0
  9
$PSLTSCALE
 70
     1
  9
$TREEDEPTH
 70
  3020
  9
$CMLSTYLE
  2
Standard
  9
$CMLJUST
 70
     0
  9
$CMLSCALE
 40
20.0
  9
$PROXYGRAPHICS
 70
     1
  9
$MEASUREMENT
 70
     1
  9
$CELWEIGHT
370
    -1
  9
$ENDCAPS
280
     0
  9
$JOINSTYLE
280
     0
  9
$LWDISPLAY
290
     1
  9
$INSUNITS
 70
     4
  9
$HYPERLINKBASE
  1

  9
$STYLESHEET
  1

  9
$XEDIT
290
     1
  9
$CEPSNTYPE
380
     0
  9
$PSTYLEMODE
290
     1
  9
$FINGERPRINTGUID
  2
{7211be6c-5c8e-46bb-8504-9318dfa77800}
  9
$VERSIONGUID
  2
{FAEB1C32-E019-11D5-929B-00C0DF256EC4}
  9
$EXTNAMES
290
     1
  9
$PSVPSCALE
 40
0.0
  9
$OLESTARTUP
290
     0
  0
ENDSEC
  0
SECTION
  2
CLASSES
  0
CLASS
  1
ACDBDICTIONARYWDFLT
  2
AcDbDictionaryWithDefault
  3
ObjectDBX Classes
 90
        0
280
     0
281
     0
  0
CLASS
  1
VISUALSTYLE
  2
AcDbVisualStyle
  3
ObjectDBX Classes
 90
     4095
280
     0
281
     0
  0
CLASS
  1
MATERIAL
  2
AcDbMaterial
  3
ObjectDBX Classes
 90
     1153
280
     0
281
     0
  0
CLASS
  1
SCALE
  2
AcDbScale
  3
ObjectDBX Classes
 90
     1153
280
     0
281
     0
  0
CLASS
  1
TABLESTYLE
  2
AcDbTableStyle
  3
ObjectDBX Classes
 90
     4095
280
     0
281
     0
  0
CLASS
  1
MLEADERSTYLE
  2
AcDbMLeaderStyle
  3
ACDB_MLEADERSTYLE_CLASS
 90
     4095
280
     0
281
     0
  0
CLASS
  1
SUN
  2
AcDbSun
  3
SCENEOE
 90
     1153
280
     0
281
     0
  0
CLASS
  1
ACDBPLACEHOLDER
  2
AcDbPlaceHolder
  3
ObjectDBX Classes
 90
        0
280
     0
281
     0
  0
CLASS
  1
LAYOUT
  2
AcDbLayout
  3
ObjectDBX Classes
 90
        0
280
     0
281
     0
  0
ENDSEC
  0
SECTION
  2
TABLES
  0
TABLE
  2
VPORT
  5
8
330
0
100
AcDbSymbolTable
 70
     1
  0
VPORT
  5
29
330
8
100
AcDbSymbolTableRecord
100
AcDbViewportTableRecord
  2
*Active
 70
     0
 10
0.0
 20
0.0
 11
1.0
 21
1.0
 12
525.0
 22
325.0
 13
0.0
 23
0.0
 14
10.0
 24
10.0
 15
10.0
 25
10.0
 16
0.0
 26
0.0
 36
1.0
 17
0.0
 27
0.0
 37
0.0
 40
650.0
 41
1.6153846154
 42
50.0
 43
0.0
 44
0.0
 50
0.0
 51
0.0
 71
     0
 72
  2000
 73
     1
 74
     3
 75
     0
 76
     0
 77
     0
 78
     0
281
     0
 65
     1
110
0.0
120
0.0
130
0.0
111
1.0
121
0.0
131
0.0
112
0.0
122
1.0
132
0.0
 79
     0
146
0.0
  0
ENDTAB
  0
TABLE
  2
LTYPE
  5
5
330
0
100
AcDbSymbolTable
 70
     6
  0
LTYPE
  5
14
330
5
100
AcDbSymbolTableRecord
100
AcDbLinetypeTableRecord
  2
ByBlock
 70
     0
  3

 72
    65
 73
     0
 40
0.0
  0
LTYPE
  5
15
330
5
100
AcDbSymbolTableRecord
100
AcDbLinetypeTableRecord
  2
ByLayer
 70
     0
  3

 72
    65
 73
     0
 40
0.0
  0
LTYPE
  5
16
330
5
100
AcDbSymbolTableRecord
100
AcDbLinetypeTableRecord
  2
Continuous
 70
     0
  3
Solid line
 72
    65
 73
     0
 40
0.0
  0
LTYPE
  5
6E
330
5
100
AcDbSymbolTableRecord
100
AcDbLinetypeTableRecord
  2
HIDDEN
 70
     0
  3
Hidden __ __ __ __ __ __ __ __ __ __ __ __ __ __
 72
    65
 73
     2
 40
1.905
 49
1.27
 74
     0
 49
-0.635
 74
     0
  0
LTYPE
  5
6F
330
5
100
AcDbSymbolTableRecord
100
AcDbLinetypeTableRecord
  2
PHANTOM
 70
     0
  3
Phantom ______  __  __  ______  __  __  ______
 72
    65
 73
     6
 40
12.7
 49
6.35
 74
     0
 49
-1.27
 74
     0
 49
1.27
 74
     0
 49
-1.27
 74
     0
 49
1.27
 74
     0
 49
-1.27
 74
     0
  0
LTYPE
  5
70
330
5
100
AcDbSymbolTableRecord
100
AcDbLinetypeTableRecord
  2
CENTER
 70
     0
  3
Center ____ _ ____ _ ____ _ ____ _ ____ _ ____
 72
    65
 73
     4
 40
10.16
 49
6.35
 74
     0
 49
-1.27
 74
     0
 49
1.27
 74
     0
 49
-1.27
 74
     0
  0
LTYPE
  5
71
330
5
100
AcDbSymbolTableRecord
100
AcDbLinetypeTableRecord
  2
CENTERX2
 70
     0
  3
Center (2x) ________  __  ________  __  _____
 72
    65
 73
     4
 40
20.32
 49
12.7
 74
     0
 49
-2.54
 74
     0
 49
2.54
 74
     0
 49
-2.54
 74
     0
  0
LTYPE
  5
72
330
5
100
AcDbSymbolTableRecord
100
AcDbLinetypeTableRecord
  2
DOT2
 70
     0
  3
Dot (.5x) ........................................
 72
    65
 73
     2
 40
0.635
 49
0.0
 74
     0
 49
-0.635
 74
     0
  0
ENDTAB
  0
TABLE
  2
LAYER
  5
2
330
0
100
AcDbSymbolTable
 70
     1
  0
LAYER
  5
10
330
2
100
AcDbSymbolTableRecord
100
AcDbLayerTableRecord
  2
0
 70
     0
 62
     7
  6
Continuous
370
    -3
390
F
  0
ENDTAB
  0
TABLE
  2
STYLE
  5
3
330
0
100
AcDbSymbolTable
 70
     1
  0
STYLE
  5
11
330
3
100
AcDbSymbolTableRecord
100
AcDbTextStyleTableRecord
  2
Standard
 70
     0
 40
0.0
 41
1.0
 50
0.0
 71
     0
 42
3.5
  3
txt
  4

  0
ENDTAB
  0
TABLE
  2
VIEW
  5
6
330
0
100
AcDbSymbolTable
 70
     0
  0
ENDTAB
  0
TABLE
  2
UCS
  5
7
330
0
100
AcDbSymbolTable
 70
     0
  0
ENDTAB
  0
TABLE
  2
APPID
  5
9
330
0
100
AcDbSymbolTable
 70
     1
  0
APPID
  5
12
330
9
100
AcDbSymbolTableRecord
100
AcDbRegAppTableRecord
  2
ACAD
 70
     0
  0
ENDTAB
  0
TABLE
  2
DIMSTYLE
  5
A
330
0
100
AcDbSymbolTable
 70
     1
100
AcDbDimStyleTable
  0
DIMSTYLE
105
27
330
A
100
AcDbSymbolTableRecord
100
AcDbDimStyleTableRecord
  2
ISO-25
 70
     0
 41
2.5
 42
0.625
 43
3.75
 44
1.25
 73
     0
 74
     0
 77
     1
 78
     8
140
2.5
141
2.5
143
0.0393700787
147
0.625
171
     3
172
     1
178
     0
271
     2
272
     2
274
     3
278
    44
283
     0
284
     8
340
11
  0
ENDTAB
  0
TABLE
  2
BLOCK_RECORD
  5
1
330
0
100
AcDbSymbolTable
 70
     1
  0
BLOCK_RECORD
  5
1F
330
1
100
AcDbSymbolTableRecord
100
AcDbBlockTableRecord
  2
*Model_Space
340
22
  0
BLOCK_RECORD
  5
1B
330
1
100
AcDbSymbolTableRecord
100
AcDbBlockTableRecord
  2
*Paper_Space
340
1E
  0
BLOCK_RECORD
  5
23
330
1
100
AcDbSymbolTableRecord
100
AcDbBlockTableRecord
  2
*Paper_Space0
340
26
  0
ENDTAB
  0
ENDSEC
  0
SECTION
  2
BLOCKS
  0
BLOCK
  5
20
330
1F
100
AcDbEntity
  8
0
100
AcDbBlockBegin
  2
*Model_Space
 70
     0
 10
0.0
 20
0.0
 30
0.0
  3
*Model_Space
  1

  0
ENDBLK
  5
21
330
1F
100
AcDbEntity
  8
0
100
AcDbBlockEnd
  0
BLOCK
  5
1C
330
1B
100
AcDbEntity
 67
     1
  8
0
100
AcDbBlockBegin
  2
*Paper_Space
 70
     0
 10
0.0
 20
0.0
 30
0.0
  3
*Paper_Space
  1

  0
ENDBLK
  5
1D
330
1B
100
AcDbEntity
 67
     1
  8
0
100
AcDbBlockEnd
  0
BLOCK
  5
24
330
23
100
AcDbEntity
  8
0
100
AcDbBlockBegin
  2
*Paper_Space0
 70
     0
 10
0.0
 20
0.0
 30
0.0
  3
*Paper_Space0
  1

  0
ENDBLK
  5
25
330
23
100
AcDbEntity
  8
0
100
AcDbBlockEnd
  0
ENDSEC
  0
SECTION
  2
ENTITIES
  0
LINE
  5
73
330
1F
100
AcDbEntity
  8
0
  6
Continuous
 62
     7
370
    25
100
AcDbLine
 10
469.0008
 20
486.1200625479
 30
0.0
 11
179.0008
 21
486.1200625479
 31
0.0
  0
LINE
  5
74
330
1F
100
AcDbEntity
  8
0
  6
Continuous
 62
     7
370
    25
100
AcDbLine
 10
179.0008
 20
101.2690574521
 30
0.0
 11
469.0008
 21
101.2690574521
 31
0.0
  0
LWPOLYLINE
  5
75
330
1F
100
AcDbEntity
  8
0
  6
Continuous
 62
     7
370
    25
100
AcDbPolyline
 90
        3
 70
   128
 43
0.0
 10
469.0008
 20
101.2690574521
 10
472.0052373308
 20
101.4507924293
 10
474.6153597663
 20
101.9096388369
  0
ARC
  5
76
330
1F
100
AcDbEntity
  8
0
  6
Continuous
 62
     7
370
    25
100
AcDbCircle
 10
469.0008
 20
126.19456
 30
0.0
 40
24.92550254794047
100
AcDbArc
 50
293.8521049357
 51
0.0
  0
ARC
  5
77
330
1F
100
AcDbEntity
  8
0
  6
Continuous
 62
     7
370
    25
100
AcDbCircle
 10
469.0008
 20
461.19456
 30
0.0
 40
24.92550254794042
100
AcDbArc
 50
0.0
 51
66.1478871069
  0
LWPOLYLINE
  5
78
330
1F
100
AcDbEntity
  8
0
  6
Continuous
 62
     7
370
    25
100
AcDbPolyline
 90
        3
 70
   128
 43
0.0
 10
474.6153564994
 20
485.4794819184
 10
472.0052373308
 20
485.9383275707
 10
469.0008
 20
486.1200625479
  0
LINE
  5
79
330
1F
100
AcDbEntity
  8
0
  6
Continuous
 62
     7
370
    25
100
AcDbLine
 10
154.0752974521
 20
461.19456
 30
0.0
 11
154.0752974521
 21
126.19456
 31
0.0
  0
LWPOLYLINE
  5
7A
330
1F
100
AcDbEntity
  8
0
  6
Continuous
 62
     7
370
    25
100
AcDbPolyline
 90
        3
 70
   128
 43
0.0
 10
179.0008
 20
486.1200625479
 10
175.9963626692
 20
485.9383275707
 10
173.3862419055
 20
485.4794815496
  0
ARC
  5
7B
330
1F
100
AcDbEntity
  8
0
  6
Continuous
 62
     7
370
    25
100
AcDbCircle
 10
179.0008
 20
461.19456
 30
0.0
 40
24.9255025479404
100
AcDbArc
 50
113.8521089759
 51
180.0
  0
ARC
  5
7C
330
1F
100
AcDbEntity
  8
0
  6
Continuous
 62
     7
370
    25
100
AcDbCircle
 10
179.0008
 20
126.19456
 30
0.0
 40
24.92550254794046
100
AcDbArc
 50
180.0
 51
246.1478907069
  0
LWPOLYLINE
  5
7D
330
1F
100
AcDbEntity
  8
0
  6
Continuous
 62
     7
370
    25
100
AcDbPolyline
 90
        3
 70
   128
 43
0.0
 10
173.3862419999
 20
101.9096384286
 10
175.9963626692
 20
101.4507924293
 10
179.0008
 20
101.2690574521
  0
LINE
  5
7E
330
1F
100
AcDbEntity
  8
0
  6
Continuous
 62
     7
370
    25
100
AcDbLine
 10
493.9263025479
 20
126.19456
 30
0.0
 11
493.9263025479
 21
461.19456
 31
0.0
  0
LINE
  5
7F
330
1F
100
AcDbEntity
  8
0
  6
Continuous
 62
     7
370
    25
100
AcDbLine
 10
299.7508
 20
484.4713723394
 30
0.0
 11
299.7508
 21
483.319981302
 31
0.0
  0
ARC
  5
80
330
1F
100
AcDbEntity
  8
0
  6
Continuous
 62
     7
370
    25
100
AcDbCircle
 10
300.5014847631
 20
488.0837279653
 30
0.0
 40
4.822531481010298
100
AcDbArc
 50
261.0448095014
 51
272.9633983002
  0
LINE
  5
81
330
1F
100
AcDbEntity
  8
0
  6
Continuous
 62
     7
370
    25
100
AcDbLine
 10
300.7508
 20
483.2676453458
 30
0.0
 11
347.2508
 21
483.2676453458
 31
0.0
  0
ARC
  5
82
330
1F
100
AcDbEntity
  8
0
  6
Continuous
 62
     7
370
    25
100
AcDbCircle
 10
347.5001152369
 20
488.0837279653
 30
0.0
 40
4.822531481001298
100
AcDbArc
 50
267.0366016998
 51
278.9551904986
  0
LINE
  5
83
330
1F
100
AcDbEntity
  8
0
  6
Continuous
 62
     7
370
    25
100
AcDbLine
 10
348.2508
 20
483.319981302
 30
0.0
 11
348.2508
 21
484.4713723394
 31
0.0
  0
ARC
  5
84
330
1F
100
AcDbEntity
  8
0
  6
Continuous
 62
     7
370
    25
100
AcDbCircle
 10
347.5001152369
 20
479.7076256761
 30
0.0
 40
4.822531481018285
100
AcDbArc
 50
81.0448095014
 51
92.9633983002
  0
LINE
  5
85
330
1F
100
AcDbEntity
  8
0
  6
Continuous
 62
     7
370
    25
100
AcDbLine
 10
347.2508
 20
484.5237082956
 30
0.0
 11
300.7508
 21
484.5237082956
 31
0.0
  0
ARC
  5
86
330
1F
100
AcDbEntity
  8
0
  6
Continuous
 62
     7
370
    25
100
AcDbCircle
 10
300.5014847631
 20
479.7076256761
 30
0.0
 40
4.822531481010014
100
AcDbArc
 50
87.0366016998
 51
98.9551904986
  0
SPLINE
  5
87
330
1F
100
AcDbEntity
  8
0
  6
Continuous
 62
     7
370
    25
100
AcDbSpline
210
0.0
220
0.0
230
1.0
 70
     8
 71
     3
 72
    14
 73
    10
 74
     0
 42
0.00000001
 43
0.00000001
 40
0.0
 40
0.0
 40
0.0
 40
0.0
 40
0.1416418592737026
 40
0.283282754464818
 40
0.4250451509087888
 40
0.5668053210537428
 40
0.675077894007785
 40
0.7833514471234173
 40
1.0
 40
1.0
 40
1.0
 40
1.0
 10
179.0007999999993
 20
478.2770075674418
 30
0.0
 10
192.6836766832369
 20
478.2419311467908
 30
0.0
 10
220.0493369174755
 20
478.1717785442356
 30
0.0
 10
261.1367788341246
 20
478.0995015197227
 30
0.0
 10
302.2508711628835
 20
478.0573553618512
 30
0.0
 10
340.14675185203
 20
478.0554506853372
 30
0.0
 10
374.7969334169959
 20
478.0857643441111
 30
0.0
 10
416.6791177836454
 20
478.1469980545932
 30
0.0
 10
448.0701669411142
 20
478.2249988916438
 30
0.0
 10
469.0007999999995
 20
478.2770075674418
 30
0.0
  0
LINE
  5
88
330
1F
100
AcDbEntity
  8
0
  6
Continuous
 62
     7
370
    25
100
AcDbLine
 10
179.0008
 20
486.1200625479
 30
0.0
 11
179.0008
 21
478.2770075674
 31
0.0
  0
LINE
  5
89
330
1F
100
AcDbEntity
  8
0
  6
Continuous
 62
     7
370
    25
100
AcDbLine
 10
469.0008
 20
486.1200625479
 30
0.0
 11
469.0008
 21
478.2770075674
 31
0.0
  0
SPLINE
  5
8A
330
1F
100
AcDbEntity
  8
0
  6
Continuous
 62
     7
370
    25
100
AcDbSpline
210
0.0
220
0.0
230
1.0
 70
     8
 71
     3
 72
    15
 73
    11
 74
     0
 42
0.00000001
 43
0.00000001
 40
0.0
 40
0.0
 40
0.0
 40
0.0
 40
0.1277272124220035
 40
0.2500006214662504
 40
0.3758169059605618
 40
0.5000000007414159
 40
0.6241812686443763
 40
0.7499993797240051
 40
0.8722717988525033
 40
1.0
 40
1.0
 40
1.0
 40
1.0
 10
161.9183524325575
 20
461.1945599999997
 30
0.0
 10
161.9873011937191
 20
462.3352696239234
 30
0.0
 10
162.122254684153
 20
464.5679818978844
 30
0.0
 10
163.1505022106647
 20
467.7925558255501
 30
0.0
 10
164.7215681415965
 20
470.7401068635452
 30
0.0
 10
166.8593457132743
 20
473.3359912946934
 30
0.0
 10
169.4552390745604
 20
475.4737824249106
 30
0.0
 10
172.4027807706188
 20
477.0448487063532
 30
0.0
 10
175.6273691569523
 20
478.0731033981774
 30
0.0
 10
177.8600815034491
 20
478.2080578043592
 30
0.0
 10
179.0007999999993
 20
478.2770075674418
 30
0.0
  0
LINE
  5
8B
330
1F
100
AcDbEntity
  8
0
  6
Continuous
 62
     7
370
    25
100
AcDbLine
 10
154.0752974521
 20
461.19456
 30
0.0
 11
161.9183524326
 21
461.19456
 31
0.0
  0
SPLINE
  5
8C
330
1F
100
AcDbEntity
  8
0
  6
Continuous
 62
     7
370
    25
100
AcDbSpline
210
0.0
220
0.0
230
1.0
 70
     8
 71
     3
 72
    15
 73
    11
 74
     0
 42
0.00000001
 43
0.00000001
 40
0.0
 40
0.0
 40
0.0
 40
0.0
 40
0.1277272117027008
 40
0.2500006214663429
 40
0.3758169053141826
 40
0.5000000007414297
 40
0.6241812692474734
 40
0.7499993797239385
 40
0.8722717995237483
 40
1.0
 40
1.0
 40
1.0
 40
1.0
 10
469.0007999999995
 20
478.2770075674418
 30
0.0
 10
470.1415096174707
 20
478.2080588070052
 30
0.0
 10
472.3742218913769
 20
478.07310531723
 30
0.0
 10
475.5987958143526
 20
477.0448577941235
 30
0.0
 10
478.5463468585462
 20
475.4737918617138
 30
0.0
 10
481.1422312952081
 20
473.3360142877855
 30
0.0
 10
483.2800224279987
 20
470.7401209207748
 30
0.0
 10
484.851088710822
 20
467.7925792189321
 30
0.0
 10
485.8793433994683
 20
464.5679908369743
 30
0.0
 10
486.0142978050355
 20
462.3352784905287
 30
0.0
 10
486.0832475674416
 20
461.1945599999999
 30
0.0
  0
LINE
  5
8D
330
1F
100
AcDbEntity
  8
0
  6
Continuous
 62
     7
370
    25
100
AcDbLine
 10
493.9263025479
 20
461.19456
 30
0.0
 11
486.0832475674
 21
461.19456
 31
0.0
  0
SPLINE
  5
8E
330
1F
100
AcDbEntity
  8
0
  6
Continuous
 62
     7
370
    25
100
AcDbSpline
210
0.0
220
0.0
230
1.0
 70
     8
 71
     3
 72
    15
 73
    11
 74
     0
 42
0.00000001
 43
0.00000001
 40
0.0
 40
0.0
 40
0.0
 40
0.0
 40
0.1203969716547338
 40
0.240793319058945
 40
0.3612955072028615
 40
0.4817982483628453
 40
0.6113057324163225
 40
0.7408138661147203
 40
0.8704068237473348
 40
1.0
 40
1.0
 40
1.0
 40
1.0
 10
486.0743035728279
 20
461.19266200939
 30
0.0
 10
486.0553804673872
 20
447.7411677846097
 30
0.0
 10
486.0175343546208
 20
420.8382490801781
 30
0.0
 10
485.9991701443632
 20
380.4574353116395
 30
0.0
 10
486.0118627868574
 20
340.0649358336381
 30
0.0
 10
486.0576123180581
 20
298.6624798670343
 30
0.0
 10
486.1356944711196
 20
256.2705103231527
 30
0.0
 10
486.2465461301094
 20
212.8885083604477
 30
0.0
 10
486.3835679256209
 20
169.5235963706744
 30
0.0
 10
486.4976866040573
 20
140.6375802452147
 30
0.0
 10
486.5547459914043
 20
126.1945599999998
 30
0.0
  0
LINE
  5
8F
330
1F
100
AcDbEntity
  8
0
  6
Continuous
 62
     7
370
    25
100
AcDbLine
 10
486.0832475674
 20
461.19456
 30
0.0
 11
486.0743035728
 21
461.1926620094
 31
0.0
  0
LINE
  5
90
330
1F
100
AcDbEntity
  8
0
  6
Continuous
 62
     7
370
    25
100
AcDbLine
 10
493.9263025479
 20
126.19456
 30
0.0
 11
486.5547459914
 21
126.19456
 31
0.0
  0
LINE
  5
91
330
1F
100
AcDbEntity
  8
0
  6
Continuous
 62
     7
370
    25
100
AcDbLine
 10
179.0049762692
 20
108.6535015518
 30
0.0
 11
179.0008
 21
108.6406140086
 31
0.0
  0
SPLINE
  5
92
330
1F
100
AcDbEntity
  8
0
  6
Continuous
 62
     7
370
    25
100
AcDbSpline
210
0.0
220
0.0
230
1.0
 70
     8
 71
     3
 72
    13
 73
     9
 74
     0
 42
0.00000001
 43
0.00000001
 40
0.0
 40
0.0
 40
0.0
 40
0.0
 40
0.1664861396825426
 40
0.3329812993316087
 40
0.4994660550566635
 40
0.6663067480585367
 40
0.8331579135514221
 40
1.0
 40
1.0
 40
1.0
 40
1.0
 10
468.996623724366
 20
108.6535015518648
 30
0.0
 10
452.9114740019171
 20
108.6885837105979
 30
0.0
 10
420.7403030880051
 20
108.7587499287621
 30
0.0
 10
372.4528413528947
 20
108.81611389117
 30
0.0
 10
324.1212871126945
 20
108.8371547137489
 30
0.0
 10
275.7552664682197
 20
108.8163092538323
 30
0.0
 10
227.3644951993048
 20
108.758951544356
 30
0.0
 10
195.1245235201799
 20
108.6886509117775
 30
0.0
 10
179.0049762692458
 20
108.6535015518495
 30
0.0
  0
LINE
  5
93
330
1F
100
AcDbEntity
  8
0
  6
Continuous
 62
     7
370
    25
100
AcDbLine
 10
469.0008
 20
108.6406140086
 30
0.0
 11
468.9966237244
 21
108.6535015519
 31
0.0
  0
LINE
  5
94
330
1F
100
AcDbEntity
  8
0
  6
Continuous
 62
     7
370
    25
100
AcDbLine
 10
469.0008
 20
101.2690574521
 30
0.0
 11
469.0008
 21
108.6406140086
 31
0.0
  0
LINE
  5
95
330
1F
100
AcDbEntity
  8
0
  6
Continuous
 62
     7
370
    25
100
AcDbLine
 10
179.0008
 20
101.2690574521
 30
0.0
 11
179.0008
 21
108.6406140086
 31
0.0
  0
SPLINE
  5
96
330
1F
100
AcDbEntity
  8
0
  6
Continuous
 62
     7
370
    25
100
AcDbSpline
210
0.0
220
0.0
230
1.0
 70
     8
 71
     3
 72
    15
 73
    11
 74
     0
 42
0.00000001
 43
0.00000001
 40
0.0
 40
0.0
 40
0.0
 40
0.0
 40
0.1277272255748724
 40
0.2500006214609046
 40
0.3758169311157527
 40
0.5000000007328544
 40
0.6241812950806354
 40
0.7499993797184937
 40
0.8722718134307305
 40
0.9999999999999999
 40
0.9999999999999999
 40
0.9999999999999999
 40
0.9999999999999999
 10
486.5547459914043
 20
126.1945599999998
 30
0.0
 10
486.4838941384199
 20
125.0223651419071
 30
0.0
 10
486.3452157384306
 20
122.7280270187897
 30
0.0
 10
485.2885871031396
 20
119.4144503281389
 30
0.0
 10
483.674157641924
 20
116.3855430635304
 30
0.0
 10
481.4773743476793
 20
113.7180086110337
 30
0.0
 10
478.8098309777375
 20
111.5212117777168
 30
0.0
 10
475.7809330434735
 20
109.9067819675934
 30
0.0
 10
472.4673419152491
 20
108.8501461768773
 30
0.0
 10
470.1730037198924
 20
108.7114668622754
 30
0.0
 10
469.0007999999996
 20
108.640614008595
 30
0.0
  0
LINE
  5
97
330
1F
100
AcDbEntity
  8
0
  6
Continuous
 62
     7
370
    25
100
AcDbLine
 10
161.9272964272
 20
461.192662
 30
0.0
 11
161.9183524326
 21
461.19456
 31
0.0
  0
SPLINE
  5
98
330
1F
100
AcDbEntity
  8
0
  6
Continuous
 62
     7
370
    25
100
AcDbSpline
210
0.0
220
0.0
230
1.0
 70
     8
 71
     3
 72
    14
 73
    10
 74
     0
 42
0.00000001
 43
0.00000001
 40
0.0
 40
0.0
 40
0.0
 40
0.0
 40
0.1421653558241425
 40
0.2843364374989546
 40
0.426500124123032
 40
0.5689494416617653
 40
0.7114078093302308
 40
0.8538541196898948
 40
1.0
 40
1.0
 40
1.0
 40
1.0
 10
161.4468540085947
 20
126.1945599999998
 30
0.0
 10
161.5092281723057
 20
142.0390389324322
 30
0.0
 10
161.633979011909
 20
173.7286349493965
 30
0.0
 10
161.7798949876984
 20
221.3166750191481
 30
0.0
 10
161.8936445774982
 20
268.9676486937108
 30
0.0
 10
161.9692351388182
 20
316.679489024015
 30
0.0
 10
162.002455293715
 20
364.4400359918233
 30
0.0
 10
161.9938540017066
 20
412.6197708284983
 30
0.0
 10
161.9496710844083
 20
444.8639150755548
 30
0.0
 10
161.9272964271862
 20
461.1926620000493
 30
0.0
  0
LINE
  5
99
330
1F
100
AcDbEntity
  8
0
  6
Continuous
 62
     7
370
    25
100
AcDbLine
 10
154.0752974521
 20
126.19456
 30
0.0
 11
161.4468540086
 21
126.19456
 31
0.0
  0
SPLINE
  5
9A
330
1F
100
AcDbEntity
  8
0
  6
Continuous
 62
     7
370
    25
100
AcDbSpline
210
0.0
220
0.0
230
1.0
 70
     8
 71
     3
 72
    15
 73
    11
 74
     0
 42
0.00000001
 43
0.00000001
 40
0.0
 40
0.0
 40
0.0
 40
0.0
 40
0.1277272255720583
 40
0.2500006214609079
 40
0.3758169317197229
 40
0.5000000007328164
 40
0.6241812956716677
 40
0.749999379718506
 40
0.8722718134135469
 40
1.0
 40
1.0
 40
1.0
 40
1.0
 10
179.0007999999995
 20
108.6406140085949
 30
0.0
 10
177.8286051419314
 20
108.7114658615798
 30
0.0
 10
175.5342670188116
 20
108.8501442615729
 30
0.0
 10
172.2206903228511
 20
109.9067728985085
 30
0.0
 10
169.1917830587641
 20
111.5212023612989
 30
0.0
 10
166.5242486033071
 20
113.7179856600624
 30
0.0
 10
164.327451774561
 20
116.3855290269253
 30
0.0
 10
162.7130219660426
 20
119.4144269615829
 30
0.0
 10
161.6563861769014
 20
122.7280180845944
 30
0.0
 10
161.5177068622895
 20
125.0223562799497
 30
0.0
 10
161.4468540085947
 20
126.1945599999998
 30
0.0
  0
LINE
  5
9B
330
1F
100
AcDbEntity
  8
0
  6
Continuous
 62
     7
370
    25
100
AcDbLine
 10
300.7508
 20
483.2676453458
 30
0.0
 11
300.7508
 21
484.0665489736
 31
0.0
  0
ARC
  5
9C
330
1F
100
AcDbEntity
  8
0
  6
Continuous
 62
     7
370
    25
100
AcDbCircle
 10
300.5014847631
 20
488.8826315931
 30
0.0
 40
4.822531481010298
100
AcDbArc
 50
261.0448095014
 51
272.9633983002
  0
LINE
  5
9D
330
1F
100
AcDbEntity
  8
0
  6
Continuous
 62
     7
370
    25
100
AcDbLine
 10
347.2508
 20
483.2676453458
 30
0.0
 11
347.2508
 21
484.0665489736
 31
0.0
  0
ARC
  5
9E
330
1F
100
AcDbEntity
  8
0
  6
Continuous
 62
     7
370
    25
100
AcDbCircle
 10
347.5001152369
 20
488.8826315931
 30
0.0
 40
4.822531481001411
100
AcDbArc
 50
267.0366016998
 51
278.9551904986
  0
LINE
  5
9F
330
1F
100
AcDbEntity
  8
0
  6
Continuous
 62
     7
370
    25
100
AcDbLine
 10
300.7508
 20
484.0665489736
 30
0.0
 11
347.2508
 21
484.0665489736
 31
0.0
  0
LINE
  5
A0
330
1F
100
AcDbEntity
  8
0
  6
Continuous
 62
     7
370
    25
100
AcDbLine
 10
161.4468540086
 20
126.19456
 30
0.0
 11
161.5036730607
 21
126.149055513
 31
0.0
  0
SPLINE
  5
A1
330
1F
100
AcDbEntity
  8
0
  6
Continuous
 62
     7
370
    25
100
AcDbSpline
210
0.0
220
0.0
230
1.0
 70
     8
 71
     3
 72
    20
 73
    16
 74
     0
 42
0.00000001
 43
0.00000001
 40
0.0
 40
0.0
 40
0.0
 40
0.0
 40
0.1238994817808226
 40
0.2498468348127859
 40
0.3327161568940993
 40
0.4158493426865215
 40
0.5003138827337018
 40
0.561064333098869
 40
0.6244975982562697
 40
0.6852560657042476
 40
0.7501883124678861
 40
0.8087829264722686
 40
0.8744877433555922
 40
0.9261458689734474
 40
1.0
 40
1.0
 40
1.0
 40
1.0
 10
161.9272964271862
 20
461.1926620000492
 30
0.0
 10
162.0932810486299
 20
461.1865134607426
 30
0.0
 10
162.4279937665465
 20
461.1741147560638
 30
0.0
 10
163.8506024580054
 20
460.8292527802992
 30
0.0
 10
165.555566042059
 20
460.363700583355
 30
0.0
 10
167.3441816117141
 20
459.8468964992815
 30
0.0
 10
169.2332214144651
 20
459.2796201423243
 30
0.0
 10
171.1376268388873
 20
458.6930359303092
 30
0.0
 10
172.9461114159836
 20
458.1265765885918
 30
0.0
 10
174.9015378668213
 20
457.504707354722
 30
0.0
 10
176.8966367357141
 20
456.8632252242459
 30
0.0
 10
179.0179545778025
 20
456.1738925276907
 30
0.0
 10
181.0460567120217
 20
455.5109451434298
 30
0.0
 10
183.2881669424372
 20
454.7727313776732
 30
0.0
 10
184.7822811860736
 20
454.2796893255824
 30
0.0
 10
185.6614503769423
 20
453.9895727003998
 30
0.0
  0
SPLINE
  5
A2
330
1F
100
AcDbEntity
  8
0
  6
Continuous
 62
     7
370
    25
100
AcDbSpline
210
0.0
220
0.0
230
1.0
 70
     8
 71
     3
 72
    14
 73
    10
 74
     0
 42
0.00000001
 43
0.00000001
 40
0.0
 40
0.0
 40
0.0
 40
0.0
 40
0.1285392505246245
 40
0.2736230611079026
 40
0.418718319014612
 40
0.5638047450221954
 40
0.7092001461728284
 40
0.8546029035485716
 40
1.0
 40
1.0
 40
1.0
 40
1.0
 10
185.6614503769424
 20
453.9895727003999
 30
0.0
 10
185.6627836489371
 20
440.1740752897488
 30
0.0
 10
185.6656218011981
 20
410.7648584411844
 30
0.0
 10
185.6668262416721
 20
365.745480580121
 30
0.0
 10
185.6700705215486
 20
318.9520453658166
 30
0.0
 10
185.65513657929
 20
272.1406881230848
 30
0.0
 10
185.6012280642912
 20
225.3230225363491
 30
0.0
 10
185.5071355058759
 20
178.5013178936906
 30
0.0
 10
185.4102647997819
 20
147.3204963137413
 30
0.0
 10
185.3618303896131
 20
131.7303890181957
 30
0.0
  0
SPLINE
  5
A3
330
1F
100
AcDbEntity
  8
0
  6
Continuous
 62
     7
370
    25
100
AcDbSpline
210
0.0
220
0.0
230
1.0
 70
     8
 71
     3
 72
    17
 73
    13
 74
     0
 42
0.00000001
 43
0.00000001
 40
0.0
 40
0.0
 40
0.0
 40
0.0
 40
0.1266199350159332
 40
0.2500906723957796
 40
0.3749952093690982
 40
0.5003472215493808
 40
0.6244895802648521
 40
0.7500856353975313
 40
0.8087095798011513
 40
0.8744284842896031
 40
0.9260769690972782
 40
1.0
 40
1.0
 40
1.0
 40
1.0
 10
161.5036730606805
 20
126.1490555129762
 30
0.0
 10
161.7209762087751
 20
126.0898242950611
 30
0.0
 10
162.1501779013354
 20
125.9728350143974
 30
0.0
 10
163.8416854533762
 20
126.1431533884648
 30
0.0
 10
166.2022725980519
 20
126.5564403804456
 30
0.0
 10
169.2269557187727
 20
127.223817108136
 30
0.0
 10
172.7779349615253
 20
128.110675184592
 30
0.0
 10
176.0328929885041
 20
128.9934212654676
 30
0.0
 10
178.8031777443692
 20
129.7793920270691
 30
0.0
 10
180.8068908959694
 20
130.3617377255875
 30
0.0
 10
183.0205133718468
 20
131.0191464696756
 30
0.0
 10
184.4942515349738
 20
131.4668369272478
 30
0.0
 10
185.3618303896132
 20
131.7303890182038
 30
0.0
  0
SPLINE
  5
A4
330
1F
100
AcDbEntity
  8
0
  6
Continuous
 62
     7
370
    25
100
AcDbSpline
210
0.0
220
0.0
230
1.0
 70
     8
 71
     3
 72
    20
 73
    16
 74
     0
 42
0.00000001
 43
0.00000001
 40
0.0
 40
0.0
 40
0.0
 40
0.0
 40
0.1265688428652105
 40
0.2499873607253534
 40
0.3327598806448898
 40
0.4158800365020203
 40
0.500330853827142
 40
0.5611043053137731
 40
0.6245378460982877
 40
0.6852967388849938
 40
0.7501963666869377
 40
0.8087939128917632
 40
0.8744838204705038
 40
0.9261733936587778
 40
1.0
 40
1.0
 40
1.0
 40
1.0
 10
179.0049762692462
 20
108.6535015518495
 30
0.0
 10
178.9966426355569
 20
108.8193900372262
 30
0.0
 10
178.9801827940661
 20
109.1470380088382
 30
0.0
 10
179.2591986160128
 20
110.5240018300847
 30
0.0
 10
179.6476168156373
 20
112.1523863182256
 30
0.0
 10
180.0925713014828
 20
113.8774385320027
 30
0.0
 10
180.5883359086951
 20
115.7035345354922
 30
0.0
 10
181.1061479765119
 20
117.5482568953929
 30
0.0
 10
181.6097634081125
 20
119.3033298131597
 30
0.0
 10
182.1659380434181
 20
121.204060311936
 30
0.0
 10
182.742936409775
 20
123.1471896567997
 30
0.0
 10
183.3661705568138
 20
125.2172690976433
 30
0.0
 10
183.9688059140053
 20
127.2012196703211
 30
0.0
 10
184.6425800178389
 20
129.3982873456367
 30
0.0
 10
185.095455994243
 20
130.8666950983193
 30
0.0
 10
185.3618303896135
 20
131.7303890181956
 30
0.0
  0
SPLINE
  5
A5
330
1F
100
AcDbEntity
  8
0
  6
Continuous
 62
     7
370
    25
100
AcDbSpline
210
0.0
220
0.0
230
1.0
 70
     8
 71
     3
 72
    13
 73
     9
 74
     0
 42
0.00000001
 43
0.00000001
 40
0.0
 40
0.0
 40
0.0
 40
0.0
 40
0.1532153516038963
 40
0.3335117285126596
 40
0.5138077669700615
 40
0.6942879125043367
 40
0.8747684420969071
 40
1.0
 40
1.0
 40
1.0
 40
1.0
 10
185.3618303896132
 20
131.7303890181957
 30
0.0
 10
199.5163055234058
 20
131.7506773804943
 30
0.0
 10
230.3270788476409
 20
131.7948401011884
 30
0.0
 10
277.8223676930965
 20
131.8274226319444
 30
0.0
 10
327.8478420134919
 20
131.8376117747108
 30
0.0
 10
377.8893711732232
 20
131.8237194433534
 30
0.0
 10
422.8291736055119
 20
131.788693502202
 30
0.0
 10
451.0708718856546
 20
131.747332211216
 30
0.0
 10
462.6397696103859
 20
131.7303890181957
 30
0.0
  0
SPLINE
  5
A6
330
1F
100
AcDbEntity
  8
0
  6
Continuous
 62
     7
370
    25
100
AcDbSpline
210
0.0
220
0.0
230
1.0
 70
     8
 71
     3
 72
    17
 73
    13
 74
     0
 42
0.00000001
 43
0.00000001
 40
0.0
 40
0.0
 40
0.0
 40
0.0
 40
0.1266242002821668
 40
0.2500966973960828
 40
0.3750011391746852
 40
0.500351889270604
 40
0.6244925771319294
 40
0.7500871058679409
 40
0.8087091135101022
 40
0.8744289188915416
 40
0.9261485744346061
 40
1.0
 40
1.0
 40
1.0
 40
1.0
 10
468.996623724366
 20
108.6535015518648
 30
0.0
 10
469.0048889315733
 20
108.8196228107553
 30
0.0
 10
469.0212136232296
 20
109.1477305352121
 30
0.0
 10
468.7079143076703
 20
110.6954153766807
 30
0.0
 10
468.164135001078
 20
112.9246351428588
 30
0.0
 10
467.3824807652757
 20
115.834175025193
 30
0.0
 10
466.4007877773365
 20
119.2895243539733
 30
0.0
 10
465.4582257185095
 20
122.484074556792
 30
0.0
 10
464.6354762314242
 20
125.2171695159773
 30
0.0
 10
464.0327630700478
 20
127.2013085602961
 30
0.0
 10
463.3589978540268
 20
129.3983687651945
 30
0.0
 10
462.9061188403985
 20
130.8667802761134
 30
0.0
 10
462.6397696103859
 20
131.7303890181957
 30
0.0
  0
SPLINE
  5
A7
330
1F
100
AcDbEntity
  8
0
  6
Continuous
 62
     7
370
    25
100
AcDbSpline
210
0.0
220
0.0
230
1.0
 70
     8
 71
     3
 72
    19
 73
    15
 74
     0
 42
0.00000001
 43
0.00000001
 40
0.0
 40
0.0
 40
0.0
 40
0.0
 40
0.0609285033155397
 40
0.1075851967377189
 40
0.1526973776839469
 40
0.2035645507327381
 40
0.2498915470303131
 40
0.3355022901934822
 40
0.4181341588157989
 40
0.4997559269722092
 40
0.6250820973863699
 40
0.749960884671103
 40
0.8734061679748575
 40
1.0
 40
1.0
 40
1.0
 40
1.0
 10
462.6397696103859
 20
131.7303890181956
 30
0.0
 10
463.3550165454969
 20
131.5128781188486
 30
0.0
 10
464.6179719447368
 20
131.1288057779009
 30
0.0
 10
466.3916558835297
 20
130.5997000403485
 30
0.0
 10
468.0294403662601
 20
130.1183316435078
 30
0.0
 10
469.6368440760273
 20
129.654696963233
 30
0.0
 10
471.6569013078328
 20
129.083124852779
 30
0.0
 10
473.9454164714264
 20
128.4561992527984
 30
0.0
 10
476.4463674048669
 20
127.8036554464201
 30
0.0
 10
479.1172231512298
 20
127.1482704012113
 30
0.0
 10
481.7995776162702
 20
126.5563724112795
 30
0.0
 10
484.1598488366055
 20
126.1431713232244
 30
0.0
 10
485.8514389347899
 20
125.9728304756799
 30
0.0
 10
486.2806294499907
 20
126.0898227736921
 30
0.0
 10
486.4979269392921
 20
126.1490555193498
 30
0.0
  0
SPLINE
  5
A8
330
1F
100
AcDbEntity
  8
0
  6
Continuous
 62
     7
370
    25
100
AcDbSpline
210
0.0
220
0.0
230
1.0
 70
     8
 71
     3
 72
    15
 73
    11
 74
     0
 42
0.00000001
 43
0.00000001
 40
0.0
 40
0.0
 40
0.0
 40
0.0
 40
0.1297941873541713
 40
0.2595881683953805
 40
0.389456831038737
 40
0.5193249251085722
 40
0.6394460709200768
 40
0.759566743032607
 40
0.8797831318606987
 40
1.0
 40
1.0
 40
1.0
 40
1.0
 10
462.6397696103859
 20
131.7303890181956
 30
0.0
 10
462.5960401433586
 20
145.6471519726063
 30
0.0
 10
462.5085812788136
 20
173.4806557601862
 30
0.0
 10
462.4178387217319
 20
215.2799407003161
 30
0.0
 10
462.360408759035
 20
257.1114154539518
 30
0.0
 10
462.3365870040103
 20
297.9266361819946
 30
0.0
 10
462.3353639581835
 20
337.7094134440323
 30
0.0
 10
462.339578272154
 20
376.4624888245758
 30
0.0
 10
462.3344508487299
 20
415.22680653281
 30
0.0
 10
462.3382500290898
 20
441.0686334723736
 30
0.0
 10
462.3401496230567
 20
453.9895727003998
 30
0.0
  0
SPLINE
  5
A9
330
1F
100
AcDbEntity
  8
0
  6
Continuous
 62
     7
370
    25
100
AcDbSpline
210
0.0
220
0.0
230
1.0
 70
     8
 71
     3
 72
    19
 73
    15
 74
     0
 42
0.00000001
 43
0.00000001
 40
0.0
 40
0.0
 40
0.0
 40
0.0
 40
0.0608916764531288
 40
0.1075592781701931
 40
0.1527038169053543
 40
0.2035793155923092
 40
0.2499014344020644
 40
0.3355488354048988
 40
0.4181785294456956
 40
0.4997722410757726
 40
0.6250900273305238
 40
0.7500927226125488
 40
0.8760709826323866
 40
1.0
 40
1.0
 40
1.0
 40
1.0
 10
462.3401496230567
 20
453.9895727003998
 30
0.0
 10
463.0648906030971
 20
454.2287806046673
 30
0.0
 10
464.3450756992244
 20
454.6513183144877
 30
0.0
 10
466.1419265408106
 20
455.2431902505193
 30
0.0
 10
467.8006119576094
 20
455.787401657051
 30
0.0
 10
469.4270497370058
 20
456.3181123430562
 30
0.0
 10
471.4690013963514
 20
456.9809640439916
 30
0.0
 10
473.7786464614732
 20
457.7224731855027
 30
0.0
 10
476.2955785231123
 20
458.5171347435074
 30
0.0
 10
478.9730953632438
 20
459.3443173575879
 30
0.0
 10
481.6447846989204
 20
460.1402472570241
 30
0.0
 10
483.9738068981957
 20
460.7864523673372
 30
0.0
 10
485.5729116064695
 20
461.1739067758054
 30
0.0
 10
485.9080890704412
 20
461.1864445347861
 30
0.0
 10
486.0743035728279
 20
461.1926620093899
 30
0.0
  0
LINE
  5
AA
330
1F
100
AcDbEntity
  8
0
  6
Continuous
 62
     7
370
    25
100
AcDbLine
 10
486.4979269393
 20
126.1490555193
 30
0.0
 11
486.5547459914
 21
126.19456
 31
0.0
  0
SPLINE
  5
AB
330
1F
100
AcDbEntity
  8
0
  6
Continuous
 62
     7
370
    25
100
AcDbSpline
210
0.0
220
0.0
230
1.0
 70
     8
 71
     3
 72
    15
 73
    11
 74
     0
 42
0.00000001
 43
0.00000001
 40
0.0
 40
0.0
 40
0.0
 40
0.0
 40
0.1250485647648278
 40
0.2500560396443413
 40
0.3750352273637312
 40
0.4999999995579349
 40
0.6249647717823638
 40
0.749943959573005
 40
0.8749514385700566
 40
0.9999999999999999
 40
0.9999999999999999
 40
0.9999999999999999
 40
0.9999999999999999
 10
468.9966237243688
 20
108.6535015518649
 30
0.0
 10
470.1375398329571
 20
108.7231786714373
 30
0.0
 10
472.4189971548911
 20
108.8625100152784
 30
0.0
 10
475.7107153064302
 20
109.909904920783
 30
0.0
 10
478.7464967716632
 20
111.5296507369692
 30
0.0
 10
481.40960822496
 20
113.7210580506931
 30
0.0
 10
483.6029604261107
 20
116.3845190174158
 30
0.0
 10
485.2269194494271
 20
119.4229829562611
 30
0.0
 10
486.2804938479725
 20
122.7194531695542
 30
0.0
 10
486.4254413042395
 20
125.0057295297576
 30
0.0
 10
486.4979269392921
 20
126.1490555193498
 30
0.0
  0
SPLINE
  5
AC
330
1F
100
AcDbEntity
  8
0
  6
Continuous
 62
     7
370
    25
100
AcDbSpline
210
0.0
220
0.0
230
1.0
 70
     8
 71
     3
 72
    15
 73
    11
 74
     0
 42
0.00000001
 43
0.00000001
 40
0.0
 40
0.0
 40
0.0
 40
0.0
 40
0.1250485637390562
 40
0.2500560404331589
 40
0.3750352282041676
 40
0.5000000004149723
 40
0.6249647726227976
 40
0.7499439603618203
 40
0.8749514375442667
 40
1.0
 40
1.0
 40
1.0
 40
1.0
 10
179.0049762692458
 20
108.6535015518497
 30
0.0
 10
177.8640601704842
 20
108.7231786703778
 30
0.0
 10
175.5826028422887
 20
108.8625100137127
 30
0.0
 10
172.2908846836424
 20
109.9099049210001
 30
0.0
 10
169.2551032063931
 20
111.529650748646
 30
0.0
 10
166.5919917565695
 20
113.7210580654242
 30
0.0
 10
164.3986395600522
 20
116.3845190337012
 30
0.0
 10
162.7746805493804
 20
119.422982958324
 30
0.0
 10
161.7211061533984
 20
122.7194531621035
 30
0.0
 10
161.5761586967481
 20
125.0057295143683
 30
0.0
 10
161.5036730606804
 20
126.1490555129762
 30
0.0
  0
LINE
  5
AD
330
1F
100
AcDbEntity
  8
0
  6
Continuous
 62
     7
370
    25
100
AcDbLine
 10
178.9816041638
 20
478.2429231587
 30
0.0
 11
179.0008
 21
478.2770075674
 31
0.0
  0
LINE
  5
AE
330
1F
100
AcDbEntity
  8
0
  6
Continuous
 62
     7
370
    25
100
AcDbLine
 10
469.0199958455
 20
478.2429231587
 30
0.0
 11
469.0008
 21
478.2770075674
 31
0.0
  0
SPLINE
  5
AF
330
1F
100
AcDbEntity
  8
0
  6
Continuous
 62
     7
370
    25
100
AcDbSpline
210
0.0
220
0.0
230
1.0
 70
     8
 71
     3
 72
    19
 73
    15
 74
     0
 42
0.00000001
 43
0.00000001
 40
0.0
 40
0.0
 40
0.0
 40
0.0
 40
0.0571951907011245
 40
0.1012386229203415
 40
0.1527044771278952
 40
0.2035799468192278
 40
0.249904911169447
 40
0.3355521358503272
 40
0.4181835141861059
 40
0.4997809440829013
 40
0.6251008314803009
 40
0.7501036376053285
 40
0.8760744652838672
 40
1.0
 40
1.0
 40
1.0
 40
1.0
 10
462.3401496230567
 20
453.9895727003998
 30
0.0
 10
462.5633898012853
 20
454.6716458734343
 30
0.0
 10
462.9585371545383
 20
455.878952780229
 30
0.0
 10
463.5430935410003
 20
457.6850298000855
 30
0.0
 10
464.0921920505324
 20
459.398138040413
 30
0.0
 10
464.6337206368215
 20
461.1090144524406
 30
0.0
 10
465.2777730365597
 20
463.1691619315679
 30
0.0
 10
465.9924117271943
 20
465.5050507714488
 30
0.0
 10
466.7490077927929
 20
468.0594674938526
 30
0.0
 10
467.5249195146383
 20
470.7877737415472
 30
0.0
 10
468.2524394905186
 20
473.5275764106568
 30
0.0
 10
468.8102365757196
 20
475.9449887565919
 30
0.0
 10
469.1016981627969
 20
477.6404490010268
 30
0.0
 10
469.0470809452162
 20
478.043197212412
 30
0.0
 10
469.0199958455032
 20
478.2429231586947
 30
0.0
  0
SPLINE
  5
B0
330
1F
100
AcDbEntity
  8
0
  6
Continuous
 62
     7
370
    25
100
AcDbSpline
210
0.0
220
0.0
230
1.0
 70
     8
 71
     3
 72
    14
 73
    10
 74
     0
 42
0.00000001
 43
0.00000001
 40
0.0
 40
0.0
 40
0.0
 40
0.0
 40
0.214532213421905
 40
0.3218404806755493
 40
0.4291479606400776
 40
0.5717931378587127
 40
0.7144401314222913
 40
0.8572195843739369
 40
1.0
 40
1.0
 40
1.0
 40
1.0
 10
462.3401496230567
 20
453.9895727003998
 30
0.0
 10
442.5651474259359
 20
453.9692692111979
 30
0.0
 10
412.8987578848697
 20
453.9388099872896
 30
0.0
 10
373.3144255031498
 20
453.9734375687652
 30
0.0
 10
340.3537367425386
 20
454.0152318488952
 30
0.0
 10
304.1263377199068
 20
454.0079105597753
 30
0.0
 10
264.6334483744069
 20
453.9591441509077
 30
0.0
 10
225.1414402913339
 20
453.9451428716121
 30
0.0
 10
198.8214765915394
 20
453.9747627241859
 30
0.0
 10
185.6614503769423
 20
453.9895727003998
 30
0.0
  0
SPLINE
  5
B1
330
1F
100
AcDbEntity
  8
0
  6
Continuous
 62
     7
370
    25
100
AcDbSpline
210
0.0
220
0.0
230
1.0
 70
     8
 71
     3
 72
    19
 73
    15
 74
     0
 42
0.00000001
 43
0.00000001
 40
0.0
 40
0.0
 40
0.0
 40
0.0
 40
0.0572170919384313
 40
0.1012397191517093
 40
0.1527050890721181
 40
0.2035808683506702
 40
0.2499049067935498
 40
0.3355531512428717
 40
0.4181845737194116
 40
0.4997809419083357
 40
0.6251008305048591
 40
0.750103637391396
 40
0.8760750143916392
 40
0.9999999999999999
 40
0.9999999999999999
 40
0.9999999999999999
 40
0.9999999999999999
 10
185.6614503769423
 20
453.9895727003998
 30
0.0
 10
185.4381254409085
 20
454.671907290966
 30
0.0
 10
185.0429750926881
 20
455.8792276907993
 30
0.0
 10
184.4584173445894
 20
457.6853062210247
 30
0.0
 10
183.90939857475
 20
459.3981689027726
 30
0.0
 10
183.3678736620005
 20
461.109031932825
 30
0.0
 10
182.7238206229273
 20
463.1691835704632
 30
0.0
 10
182.0091810401535
 20
465.5050731173621
 30
0.0
 10
181.2525870600444
 20
468.0594878015934
 30
0.0
 10
180.4766781076373
 20
470.7877824684019
 30
0.0
 10
179.7491609056761
 20
473.5275764495042
 30
0.0
 10
179.191362145443
 20
475.9449922818147
 30
0.0
 10
178.8999038990788
 20
477.6404509435786
 30
0.0
 10
178.9545198247976
 20
478.0431984480801
 30
0.0
 10
178.9816041638334
 20
478.2429231586687
 30
0.0
  0
SPLINE
  5
B2
330
1F
100
AcDbEntity
  8
0
  6
Continuous
 62
     7
370
    25
100
AcDbSpline
210
0.0
220
0.0
230
1.0
 70
     8
 71
     3
 72
    15
 73
    11
 74
     0
 42
0.00000001
 43
0.00000001
 40
0.0
 40
0.0
 40
0.0
 40
0.0
 40
0.1250258700962934
 40
0.2500298668122476
 40
0.3750187806357318
 40
0.4999999995599282
 40
0.6249812185054351
 40
0.7499701323940431
 40
0.874974132428636
 40
1.0
 40
1.0
 40
1.0
 40
1.0
 10
486.0743035728279
 20
461.192662009395
 30
0.0
 10
486.0069916742484
 20
462.305425078533
 30
0.0
 10
485.8723796533624
 20
464.5307565379812
 30
0.0
 10
484.8523363710034
 20
467.7413984902199
 30
0.0
 10
483.2735320993065
 20
470.7020721913799
 30
0.0
 10
481.1366820946907
 20
473.2983915987108
 30
0.0
 10
478.5392278630461
 20
475.4352530971644
 30
0.0
 10
475.5762929549649
 20
477.0152409235806
 30
0.0
 10
472.3624187697184
 20
478.0375118205799
 30
0.0
 10
470.13420177997
 20
478.1744487205031
 30
0.0
 10
469.0199958455032
 20
478.2429231586947
 30
0.0
  0
SPLINE
  5
B3
330
1F
100
AcDbEntity
  8
0
  6
Continuous
 62
     7
370
    25
100
AcDbSpline
210
0.0
220
0.0
230
1.0
 70
     8
 71
     3
 72
    15
 73
    11
 74
     0
 42
0.00000001
 43
0.00000001
 40
0.0
 40
0.0
 40
0.0
 40
0.0
 40
0.1250258690640295
 40
0.2500298676061385
 40
0.3750187814816455
 40
0.5000000004225775
 40
0.6249812193513484
 40
0.7499701331879429
 40
0.8749741313963789
 40
0.9999999999999999
 40
0.9999999999999999
 40
0.9999999999999999
 40
0.9999999999999999
 10
161.9272964271862
 20
461.1926620000493
 30
0.0
 10
161.9946083248072
 20
462.3054250605555
 30
0.0
 10
162.1292203453155
 20
464.530756528181
 30
0.0
 10
163.1492636303533
 20
467.7413984903287
 30
0.0
 10
164.728067914737
 20
470.7020722059771
 30
0.0
 10
166.864917924304
 20
473.2983916122596
 30
0.0
 10
169.4623721598437
 20
475.4352531081058
 30
0.0
 10
172.4253070566702
 20
477.0152409235643
 30
0.0
 10
175.6391812355109
 20
478.0375118189943
 30
0.0
 10
177.8673982195062
 20
478.1744487194355
 30
0.0
 10
178.9816041638333
 20
478.2429231586687
 30
0.0
  0
CIRCLE
  5
B4
330
1F
100
AcDbEntity
  8
0
  6
Continuous
 62
     7
370
    25
100
AcDbCircle
 10
324.0008
 20
376.19456
 30
0.0
 40
70.00000000000006
  0
CIRCLE
  5
B5
330
1F
100
AcDbEntity
  8
0
  6
Continuous
 62
     7
370
    25
100
AcDbCircle
 10
324.0008
 20
376.19456
 30
0.0
 40
58.94765075494621
  0
CIRCLE
  5
B6
330
1F
100
AcDbEntity
  8
0
  6
Continuous
 62
     7
370
    25
100
AcDbCircle
 10
324.0008
 20
376.19456
 30
0.0
 40
57.5
  0
CIRCLE
  5
B7
330
1F
100
AcDbEntity
  8
0
  6
Continuous
 62
     7
370
    25
100
AcDbCircle
 10
324.0008
 20
376.19456
 30
0.0
 40
56.58715574274765
  0
CIRCLE
  5
B8
330
1F
100
AcDbEntity
  8
0
  6
Continuous
 62
     7
370
    25
100
AcDbCircle
 10
324.0008
 20
376.19456
 30
0.0
 40
45.00000000000006
  0
LINE
  5
B9
330
1F
100
AcDbEntity
  8
0
  6
Continuous
 62
     7
370
    25
100
AcDbLine
 10
841.0008
 20
486.1200625479
 30
0.0
 11
551.0008
 21
486.1200625479
 31
0.0
  0
ARC
  5
BA
330
1F
100
AcDbEntity
  8
0
  6
Continuous
 62
     7
370
    25
100
AcDbCircle
 10
841.0008
 20
461.19456
 30
0.0
 40
24.92550254794048
100
AcDbArc
 50
0.0
 51
66.1478171266
  0
LWPOLYLINE
  5
BB
330
1F
100
AcDbEntity
  8
0
  6
Continuous
 62
     7
370
    25
100
AcDbPolyline
 90
        3
 70
   128
 43
0.0
 10
846.6153272128
 20
485.4794886893
 10
844.0052373308
 20
485.9383275707
 10
841.0008
 20
486.1200625479
  0
LWPOLYLINE
  5
BC
330
1F
100
AcDbEntity
  8
0
  6
Continuous
 62
     7
370
    25
100
AcDbPolyline
 90
        3
 70
   128
 43
0.0
 10
841.0008
 20
101.2690574521
 10
844.0052373308
 20
101.4507924293
 10
846.6153145329
 20
101.9096283792
  0
ARC
  5
BD
330
1F
100
AcDbEntity
  8
0
  6
Continuous
 62
     7
370
    25
100
AcDbCircle
 10
841.0008
 20
126.19456
 30
0.0
 40
24.92550254794048
100
AcDbArc
 50
293.8522132019
 51
0.0
  0
LINE
  5
BE
330
1F
100
AcDbEntity
  8
0
  6
Continuous
 62
     7
370
    25
100
AcDbLine
 10
551.0008
 20
101.2690574521
 30
0.0
 11
841.0008
 21
101.2690574521
 31
0.0
  0
LINE
  5
BF
330
1F
100
AcDbEntity
  8
0
  6
Continuous
 62
     7
370
    25
100
AcDbLine
 10
526.0752974521
 20
461.19456
 30
0.0
 11
526.0752974521
 21
126.19456
 31
0.0
  0
LWPOLYLINE
  5
C0
330
1F
100
AcDbEntity
  8
0
  6
Continuous
 62
     7
370
    25
100
AcDbPolyline
 90
        3
 70
   128
 43
0.0
 10
551.0008
 20
486.1200625479
 10
547.9963626692
 20
485.9383275707
 10
545.3862425539
 20
485.4794816995
  0
ARC
  5
C1
330
1F
100
AcDbEntity
  8
0
  6
Continuous
 62
     7
370
    25
100
AcDbCircle
 10
551.0008
 20
461.19456
 30
0.0
 40
24.92550254794043
100
AcDbArc
 50
113.8521105036
 51
180.0
  0
ARC
  5
C2
330
1F
100
AcDbEntity
  8
0
  6
Continuous
 62
     7
370
    25
100
AcDbCircle
 10
551.0008
 20
126.19456
 30
0.0
 40
24.92550254794053
100
AcDbArc
 50
180.0
 51
246.147919703
  0
LWPOLYLINE
  5
C3
330
1F
100
AcDbEntity
  8
0
  6
Continuous
 62
     7
370
    25
100
AcDbPolyline
 90
        3
 70
   128
 43
0.0
 10
545.3862294165
 20
101.9096413378
 10
547.9963626692
 20
101.4507924293
 10
551.0008
 20
101.2690574521
  0
LINE
  5
C4
330
1F
100
AcDbEntity
  8
0
  6
Continuous
 62
     7
370
    25
100
AcDbLine
 10
865.9263025479
 20
126.19456
 30
0.0
 11
865.9263025479
 21
461.19456
 31
0.0
  0
LINE
  5
C5
330
1F
100
AcDbEntity
  8
0
  6
Continuous
 62
     7
370
    25
100
AcDbLine
 10
551.0049762692
 20
108.6535015518
 30
0.0
 11
551.0008
 21
108.6406140086
 31
0.0
  0
SPLINE
  5
C6
330
1F
100
AcDbEntity
  8
0
  6
Continuous
 62
     7
370
    25
100
AcDbSpline
210
0.0
220
0.0
230
1.0
 70
     8
 71
     3
 72
    13
 73
     9
 74
     0
 42
0.00000001
 43
0.00000001
 40
0.0
 40
0.0
 40
0.0
 40
0.0
 40
0.1664861396825426
 40
0.3329812993316087
 40
0.4994660550566636
 40
0.6663067480585366
 40
0.8331579135514221
 40
1.0
 40
1.0
 40
1.0
 40
1.0
 10
840.9966237243659
 20
108.6535015518648
 30
0.0
 10
824.911474001917
 20
108.688583710598
 30
0.0
 10
792.7403030880049
 20
108.7587499287623
 30
0.0
 10
744.4528413528947
 20
108.8161138911698
 30
0.0
 10
696.1212871126943
 20
108.8371547137492
 30
0.0
 10
647.7552664682198
 20
108.8163092538321
 30
0.0
 10
599.3644951993047
 20
108.7589515443559
 30
0.0
 10
567.1245235201798
 20
108.6886509117776
 30
0.0
 10
551.0049762692457
 20
108.6535015518495
 30
0.0
  0
LINE
  5
C7
330
1F
100
AcDbEntity
  8
0
  6
Continuous
 62
     7
370
    25
100
AcDbLine
 10
841.0008
 20
108.6406140086
 30
0.0
 11
840.9966237244
 21
108.6535015519
 31
0.0
  0
LINE
  5
C8
330
1F
100
AcDbEntity
  8
0
  6
Continuous
 62
     7
370
    25
100
AcDbLine
 10
841.0008
 20
101.2690574521
 30
0.0
 11
841.0008
 21
108.6406140086
 31
0.0
  0
LINE
  5
C9
330
1F
100
AcDbEntity
  8
0
  6
Continuous
 62
     7
370
    25
100
AcDbLine
 10
551.0008
 20
101.2690574521
 30
0.0
 11
551.0008
 21
108.6406140086
 31
0.0
  0
LINE
  5
CA
330
1F
100
AcDbEntity
  8
0
  6
Continuous
 62
     7
370
    25
100
AcDbLine
 10
671.7508
 20
484.4713723394
 30
0.0
 11
671.7508
 21
483.319981302
 31
0.0
  0
ARC
  5
CB
330
1F
100
AcDbEntity
  8
0
  6
Continuous
 62
     7
370
    25
100
AcDbCircle
 10
672.5014847631
 20
488.0837279653
 30
0.0
 40
4.822531481010025
100
AcDbArc
 50
261.0448095014
 51
272.9633983002
  0
LINE
  5
CC
330
1F
100
AcDbEntity
  8
0
  6
Continuous
 62
     7
370
    25
100
AcDbLine
 10
672.7508
 20
483.2676453458
 30
0.0
 11
719.2508
 21
483.2676453458
 31
0.0
  0
ARC
  5
CD
330
1F
100
AcDbEntity
  8
0
  6
Continuous
 62
     7
370
    25
100
AcDbCircle
 10
719.5001152369
 20
488.0837279653
 30
0.0
 40
4.822531481002616
100
AcDbArc
 50
267.0366016998
 51
278.9551904986
  0
LINE
  5
CE
330
1F
100
AcDbEntity
  8
0
  6
Continuous
 62
     7
370
    25
100
AcDbLine
 10
720.2508
 20
483.319981302
 30
0.0
 11
720.2508
 21
484.4713723394
 31
0.0
  0
ARC
  5
CF
330
1F
100
AcDbEntity
  8
0
  6
Continuous
 62
     7
370
    25
100
AcDbCircle
 10
719.5001152369
 20
479.7076256761
 30
0.0
 40
4.822531481019266
100
AcDbArc
 50
81.0448095014
 51
92.9633983002
  0
LINE
  5
D0
330
1F
100
AcDbEntity
  8
0
  6
Continuous
 62
     7
370
    25
100
AcDbLine
 10
719.2508
 20
484.5237082956
 30
0.0
 11
672.7508
 21
484.5237082956
 31
0.0
  0
ARC
  5
D1
330
1F
100
AcDbEntity
  8
0
  6
Continuous
 62
     7
370
    25
100
AcDbCircle
 10
672.5014847631
 20
479.7076256761
 30
0.0
 40
4.822531481008771
100
AcDbArc
 50
87.0366016998
 51
98.9551904986
  0
SPLINE
  5
D2
330
1F
100
AcDbEntity
  8
0
  6
Continuous
 62
     7
370
    25
100
AcDbSpline
210
0.0
220
0.0
230
1.0
 70
     8
 71
     3
 72
    14
 73
    10
 74
     0
 42
0.00000001
 43
0.00000001
 40
0.0
 40
0.0
 40
0.0
 40
0.0
 40
0.1416418592737028
 40
0.283282754464818
 40
0.4250451509087887
 40
0.5668053210537426
 40
0.675077894007785
 40
0.783351447123417
 40
1.0
 40
1.0
 40
1.0
 40
1.0
 10
551.0007999999992
 20
478.2770075674418
 30
0.0
 10
564.6836766832369
 20
478.2419311467908
 30
0.0
 10
592.0493369174753
 20
478.1717785442356
 30
0.0
 10
633.1367788341245
 20
478.0995015197227
 30
0.0
 10
674.2508711628834
 20
478.0573553618513
 30
0.0
 10
712.14675185203
 20
478.0554506853371
 30
0.0
 10
746.7969334169959
 20
478.085764344111
 30
0.0
 10
788.6791177836453
 20
478.1469980545932
 30
0.0
 10
820.0701669411142
 20
478.2249988916438
 30
0.0
 10
841.0007999999995
 20
478.2770075674418
 30
0.0
  0
LINE
  5
D3
330
1F
100
AcDbEntity
  8
0
  6
Continuous
 62
     7
370
    25
100
AcDbLine
 10
551.0008
 20
486.1200625479
 30
0.0
 11
551.0008
 21
478.2770075674
 31
0.0
  0
LINE
  5
D4
330
1F
100
AcDbEntity
  8
0
  6
Continuous
 62
     7
370
    25
100
AcDbLine
 10
841.0008
 20
486.1200625479
 30
0.0
 11
841.0008
 21
478.2770075674
 31
0.0
  0
SPLINE
  5
D5
330
1F
100
AcDbEntity
  8
0
  6
Continuous
 62
     7
370
    25
100
AcDbSpline
210
0.0
220
0.0
230
1.0
 70
     8
 71
     3
 72
    15
 73
    11
 74
     0
 42
0.00000001
 43
0.00000001
 40
0.0
 40
0.0
 40
0.0
 40
0.0
 40
0.1203969716547338
 40
0.240793319058945
 40
0.3612955072028615
 40
0.4817982483628453
 40
0.6113057324163225
 40
0.7408138661147203
 40
0.8704068237473348
 40
1.0
 40
1.0
 40
1.0
 40
1.0
 10
858.0743035728277
 20
461.19266200939
 30
0.0
 10
858.0553804673872
 20
447.7411677846097
 30
0.0
 10
858.0175343546208
 20
420.8382490801781
 30
0.0
 10
857.9991701443629
 20
380.4574353116395
 30
0.0
 10
858.0118627868574
 20
340.0649358336381
 30
0.0
 10
858.057612318058
 20
298.6624798670343
 30
0.0
 10
858.1356944711195
 20
256.2705103231527
 30
0.0
 10
858.2465461301093
 20
212.8885083604477
 30
0.0
 10
858.3835679256208
 20
169.5235963706744
 30
0.0
 10
858.4976866040572
 20
140.6375802452147
 30
0.0
 10
858.5547459914043
 20
126.1945599999998
 30
0.0
  0
LINE
  5
D6
330
1F
100
AcDbEntity
  8
0
  6
Continuous
 62
     7
370
    25
100
AcDbLine
 10
858.0832475674
 20
461.19456
 30
0.0
 11
858.0743035728
 21
461.1926620094
 31
0.0
  0
LINE
  5
D7
330
1F
100
AcDbEntity
  8
0
  6
Continuous
 62
     7
370
    25
100
AcDbLine
 10
865.9263025479
 20
461.19456
 30
0.0
 11
858.0832475674
 21
461.19456
 31
0.0
  0
LINE
  5
D8
330
1F
100
AcDbEntity
  8
0
  6
Continuous
 62
     7
370
    25
100
AcDbLine
 10
865.9263025479
 20
126.19456
 30
0.0
 11
858.5547459914
 21
126.19456
 31
0.0
  0
SPLINE
  5
D9
330
1F
100
AcDbEntity
  8
0
  6
Continuous
 62
     7
370
    25
100
AcDbSpline
210
0.0
220
0.0
230
1.0
 70
     8
 71
     3
 72
    15
 73
    11
 74
     0
 42
0.00000001
 43
0.00000001
 40
0.0
 40
0.0
 40
0.0
 40
0.0
 40
0.1277272117026989
 40
0.2500006214663412
 40
0.3758169053141811
 40
0.5000000007414284
 40
0.6241812692474723
 40
0.7499993797239385
 40
0.8722717995237484
 40
1.0
 40
1.0
 40
1.0
 40
1.0
 10
841.0007999999995
 20
478.2770075674418
 30
0.0
 10
842.1415096174705
 20
478.208058807005
 30
0.0
 10
844.3742218913767
 20
478.0731053172299
 30
0.0
 10
847.5987958143525
 20
477.0448577941235
 30
0.0
 10
850.5463468585463
 20
475.4737918617137
 30
0.0
 10
853.1422312952079
 20
473.3360142877855
 30
0.0
 10
855.2800224279987
 20
470.7401209207747
 30
0.0
 10
856.8510887108222
 20
467.792579218932
 30
0.0
 10
857.8793433994681
 20
464.5679908369743
 30
0.0
 10
858.0142978050354
 20
462.3352784905287
 30
0.0
 10
858.0832475674415
 20
461.1945599999999
 30
0.0
  0
SPLINE
  5
DA
330
1F
100
AcDbEntity
  8
0
  6
Continuous
 62
     7
370
    25
100
AcDbSpline
210
0.0
220
0.0
230
1.0
 70
     8
 71
     3
 72
    15
 73
    11
 74
     0
 42
0.00000001
 43
0.00000001
 40
0.0
 40
0.0
 40
0.0
 40
0.0
 40
0.1277272255748724
 40
0.2500006214609045
 40
0.3758169311157526
 40
0.5000000007328543
 40
0.6241812950806337
 40
0.7499993797184921
 40
0.8722718134307288
 40
1.0
 40
1.0
 40
1.0
 40
1.0
 10
858.5547459914043
 20
126.1945599999998
 30
0.0
 10
858.4838941384197
 20
125.0223651419072
 30
0.0
 10
858.3452157384305
 20
122.7280270187897
 30
0.0
 10
857.2885871031395
 20
119.4144503281387
 30
0.0
 10
855.6741576419238
 20
116.3855430635304
 30
0.0
 10
853.4773743476795
 20
113.7180086110329
 30
0.0
 10
850.8098309777374
 20
111.5212117777169
 30
0.0
 10
847.7809330434734
 20
109.9067819675934
 30
0.0
 10
844.467341915249
 20
108.8501461768774
 30
0.0
 10
842.1730037198923
 20
108.7114668622754
 30
0.0
 10
841.0007999999995
 20
108.640614008595
 30
0.0
  0
SPLINE
  5
DB
330
1F
100
AcDbEntity
  8
0
  6
Continuous
 62
     7
370
    25
100
AcDbSpline
210
0.0
220
0.0
230
1.0
 70
     8
 71
     3
 72
    15
 73
    11
 74
     0
 42
0.00000001
 43
0.00000001
 40
0.0
 40
0.0
 40
0.0
 40
0.0
 40
0.1277272124220035
 40
0.2500006214662509
 40
0.3758169059605629
 40
0.5000000007414173
 40
0.624181268644376
 40
0.7499993797240049
 40
0.8722717988525043
 40
1.0
 40
1.0
 40
1.0
 40
1.0
 10
533.9183524325575
 20
461.1945599999997
 30
0.0
 10
533.987301193719
 20
462.3352696239234
 30
0.0
 10
534.1222546841528
 20
464.5679818978844
 30
0.0
 10
535.1505022106646
 20
467.7925558255501
 30
0.0
 10
536.7215681415964
 20
470.7401068635453
 30
0.0
 10
538.8593457132744
 20
473.3359912946931
 30
0.0
 10
541.4552390745604
 20
475.4737824249105
 30
0.0
 10
544.4027807706186
 20
477.0448487063533
 30
0.0
 10
547.6273691569522
 20
478.0731033981773
 30
0.0
 10
549.8600815034491
 20
478.2080578043591
 30
0.0
 10
551.0007999999992
 20
478.2770075674418
 30
0.0
  0
LINE
  5
DC
330
1F
100
AcDbEntity
  8
0
  6
Continuous
 62
     7
370
    25
100
AcDbLine
 10
526.0752974521
 20
461.19456
 30
0.0
 11
533.9183524326
 21
461.19456
 31
0.0
  0
SPLINE
  5
DD
330
1F
100
AcDbEntity
  8
0
  6
Continuous
 62
     7
370
    25
100
AcDbSpline
210
0.0
220
0.0
230
1.0
 70
     8
 71
     3
 72
    15
 73
    11
 74
     0
 42
0.00000001
 43
0.00000001
 40
0.0
 40
0.0
 40
0.0
 40
0.0
 40
0.1277272255720584
 40
0.250000621460908
 40
0.3758169317197221
 40
0.5000000007328164
 40
0.6241812956716678
 40
0.7499993797185063
 40
0.8722718134135469
 40
1.0
 40
1.0
 40
1.0
 40
1.0
 10
551.0007999999995
 20
108.6406140085949
 30
0.0
 10
549.8286051419312
 20
108.7114658615799
 30
0.0
 10
547.5342670188114
 20
108.8501442615728
 30
0.0
 10
544.220690322851
 20
109.9067728985086
 30
0.0
 10
541.191783058764
 20
111.521202361299
 30
0.0
 10
538.524248603307
 20
113.7179856600623
 30
0.0
 10
536.3274517745608
 20
116.3855290269252
 30
0.0
 10
534.7130219660426
 20
119.4144269615829
 30
0.0
 10
533.6563861769013
 20
122.7280180845946
 30
0.0
 10
533.5177068622894
 20
125.0223562799498
 30
0.0
 10
533.4468540085946
 20
126.1945599999998
 30
0.0
  0
LINE
  5
DE
330
1F
100
AcDbEntity
  8
0
  6
Continuous
 62
     7
370
    25
100
AcDbLine
 10
526.0752974521
 20
126.19456
 30
0.0
 11
533.4468540086
 21
126.19456
 31
0.0
  0
LINE
  5
DF
330
1F
100
AcDbEntity
  8
0
  6
Continuous
 62
     7
370
    25
100
AcDbLine
 10
533.9272964272
 20
461.192662
 30
0.0
 11
533.9183524326
 21
461.19456
 31
0.0
  0
SPLINE
  5
E0
330
1F
100
AcDbEntity
  8
0
  6
Continuous
 62
     7
370
    25
100
AcDbSpline
210
0.0
220
0.0
230
1.0
 70
     8
 71
     3
 72
    14
 73
    10
 74
     0
 42
0.00000001
 43
0.00000001
 40
0.0
 40
0.0
 40
0.0
 40
0.0
 40
0.1421653558241425
 40
0.2843364374989546
 40
0.426500124123032
 40
0.5689494416617653
 40
0.7114078093302308
 40
0.8538541196898948
 40
1.0
 40
1.0
 40
1.0
 40
1.0
 10
533.4468540085946
 20
126.1945599999998
 30
0.0
 10
533.5092281723056
 20
142.0390389324322
 30
0.0
 10
533.6339790119089
 20
173.7286349493965
 30
0.0
 10
533.7798949876982
 20
221.3166750191481
 30
0.0
 10
533.893644577498
 20
268.9676486937108
 30
0.0
 10
533.9692351388181
 20
316.679489024015
 30
0.0
 10
534.0024552937148
 20
364.4400359918233
 30
0.0
 10
533.9938540017064
 20
412.6197708284983
 30
0.0
 10
533.9496710844082
 20
444.8639150755548
 30
0.0
 10
533.9272964271861
 20
461.1926620000493
 30
0.0
  0
LINE
  5
E1
330
1F
100
AcDbEntity
  8
0
  6
Continuous
 62
     7
370
    25
100
AcDbLine
 10
719.2508
 20
483.2676453458
 30
0.0
 11
719.2508
 21
484.0665489736
 31
0.0
  0
ARC
  5
E2
330
1F
100
AcDbEntity
  8
0
  6
Continuous
 62
     7
370
    25
100
AcDbCircle
 10
719.5001152369
 20
488.8826315931
 30
0.0
 40
4.822531481002616
100
AcDbArc
 50
267.0366016998
 51
278.9551904986
  0
LINE
  5
E3
330
1F
100
AcDbEntity
  8
0
  6
Continuous
 62
     7
370
    25
100
AcDbLine
 10
672.7508
 20
483.2676453458
 30
0.0
 11
672.7508
 21
484.0665489736
 31
0.0
  0
ARC
  5
E4
330
1F
100
AcDbEntity
  8
0
  6
Continuous
 62
     7
370
    25
100
AcDbCircle
 10
672.5014847631
 20
488.8826315931
 30
0.0
 40
4.822531481010025
100
AcDbArc
 50
261.0448095014
 51
272.9633983002
  0
LINE
  5
E5
330
1F
100
AcDbEntity
  8
0
  6
Continuous
 62
     7
370
    25
100
AcDbLine
 10
672.7508
 20
484.0665489736
 30
0.0
 11
719.2508
 21
484.0665489736
 31
0.0
  0
LINE
  5
E6
330
1F
100
AcDbEntity
  8
0
  6
Continuous
 62
     7
370
    25
100
AcDbLine
 10
533.4468540086
 20
126.19456
 30
0.0
 11
533.5036730607
 21
126.149055513
 31
0.0
  0
SPLINE
  5
E7
330
1F
100
AcDbEntity
  8
0
  6
Continuous
 62
     7
370
    25
100
AcDbSpline
210
0.0
220
0.0
230
1.0
 70
     8
 71
     3
 72
    20
 73
    16
 74
     0
 42
0.00000001
 43
0.00000001
 40
0.0
 40
0.0
 40
0.0
 40
0.0
 40
0.1238994817808225
 40
0.2498468348127859
 40
0.3327161568940997
 40
0.4158493426865211
 40
0.5003138827337018
 40
0.561064333098869
 40
0.6244975982562697
 40
0.6852560657042482
 40
0.7501883124678861
 40
0.8087829264722679
 40
0.8744877433555922
 40
0.9261458689734474
 40
1.0
 40
1.0
 40
1.0
 40
1.0
 10
533.9272964271861
 20
461.1926620000492
 30
0.0
 10
534.0932810486298
 20
461.1865134607427
 30
0.0
 10
534.4279937665464
 20
461.1741147560638
 30
0.0
 10
535.8506024580054
 20
460.8292527802991
 30
0.0
 10
537.5555660420589
 20
460.363700583355
 30
0.0
 10
539.344181611714
 20
459.8468964992813
 30
0.0
 10
541.2332214144651
 20
459.2796201423242
 30
0.0
 10
543.1376268388871
 20
458.6930359303093
 30
0.0
 10
544.9461114159835
 20
458.1265765885917
 30
0.0
 10
546.9015378668212
 20
457.5047073547222
 30
0.0
 10
548.896636735714
 20
456.8632252242458
 30
0.0
 10
551.0179545778025
 20
456.1738925276908
 30
0.0
 10
553.0460567120217
 20
455.5109451434297
 30
0.0
 10
555.2881669424371
 20
454.772731377673
 30
0.0
 10
556.7822811860735
 20
454.2796893255824
 30
0.0
 10
557.6614503769422
 20
453.9895727003998
 30
0.0
  0
SPLINE
  5
E8
330
1F
100
AcDbEntity
  8
0
  6
Continuous
 62
     7
370
    25
100
AcDbSpline
210
0.0
220
0.0
230
1.0
 70
     8
 71
     3
 72
    14
 73
    10
 74
     0
 42
0.00000001
 43
0.00000001
 40
0.0
 40
0.0
 40
0.0
 40
0.0
 40
0.1285392505246245
 40
0.2736230611079026
 40
0.418718319014612
 40
0.5638047450221954
 40
0.7092001461728284
 40
0.8546029035485716
 40
1.0
 40
1.0
 40
1.0
 40
1.0
 10
557.6614503769423
 20
453.9895727003999
 30
0.0
 10
557.6627836489371
 20
440.1740752897488
 30
0.0
 10
557.665621801198
 20
410.7648584411844
 30
0.0
 10
557.666826241672
 20
365.745480580121
 30
0.0
 10
557.6700705215487
 20
318.9520453658166
 30
0.0
 10
557.6551365792899
 20
272.1406881230848
 30
0.0
 10
557.6012280642913
 20
225.3230225363491
 30
0.0
 10
557.5071355058758
 20
178.5013178936906
 30
0.0
 10
557.4102647997819
 20
147.3204963137413
 30
0.0
 10
557.361830389613
 20
131.7303890181957
 30
0.0
  0
SPLINE
  5
E9
330
1F
100
AcDbEntity
  8
0
  6
Continuous
 62
     7
370
    25
100
AcDbSpline
210
0.0
220
0.0
230
1.0
 70
     8
 71
     3
 72
    17
 73
    13
 74
     0
 42
0.00000001
 43
0.00000001
 40
0.0
 40
0.0
 40
0.0
 40
0.0
 40
0.1266199350159329
 40
0.2500906723957796
 40
0.3749952093690982
 40
0.5003472215493814
 40
0.6244895802648527
 40
0.7500856353975306
 40
0.8087095798011513
 40
0.8744284842896031
 40
0.9260769690972782
 40
1.0
 40
1.0
 40
1.0
 40
1.0
 10
533.5036730606804
 20
126.1490555129762
 30
0.0
 10
533.720976208775
 20
126.089824295061
 30
0.0
 10
534.1501779013353
 20
125.9728350143973
 30
0.0
 10
535.841685453376
 20
126.1431533884647
 30
0.0
 10
538.202272598052
 20
126.5564403804457
 30
0.0
 10
541.2269557187725
 20
127.223817108136
 30
0.0
 10
544.7779349615251
 20
128.1106751845921
 30
0.0
 10
548.0328929885042
 20
128.9934212654673
 30
0.0
 10
550.8031777443689
 20
129.7793920270692
 30
0.0
 10
552.8068908959693
 20
130.3617377255872
 30
0.0
 10
555.0205133718465
 20
131.0191464696757
 30
0.0
 10
556.4942515349737
 20
131.4668369272478
 30
0.0
 10
557.361830389613
 20
131.7303890182038
 30
0.0
  0
SPLINE
  5
EA
330
1F
100
AcDbEntity
  8
0
  6
Continuous
 62
     7
370
    25
100
AcDbSpline
210
0.0
220
0.0
230
1.0
 70
     8
 71
     3
 72
    20
 73
    16
 74
     0
 42
0.00000001
 43
0.00000001
 40
0.0
 40
0.0
 40
0.0
 40
0.0
 40
0.1265688428652104
 40
0.2499873607253533
 40
0.3327598806448895
 40
0.41588003650202
 40
0.5003308538271419
 40
0.5611043053137729
 40
0.6245378460982876
 40
0.6852967388849938
 40
0.7501963666869378
 40
0.8087939128917631
 40
0.8744838204705038
 40
0.9261733936587778
 40
0.9999999999999999
 40
0.9999999999999999
 40
0.9999999999999999
 40
0.9999999999999999
 10
551.0049762692461
 20
108.6535015518495
 30
0.0
 10
550.9966426355567
 20
108.8193900372262
 30
0.0
 10
550.9801827940659
 20
109.147038008838
 30
0.0
 10
551.2591986160127
 20
110.5240018300848
 30
0.0
 10
551.6476168156372
 20
112.1523863182253
 30
0.0
 10
552.0925713014827
 20
113.8774385320028
 30
0.0
 10
552.5883359086951
 20
115.7035345354923
 30
0.0
 10
553.1061479765118
 20
117.5482568953926
 30
0.0
 10
553.6097634081123
 20
119.3033298131602
 30
0.0
 10
554.1659380434182
 20
121.2040603119354
 30
0.0
 10
554.7429364097749
 20
123.1471896567999
 30
0.0
 10
555.3661705568136
 20
125.2172690976433
 30
0.0
 10
555.9688059140052
 20
127.2012196703208
 30
0.0
 10
556.6425800178388
 20
129.3982873456366
 30
0.0
 10
557.0954559942429
 20
130.8666950983195
 30
0.0
 10
557.3618303896133
 20
131.7303890181956
 30
0.0
  0
SPLINE
  5
EB
330
1F
100
AcDbEntity
  8
0
  6
Continuous
 62
     7
370
    25
100
AcDbSpline
210
0.0
220
0.0
230
1.0
 70
     8
 71
     3
 72
    13
 73
     9
 74
     0
 42
0.00000001
 43
0.00000001
 40
0.0
 40
0.0
 40
0.0
 40
0.0
 40
0.1532153516038963
 40
0.3335117285126596
 40
0.5138077669700614
 40
0.6942879125043366
 40
0.8747684420969071
 40
1.0
 40
1.0
 40
1.0
 40
1.0
 10
557.361830389613
 20
131.7303890181957
 30
0.0
 10
571.5163055234055
 20
131.7506773804944
 30
0.0
 10
602.3270788476407
 20
131.7948401011886
 30
0.0
 10
649.8223676930963
 20
131.8274226319441
 30
0.0
 10
699.8478420134917
 20
131.8376117747111
 30
0.0
 10
749.8893711732231
 20
131.8237194433534
 30
0.0
 10
794.8291736055115
 20
131.7886935022024
 30
0.0
 10
823.0708718856547
 20
131.747332211216
 30
0.0
 10
834.6397696103858
 20
131.7303890181957
 30
0.0
  0
SPLINE
  5
EC
330
1F
100
AcDbEntity
  8
0
  6
Continuous
 62
     7
370
    25
100
AcDbSpline
210
0.0
220
0.0
230
1.0
 70
     8
 71
     3
 72
    17
 73
    13
 74
     0
 42
0.00000001
 43
0.00000001
 40
0.0
 40
0.0
 40
0.0
 40
0.0
 40
0.1266242002821667
 40
0.2500966973960827
 40
0.3750011391746849
 40
0.500351889270604
 40
0.6244925771319295
 40
0.750087105867941
 40
0.8087091135101027
 40
0.8744289188915417
 40
0.9261485744346061
 40
1.0
 40
1.0
 40
1.0
 40
1.0
 10
840.9966237243659
 20
108.6535015518648
 30
0.0
 10
841.0048889315732
 20
108.819622810755
 30
0.0
 10
841.0212136232296
 20
109.1477305352117
 30
0.0
 10
840.7079143076703
 20
110.6954153766805
 30
0.0
 10
840.1641350010782
 20
112.9246351428587
 30
0.0
 10
839.3824807652755
 20
115.834175025193
 30
0.0
 10
838.4007877773364
 20
119.2895243539732
 30
0.0
 10
837.4582257185093
 20
122.4840745567922
 30
0.0
 10
836.635476231424
 20
125.2171695159771
 30
0.0
 10
836.0327630700478
 20
127.2013085602959
 30
0.0
 10
835.3589978540267
 20
129.3983687651946
 30
0.0
 10
834.9061188403984
 20
130.8667802761134
 30
0.0
 10
834.6397696103858
 20
131.7303890181957
 30
0.0
  0
SPLINE
  5
ED
330
1F
100
AcDbEntity
  8
0
  6
Continuous
 62
     7
370
    25
100
AcDbSpline
210
0.0
220
0.0
230
1.0
 70
     8
 71
     3
 72
    19
 73
    15
 74
     0
 42
0.00000001
 43
0.00000001
 40
0.0
 40
0.0
 40
0.0
 40
0.0
 40
0.0609285033155397
 40
0.1075851967377189
 40
0.152697377683947
 40
0.2035645507327382
 40
0.2498915470303132
 40
0.3355022901934809
 40
0.4181341588157989
 40
0.4997559269722093
 40
0.625082097386371
 40
0.7499608846711032
 40
0.8734061679748574
 40
1.0
 40
1.0
 40
1.0
 40
1.0
 10
834.6397696103859
 20
131.7303890181956
 30
0.0
 10
835.3550165454968
 20
131.5128781188487
 30
0.0
 10
836.6179719447367
 20
131.128805777901
 30
0.0
 10
838.3916558835297
 20
130.599700040348
 30
0.0
 10
840.0294403662599
 20
130.1183316435077
 30
0.0
 10
841.6368440760273
 20
129.6546969632333
 30
0.0
 10
843.6569013078326
 20
129.0831248527787
 30
0.0
 10
845.9454164714261
 20
128.4561992527983
 30
0.0
 10
848.4463674048668
 20
127.8036554464201
 30
0.0
 10
851.1172231512296
 20
127.1482704012112
 30
0.0
 10
853.7995776162702
 20
126.5563724112795
 30
0.0
 10
856.1598488366052
 20
126.1431713232244
 30
0.0
 10
857.8514389347897
 20
125.97283047568
 30
0.0
 10
858.2806294499904
 20
126.0898227736922
 30
0.0
 10
858.4979269392919
 20
126.1490555193498
 30
0.0
  0
SPLINE
  5
EE
330
1F
100
AcDbEntity
  8
0
  6
Continuous
 62
     7
370
    25
100
AcDbSpline
210
0.0
220
0.0
230
1.0
 70
     8
 71
     3
 72
    15
 73
    11
 74
     0
 42
0.00000001
 43
0.00000001
 40
0.0
 40
0.0
 40
0.0
 40
0.0
 40
0.1297941873541713
 40
0.2595881683953805
 40
0.389456831038737
 40
0.5193249251085722
 40
0.6394460709200768
 40
0.759566743032607
 40
0.8797831318606987
 40
1.0
 40
1.0
 40
1.0
 40
1.0
 10
834.6397696103858
 20
131.7303890181956
 30
0.0
 10
834.5960401433584
 20
145.6471519726063
 30
0.0
 10
834.5085812788135
 20
173.4806557601862
 30
0.0
 10
834.4178387217319
 20
215.2799407003161
 30
0.0
 10
834.3604087590348
 20
257.1114154539518
 30
0.0
 10
834.3365870040102
 20
297.9266361819946
 30
0.0
 10
834.3353639581833
 20
337.7094134440323
 30
0.0
 10
834.3395782721541
 20
376.4624888245758
 30
0.0
 10
834.3344508487297
 20
415.22680653281
 30
0.0
 10
834.3382500290896
 20
441.0686334723736
 30
0.0
 10
834.3401496230566
 20
453.9895727003998
 30
0.0
  0
SPLINE
  5
EF
330
1F
100
AcDbEntity
  8
0
  6
Continuous
 62
     7
370
    25
100
AcDbSpline
210
0.0
220
0.0
230
1.0
 70
     8
 71
     3
 72
    19
 73
    15
 74
     0
 42
0.00000001
 43
0.00000001
 40
0.0
 40
0.0
 40
0.0
 40
0.0
 40
0.0608916764531301
 40
0.1075592781701917
 40
0.1527038169053528
 40
0.2035793155923091
 40
0.2499014344020643
 40
0.3355488354048986
 40
0.4181785294456954
 40
0.4997722410757723
 40
0.6250900273305234
 40
0.7500927226125484
 40
0.8760709826323867
 40
1.0
 40
1.0
 40
1.0
 40
1.0
 10
834.3401496230566
 20
453.9895727003998
 30
0.0
 10
835.064890603097
 20
454.2287806046673
 30
0.0
 10
836.3450756992244
 20
454.6513183144878
 30
0.0
 10
838.1419265408107
 20
455.2431902505191
 30
0.0
 10
839.8006119576091
 20
455.787401657051
 30
0.0
 10
841.4270497370059
 20
456.318112343056
 30
0.0
 10
843.4690013963511
 20
456.9809640439916
 30
0.0
 10
845.7786464614733
 20
457.7224731855027
 30
0.0
 10
848.2955785231121
 20
458.5171347435073
 30
0.0
 10
850.9730953632438
 20
459.3443173575879
 30
0.0
 10
853.6447846989201
 20
460.1402472570242
 30
0.0
 10
855.9738068981954
 20
460.7864523673372
 30
0.0
 10
857.5729116064696
 20
461.1739067758053
 30
0.0
 10
857.9080890704411
 20
461.1864445347861
 30
0.0
 10
858.0743035728277
 20
461.19266200939
 30
0.0
  0
LINE
  5
F0
330
1F
100
AcDbEntity
  8
0
  6
Continuous
 62
     7
370
    25
100
AcDbLine
 10
858.4979269393
 20
126.1490555193
 30
0.0
 11
858.5547459914
 21
126.19456
 31
0.0
  0
SPLINE
  5
F1
330
1F
100
AcDbEntity
  8
0
  6
Continuous
 62
     7
370
    25
100
AcDbSpline
210
0.0
220
0.0
230
1.0
 70
     8
 71
     3
 72
    15
 73
    11
 74
     0
 42
0.00000001
 43
0.00000001
 40
0.0
 40
0.0
 40
0.0
 40
0.0
 40
0.1250485637390562
 40
0.2500560404331599
 40
0.3750352282041668
 40
0.5000000004149723
 40
0.6249647726227975
 40
0.7499439603618208
 40
0.8749514375442667
 40
1.0
 40
1.0
 40
1.0
 40
1.0
 10
551.0049762692457
 20
108.6535015518497
 30
0.0
 10
549.8640601704841
 20
108.7231786703776
 30
0.0
 10
547.5826028422886
 20
108.8625100137128
 30
0.0
 10
544.2908846836425
 20
109.9099049210003
 30
0.0
 10
541.2551032063931
 20
111.529650748646
 30
0.0
 10
538.5919917565693
 20
113.7210580654242
 30
0.0
 10
536.3986395600522
 20
116.3845190337012
 30
0.0
 10
534.7746805493804
 20
119.4229829583238
 30
0.0
 10
533.7211061533983
 20
122.7194531621035
 30
0.0
 10
533.576158696748
 20
125.0057295143682
 30
0.0
 10
533.5036730606804
 20
126.1490555129762
 30
0.0
  0
SPLINE
  5
F2
330
1F
100
AcDbEntity
  8
0
  6
Continuous
 62
     7
370
    25
100
AcDbSpline
210
0.0
220
0.0
230
1.0
 70
     8
 71
     3
 72
    15
 73
    11
 74
     0
 42
0.00000001
 43
0.00000001
 40
0.0
 40
0.0
 40
0.0
 40
0.0
 40
0.1250485647648295
 40
0.2500560396443428
 40
0.3750352273637341
 40
0.4999999995579361
 40
0.6249647717823646
 40
0.7499439595730054
 40
0.8749514385700574
 40
1.0
 40
1.0
 40
1.0
 40
1.0
 10
840.9966237243685
 20
108.6535015518649
 30
0.0
 10
842.137539832957
 20
108.7231786714372
 30
0.0
 10
844.4189971548913
 20
108.8625100152781
 30
0.0
 10
847.7107153064301
 20
109.9099049207828
 30
0.0
 10
850.746496771663
 20
111.5296507369692
 30
0.0
 10
853.4096082249598
 20
113.721058050693
 30
0.0
 10
855.6029604261107
 20
116.3845190174159
 30
0.0
 10
857.2269194494269
 20
119.4229829562609
 30
0.0
 10
858.2804938479725
 20
122.7194531695544
 30
0.0
 10
858.4254413042393
 20
125.0057295297577
 30
0.0
 10
858.4979269392919
 20
126.1490555193498
 30
0.0
  0
LINE
  5
F3
330
1F
100
AcDbEntity
  8
0
  6
Continuous
 62
     7
370
    25
100
AcDbLine
 10
550.9816041638
 20
478.2429231587
 30
0.0
 11
551.0008
 21
478.2770075674
 31
0.0
  0
LINE
  5
F4
330
1F
100
AcDbEntity
  8
0
  6
Continuous
 62
     7
370
    25
100
AcDbLine
 10
841.0199958455
 20
478.2429231587
 30
0.0
 11
841.0008
 21
478.2770075674
 31
0.0
  0
SPLINE
  5
F5
330
1F
100
AcDbEntity
  8
0
  6
Continuous
 62
     7
370
    25
100
AcDbSpline
210
0.0
220
0.0
230
1.0
 70
     8
 71
     3
 72
    19
 73
    15
 74
     0
 42
0.00000001
 43
0.00000001
 40
0.0
 40
0.0
 40
0.0
 40
0.0
 40
0.0571951907011245
 40
0.1012386229203415
 40
0.1527044771278956
 40
0.2035799468192274
 40
0.2499049111694474
 40
0.3355521358503272
 40
0.4181835141861059
 40
0.499780944082901
 40
0.6251008314803012
 40
0.7501036376053285
 40
0.8760744652838672
 40
1.0
 40
1.0
 40
1.0
 40
1.0
 10
834.3401496230566
 20
453.9895727003998
 30
0.0
 10
834.5633898012852
 20
454.6716458734343
 30
0.0
 10
834.9585371545381
 20
455.878952780229
 30
0.0
 10
835.5430935410001
 20
457.6850298000857
 30
0.0
 10
836.0921920505324
 20
459.3981380404128
 30
0.0
 10
836.6337206368213
 20
461.1090144524408
 30
0.0
 10
837.2777730365598
 20
463.1691619315679
 30
0.0
 10
837.9924117271942
 20
465.5050507714489
 30
0.0
 10
838.749007792793
 20
468.0594674938524
 30
0.0
 10
839.5249195146379
 20
470.7877737415474
 30
0.0
 10
840.2524394905186
 20
473.5275764106569
 30
0.0
 10
840.8102365757196
 20
475.9449887565918
 30
0.0
 10
841.1016981627969
 20
477.6404490010266
 30
0.0
 10
841.0470809452161
 20
478.043197212412
 30
0.0
 10
841.019995845503
 20
478.2429231586947
 30
0.0
  0
SPLINE
  5
F6
330
1F
100
AcDbEntity
  8
0
  6
Continuous
 62
     7
370
    25
100
AcDbSpline
210
0.0
220
0.0
230
1.0
 70
     8
 71
     3
 72
    14
 73
    10
 74
     0
 42
0.00000001
 43
0.00000001
 40
0.0
 40
0.0
 40
0.0
 40
0.0
 40
0.2145322134219052
 40
0.3218404806755493
 40
0.4291479606400775
 40
0.5717931378587128
 40
0.7144401314222915
 40
0.8572195843739371
 40
1.0
 40
1.0
 40
1.0
 40
1.0
 10
834.3401496230566
 20
453.9895727003998
 30
0.0
 10
814.5651474259357
 20
453.969269211198
 30
0.0
 10
784.8987578848695
 20
453.9388099872897
 30
0.0
 10
745.3144255031498
 20
453.9734375687651
 30
0.0
 10
712.3537367425384
 20
454.0152318488952
 30
0.0
 10
676.1263377199067
 20
454.0079105597753
 30
0.0
 10
636.6334483744067
 20
453.9591441509077
 30
0.0
 10
597.1414402913338
 20
453.9451428716118
 30
0.0
 10
570.8214765915394
 20
453.974762724186
 30
0.0
 10
557.6614503769422
 20
453.9895727003998
 30
0.0
  0
SPLINE
  5
F7
330
1F
100
AcDbEntity
  8
0
  6
Continuous
 62
     7
370
    25
100
AcDbSpline
210
0.0
220
0.0
230
1.0
 70
     8
 71
     3
 72
    19
 73
    15
 74
     0
 42
0.00000001
 43
0.00000001
 40
0.0
 40
0.0
 40
0.0
 40
0.0
 40
0.057217091938431
 40
0.1012397191517091
 40
0.1527050890721181
 40
0.2035808683506702
 40
0.2499049067935496
 40
0.3355531512428717
 40
0.4181845737194118
 40
0.4997809419083359
 40
0.6251008305048592
 40
0.750103637391396
 40
0.8760750143916392
 40
0.9999999999999999
 40
0.9999999999999999
 40
0.9999999999999999
 40
0.9999999999999999
 10
557.6614503769422
 20
453.9895727003998
 30
0.0
 10
557.4381254409084
 20
454.671907290966
 30
0.0
 10
557.0429750926879
 20
455.8792276907994
 30
0.0
 10
556.4584173445892
 20
457.6853062210248
 30
0.0
 10
555.9093985747498
 20
459.3981689027726
 30
0.0
 10
555.3678736620004
 20
461.1090319328249
 30
0.0
 10
554.7238206229272
 20
463.1691835704633
 30
0.0
 10
554.0091810401534
 20
465.5050731173623
 30
0.0
 10
553.2525870600444
 20
468.0594878015931
 30
0.0
 10
552.4766781076371
 20
470.7877824684019
 30
0.0
 10
551.7491609056758
 20
473.5275764495043
 30
0.0
 10
551.191362145443
 20
475.9449922818146
 30
0.0
 10
550.8999038990785
 20
477.6404509435786
 30
0.0
 10
550.9545198247976
 20
478.0431984480801
 30
0.0
 10
550.9816041638334
 20
478.2429231586687
 30
0.0
  0
SPLINE
  5
F8
330
1F
100
AcDbEntity
  8
0
  6
Continuous
 62
     7
370
    25
100
AcDbSpline
210
0.0
220
0.0
230
1.0
 70
     8
 71
     3
 72
    15
 73
    11
 74
     0
 42
0.00000001
 43
0.00000001
 40
0.0
 40
0.0
 40
0.0
 40
0.0
 40
0.1250258700962933
 40
0.2500298668122469
 40
0.375018780635732
 40
0.4999999995599284
 40
0.6249812185054352
 40
0.7499701323940431
 40
0.8749741324286339
 40
1.0
 40
1.0
 40
1.0
 40
1.0
 10
858.0743035728277
 20
461.192662009395
 30
0.0
 10
858.0069916742482
 20
462.3054250785331
 30
0.0
 10
857.8723796533621
 20
464.5307565379811
 30
0.0
 10
856.8523363710033
 20
467.7413984902199
 30
0.0
 10
855.2735320993063
 20
470.7020721913799
 30
0.0
 10
853.1366820946906
 20
473.2983915987109
 30
0.0
 10
850.5392278630461
 20
475.4352530971643
 30
0.0
 10
847.5762929549647
 20
477.0152409235807
 30
0.0
 10
844.3624187697183
 20
478.0375118205799
 30
0.0
 10
842.1342017799701
 20
478.174448720503
 30
0.0
 10
841.019995845503
 20
478.2429231586947
 30
0.0
  0
SPLINE
  5
F9
330
1F
100
AcDbEntity
  8
0
  6
Continuous
 62
     7
370
    25
100
AcDbSpline
210
0.0
220
0.0
230
1.0
 70
     8
 71
     3
 72
    15
 73
    11
 74
     0
 42
0.00000001
 43
0.00000001
 40
0.0
 40
0.0
 40
0.0
 40
0.0
 40
0.1250258690640295
 40
0.2500298676061387
 40
0.3750187814816461
 40
0.5000000004225783
 40
0.6249812193513493
 40
0.7499701331879438
 40
0.8749741313963799
 40
1.0
 40
1.0
 40
1.0
 40
1.0
 10
533.9272964271861
 20
461.1926620000493
 30
0.0
 10
533.994608324807
 20
462.3054250605555
 30
0.0
 10
534.1292203453154
 20
464.5307565281808
 30
0.0
 10
535.1492636303532
 20
467.7413984903288
 30
0.0
 10
536.7280679147368
 20
470.7020722059772
 30
0.0
 10
538.8649179243039
 20
473.2983916122595
 30
0.0
 10
541.4623721598437
 20
475.4352531081059
 30
0.0
 10
544.4253070566702
 20
477.0152409235641
 30
0.0
 10
547.6391812355108
 20
478.0375118189945
 30
0.0
 10
549.867398219506
 20
478.1744487194354
 30
0.0
 10
550.9816041638333
 20
478.2429231586687
 30
0.0
  0
CIRCLE
  5
FA
330
1F
100
AcDbEntity
  8
0
  6
Continuous
 62
     7
370
    25
100
AcDbCircle
 10
696.0008
 20
376.19456
 30
0.0
 40
70.00000000000006
  0
CIRCLE
  5
FB
330
1F
100
AcDbEntity
  8
0
  6
Continuous
 62
     7
370
    25
100
AcDbCircle
 10
696.0008
 20
376.19456
 30
0.0
 40
58.94765075494621
  0
CIRCLE
  5
FC
330
1F
100
AcDbEntity
  8
0
  6
Continuous
 62
     7
370
    25
100
AcDbCircle
 10
696.0008
 20
376.19456
 30
0.0
 40
57.5
  0
CIRCLE
  5
FD
330
1F
100
AcDbEntity
  8
0
  6
Continuous
 62
     7
370
    25
100
AcDbCircle
 10
696.0008
 20
376.19456
 30
0.0
 40
56.58715574274765
  0
CIRCLE
  5
FE
330
1F
100
AcDbEntity
  8
0
  6
Continuous
 62
     7
370
    25
100
AcDbCircle
 10
696.0008
 20
376.19456
 30
0.0
 40
45.00000000000006
  0
ARC
  5
FF
330
1F
100
AcDbEntity
  8
0
  6
Continuous
 62
     7
370
    25
100
AcDbCircle
 10
128.0008
 20
576.19456
 30
0.0
 40
10.00000000000001
100
AcDbArc
 50
90.0
 51
180.0
  0
LINE
  5
100
330
1F
100
AcDbEntity
  8
0
  6
Continuous
 62
     7
370
    25
100
AcDbLine
 10
892.0008
 20
586.19456
 30
0.0
 11
128.0008
 21
586.19456
 31
0.0
  0
ARC
  5
101
330
1F
100
AcDbEntity
  8
0
  6
Continuous
 62
     7
370
    25
100
AcDbCircle
 10
892.0008
 20
576.19456
 30
0.0
 40
10.0
100
AcDbArc
 50
0.0
 51
90.0
  0
LINE
  5
102
330
1F
100
AcDbEntity
  8
0
  6
Continuous
 62
     7
370
    25
100
AcDbLine
 10
902.0008
 20
76.19456
 30
0.0
 11
902.0008
 21
576.19456
 31
0.0
  0
ARC
  5
103
330
1F
100
AcDbEntity
  8
0
  6
Continuous
 62
     7
370
    25
100
AcDbCircle
 10
892.0008
 20
76.19456
 30
0.0
 40
10.0
100
AcDbArc
 50
270.0
 51
0.0
  0
LINE
  5
104
330
1F
100
AcDbEntity
  8
0
  6
Continuous
 62
     7
370
    25
100
AcDbLine
 10
128.0008
 20
66.19456
 30
0.0
 11
892.0008
 21
66.19456
 31
0.0
  0
ARC
  5
105
330
1F
100
AcDbEntity
  8
0
  6
Continuous
 62
     7
370
    25
100
AcDbCircle
 10
128.0008
 20
76.19456
 30
0.0
 40
10.00000000000001
100
AcDbArc
 50
180.0
 51
270.0
  0
LINE
  5
106
330
1F
100
AcDbEntity
  8
0
  6
Continuous
 62
     7
370
    25
100
AcDbLine
 10
118.0008
 20
576.19456
 30
0.0
 11
118.0008
 21
76.19456
 31
0.0
  0
LINE
  5
107
330
1F
100
AcDbEntity
  8
0
  6
Continuous
 62
     7
370
    25
100
AcDbLine
 10
884.0008
 20
326.19456
 30
0.0
 11
884.0008
 21
546.19456
 31
0.0
  0
ARC
  5
108
330
1F
100
AcDbEntity
  8
0
  6
Continuous
 62
     7
370
    25
100
AcDbCircle
 10
861.0008
 20
546.19456
 30
0.0
 40
23.00000000000011
100
AcDbArc
 50
0.0
 51
90.0
  0
LINE
  5
109
330
1F
100
AcDbEntity
  8
0
  6
Continuous
 62
     7
370
    25
100
AcDbLine
 10
861.0008
 20
569.19456
 30
0.0
 11
159.0008
 21
569.19456
 31
0.0
  0
ARC
  5
10A
330
1F
100
AcDbEntity
  8
0
  6
Continuous
 62
     7
370
    25
100
AcDbCircle
 10
159.0008
 20
546.19456
 30
0.0
 40
23.00000000000003
100
AcDbArc
 50
90.0
 51
180.0
  0
LINE
  5
10B
330
1F
100
AcDbEntity
  8
0
  6
Continuous
 62
     7
370
    25
100
AcDbLine
 10
136.0008
 20
546.19456
 30
0.0
 11
136.0008
 21
107.19456
 31
0.0
  0
ARC
  5
10C
330
1F
100
AcDbEntity
  8
0
  6
Continuous
 62
     7
370
    25
100
AcDbCircle
 10
159.0008
 20
107.19456
 30
0.0
 40
23.00000000000003
100
AcDbArc
 50
180.0
 51
270.0
  0
LINE
  5
10D
330
1F
100
AcDbEntity
  8
0
  6
Continuous
 62
     7
370
    25
100
AcDbLine
 10
159.0008
 20
84.19456
 30
0.0
 11
861.0008
 21
84.19456
 31
0.0
  0
ARC
  5
10E
330
1F
100
AcDbEntity
  8
0
  6
Continuous
 62
     7
370
    25
100
AcDbCircle
 10
861.0008
 20
107.19456
 30
0.0
 40
23.00000000000001
100
AcDbArc
 50
270.0
 51
0.0
  0
LINE
  5
10F
330
1F
100
AcDbEntity
  8
0
  6
Continuous
 62
     7
370
    25
100
AcDbLine
 10
884.0008
 20
107.19456
 30
0.0
 11
884.0008
 21
326.19456
 31
0.0
  0
LINE
  5
110
330
1F
100
AcDbEntity
  8
0
  6
Continuous
 62
     7
370
    25
100
AcDbLine
 10
884.0008
 20
546.19456
 30
0.0
 11
883.2346744107
 21
546.19456
 31
0.0
  0
LINE
  5
111
330
1F
100
AcDbEntity
  8
0
  6
Continuous
 62
     7
370
    25
100
AcDbLine
 10
884.0008
 20
326.19456
 30
0.0
 11
883.2346744107
 21
326.19456
 31
0.0
  0
LINE
  5
112
330
1F
100
AcDbEntity
  8
0
  6
Continuous
 62
     7
370
    25
100
AcDbLine
 10
883.2346744107
 20
326.19456
 30
0.0
 11
883.2346744107
 21
546.19456
 31
0.0
  0
LINE
  5
113
330
1F
100
AcDbEntity
  8
0
  6
Continuous
 62
     7
370
    25
100
AcDbLine
 10
884.0008
 20
107.19456
 30
0.0
 11
883.2346744107
 21
107.19456
 31
0.0
  0
LINE
  5
114
330
1F
100
AcDbEntity
  8
0
  6
Continuous
 62
     7
370
    25
100
AcDbLine
 10
883.2346744107
 20
107.19456
 30
0.0
 11
883.2346744107
 21
326.19456
 31
0.0
  0
LINE
  5
115
330
1F
100
AcDbEntity
  8
0
  6
Continuous
 62
     7
370
    25
100
AcDbLine
 10
861.0008
 20
84.19456
 30
0.0
 11
861.0008
 21
84.9606855893
 31
0.0
  0
LINE
  5
116
330
1F
100
AcDbEntity
  8
0
  6
Continuous
 62
     7
370
    25
100
AcDbLine
 10
159.0008
 20
84.19456
 30
0.0
 11
159.0008
 21
84.9606855893
 31
0.0
  0
LINE
  5
117
330
1F
100
AcDbEntity
  8
0
  6
Continuous
 62
     7
370
    25
100
AcDbLine
 10
159.0008
 20
84.9606855893
 30
0.0
 11
861.0008
 21
84.9606855893
 31
0.0
  0
LINE
  5
118
330
1F
100
AcDbEntity
  8
0
  6
Continuous
 62
     7
370
    25
100
AcDbLine
 10
136.0008
 20
546.19456
 30
0.0
 11
136.7669255893
 21
546.19456
 31
0.0
  0
LINE
  5
119
330
1F
100
AcDbEntity
  8
0
  6
Continuous
 62
     7
370
    25
100
AcDbLine
 10
159.0008
 20
569.19456
 30
0.0
 11
159.0008
 21
568.4284344107
 31
0.0
  0
ARC
  5
11A
330
1F
100
AcDbEntity
  8
0
  6
Continuous
 62
     7
370
    25
100
AcDbCircle
 10
159.0008
 20
546.19456
 30
0.0
 40
22.23387441067962
100
AcDbArc
 50
90.0
 51
180.0
  0
LINE
  5
11B
330
1F
100
AcDbEntity
  8
0
  6
Continuous
 62
     7
370
    25
100
AcDbLine
 10
861.0008
 20
569.19456
 30
0.0
 11
861.0008
 21
568.4284344107
 31
0.0
  0
ARC
  5
11C
330
1F
100
AcDbEntity
  8
0
  6
Continuous
 62
     7
370
    25
100
AcDbCircle
 10
861.0008
 20
546.19456
 30
0.0
 40
22.23387441067962
100
AcDbArc
 50
0.0
 51
90.0
  0
ARC
  5
11D
330
1F
100
AcDbEntity
  8
0
  6
Continuous
 62
     7
370
    25
100
AcDbCircle
 10
861.0008
 20
107.19456
 30
0.0
 40
22.23387441067962
100
AcDbArc
 50
270.0
 51
0.0
  0
LINE
  5
11E
330
1F
100
AcDbEntity
  8
0
  6
Continuous
 62
     7
370
    25
100
AcDbLine
 10
861.0008
 20
568.4284344107
 30
0.0
 11
159.0008
 21
568.4284344107
 31
0.0
  0
LINE
  5
11F
330
1F
100
AcDbEntity
  8
0
  6
Continuous
 62
     7
370
    25
100
AcDbLine
 10
136.0008
 20
107.19456
 30
0.0
 11
136.7669255893
 21
107.19456
 31
0.0
  0
ARC
  5
120
330
1F
100
AcDbEntity
  8
0
  6
Continuous
 62
     7
370
    25
100
AcDbCircle
 10
159.0008
 20
107.19456
 30
0.0
 40
22.23387441067959
100
AcDbArc
 50
180.0
 51
270.0
  0
LINE
  5
121
330
1F
100
AcDbEntity
  8
0
  6
Continuous
 62
     7
370
    25
100
AcDbLine
 10
136.7669255893
 20
546.19456
 30
0.0
 11
136.7669255893
 21
107.19456
 31
0.0
  0
LINE
  5
122
330
1F
100
AcDbEntity
  8
0
  6
Continuous
 62
     7
370
    25
100
AcDbLine
 10
159.0008
 20
84.9606855893
 30
0.0
 11
159.0008
 21
85.9182950169
 31
0.0
  0
LINE
  5
123
330
1F
100
AcDbEntity
  8
0
  6
Continuous
 62
     7
370
    25
100
AcDbLine
 10
136.7669255893
 20
107.19456
 30
0.0
 11
137.7245350169
 21
107.19456
 31
0.0
  0
ARC
  5
124
330
1F
100
AcDbEntity
  8
0
  6
Continuous
 62
     7
370
    25
100
AcDbCircle
 10
159.0008
 20
107.19456
 30
0.0
 40
21.27626498307333
100
AcDbArc
 50
180.0
 51
270.0
  0
LINE
  5
125
330
1F
100
AcDbEntity
  8
0
  6
Continuous
 62
     7
370
    25
100
AcDbLine
 10
883.2346744107
 20
546.19456
 30
0.0
 11
882.2770649831
 21
546.19456
 31
0.0
  0
LINE
  5
126
330
1F
100
AcDbEntity
  8
0
  6
Continuous
 62
     7
370
    25
100
AcDbLine
 10
883.2346744107
 20
326.19456
 30
0.0
 11
882.2770649831
 21
326.19456
 31
0.0
  0
LINE
  5
127
330
1F
100
AcDbEntity
  8
0
  6
Continuous
 62
     7
370
    25
100
AcDbLine
 10
882.2770649831
 20
326.19456
 30
0.0
 11
882.2770649831
 21
546.19456
 31
0.0
  0
LINE
  5
128
330
1F
100
AcDbEntity
  8
0
  6
Continuous
 62
     7
370
    25
100
AcDbLine
 10
136.7669255893
 20
546.19456
 30
0.0
 11
137.7245350169
 21
546.19456
 31
0.0
  0
LINE
  5
129
330
1F
100
AcDbEntity
  8
0
  6
Continuous
 62
     7
370
    25
100
AcDbLine
 10
159.0008
 20
568.4284344107
 30
0.0
 11
159.0008
 21
567.4708249831
 31
0.0
  0
ARC
  5
12A
330
1F
100
AcDbEntity
  8
0
  6
Continuous
 62
     7
370
    25
100
AcDbCircle
 10
159.0008
 20
546.19456
 30
0.0
 40
21.27626498307336
100
AcDbArc
 50
90.0
 51
180.0
  0
LINE
  5
12B
330
1F
100
AcDbEntity
  8
0
  6
Continuous
 62
     7
370
    25
100
AcDbLine
 10
861.0008
 20
84.9606855893
 30
0.0
 11
861.0008
 21
85.9182950169
 31
0.0
  0
LINE
  5
12C
330
1F
100
AcDbEntity
  8
0
  6
Continuous
 62
     7
370
    25
100
AcDbLine
 10
159.0008
 20
85.9182950169
 30
0.0
 11
861.0008
 21
85.9182950169
 31
0.0
  0
LINE
  5
12D
330
1F
100
AcDbEntity
  8
0
  6
Continuous
 62
     7
370
    25
100
AcDbLine
 10
137.7245350169
 20
546.19456
 30
0.0
 11
137.7245350169
 21
107.19456
 31
0.0
  0
LINE
  5
12E
330
1F
100
AcDbEntity
  8
0
  6
Continuous
 62
     7
370
    25
100
AcDbLine
 10
883.2346744107
 20
107.19456
 30
0.0
 11
882.2770649831
 21
107.19456
 31
0.0
  0
LINE
  5
12F
330
1F
100
AcDbEntity
  8
0
  6
Continuous
 62
     7
370
    25
100
AcDbLine
 10
882.2770649831
 20
107.19456
 30
0.0
 11
882.2770649831
 21
326.19456
 31
0.0
  0
LINE
  5
130
330
1F
100
AcDbEntity
  8
0
  6
Continuous
 62
     7
370
    25
100
AcDbLine
 10
861.0008
 20
568.4284344107
 30
0.0
 11
861.0008
 21
567.4708249831
 31
0.0
  0
LINE
  5
131
330
1F
100
AcDbEntity
  8
0
  6
Continuous
 62
     7
370
    25
100
AcDbLine
 10
861.0008
 20
567.4708249831
 30
0.0
 11
159.0008
 21
567.4708249831
 31
0.0
  0
ARC
  5
132
330
1F
100
AcDbEntity
  8
0
  6
Continuous
 62
     7
370
    25
100
AcDbCircle
 10
861.0008
 20
107.19456
 30
0.0
 40
21.27626498307336
100
AcDbArc
 50
270.0
 51
0.0
  0
ARC
  5
133
330
1F
100
AcDbEntity
  8
0
  6
Continuous
 62
     7
370
    25
100
AcDbCircle
 10
861.0008
 20
546.19456
 30
0.0
 40
21.27626498307336
100
AcDbArc
 50
0.0
 51
90.0
  0
LINE
  5
134
330
1F
100
AcDbEntity
  8
0
  6
Continuous
 62
     7
370
    25
100
AcDbLine
 10
882.2770649831
 20
546.19456
 30
0.0
 11
876.9141858578
 21
546.19456
 31
0.0
  0
LINE
  5
135
330
1F
100
AcDbEntity
  8
0
  6
Continuous
 62
     7
370
    25
100
AcDbLine
 10
882.2770649831
 20
326.19456
 30
0.0
 11
876.9141858578
 21
326.19456
 31
0.0
  0
LINE
  5
136
330
1F
100
AcDbEntity
  8
0
  6
Continuous
 62
     7
370
    25
100
AcDbLine
 10
876.9141858578
 20
326.19456
 30
0.0
 11
876.9141858578
 21
546.19456
 31
0.0
  0
LINE
  5
137
330
1F
100
AcDbEntity
  8
0
  6
Continuous
 62
     7
370
    25
100
AcDbLine
 10
882.2770649831
 20
107.19456
 30
0.0
 11
876.9141858578
 21
107.19456
 31
0.0
  0
LINE
  5
138
330
1F
100
AcDbEntity
  8
0
  6
Continuous
 62
     7
370
    25
100
AcDbLine
 10
876.9141858578
 20
107.19456
 30
0.0
 11
876.9141858578
 21
326.19456
 31
0.0
  0
LINE
  5
139
330
1F
100
AcDbEntity
  8
0
  6
Continuous
 62
     7
370
    25
100
AcDbLine
 10
137.7245350169
 20
546.19456
 30
0.0
 11
143.0874141422
 21
546.19456
 31
0.0
  0
LINE
  5
13A
330
1F
100
AcDbEntity
  8
0
  6
Continuous
 62
     7
370
    25
100
AcDbLine
 10
159.0008
 20
567.4708249831
 30
0.0
 11
159.0008
 21
562.1079458578
 31
0.0
  0
ARC
  5
13B
330
1F
100
AcDbEntity
  8
0
  6
Continuous
 62
     7
370
    25
100
AcDbCircle
 10
159.0008
 20
546.19456
 30
0.0
 40
15.91338585783026
100
AcDbArc
 50
90.0
 51
180.0
  0
LINE
  5
13C
330
1F
100
AcDbEntity
  8
0
  6
Continuous
 62
     7
370
    25
100
AcDbLine
 10
861.0008
 20
85.9182950169
 30
0.0
 11
861.0008
 21
91.2811741422
 31
0.0
  0
ARC
  5
13D
330
1F
100
AcDbEntity
  8
0
  6
Continuous
 62
     7
370
    25
100
AcDbCircle
 10
861.0008
 20
107.19456
 30
0.0
 40
15.91338585783031
100
AcDbArc
 50
270.0
 51
0.0
  0
LINE
  5
13E
330
1F
100
AcDbEntity
  8
0
  6
Continuous
 62
     7
370
    25
100
AcDbLine
 10
159.0008
 20
85.9182950169
 30
0.0
 11
159.0008
 21
91.2811741422
 31
0.0
  0
LINE
  5
13F
330
1F
100
AcDbEntity
  8
0
  6
Continuous
 62
     7
370
    25
100
AcDbLine
 10
137.7245350169
 20
107.19456
 30
0.0
 11
143.0874141422
 21
107.19456
 31
0.0
  0
ARC
  5
140
330
1F
100
AcDbEntity
  8
0
  6
Continuous
 62
     7
370
    25
100
AcDbCircle
 10
159.0008
 20
107.19456
 30
0.0
 40
15.91338585783032
100
AcDbArc
 50
180.0
 51
270.0
  0
LINE
  5
141
330
1F
100
AcDbEntity
  8
0
  6
Continuous
 62
     7
370
    25
100
AcDbLine
 10
861.0008
 20
567.4708249831
 30
0.0
 11
861.0008
 21
562.1079458578
 31
0.0
  0
LINE
  5
142
330
1F
100
AcDbEntity
  8
0
  6
Continuous
 62
     7
370
    25
100
AcDbLine
 10
861.0008
 20
562.1079458578
 30
0.0
 11
159.0008
 21
562.1079458578
 31
0.0
  0
LINE
  5
143
330
1F
100
AcDbEntity
  8
0
  6
Continuous
 62
     7
370
    25
100
AcDbLine
 10
143.0874141422
 20
546.19456
 30
0.0
 11
143.0874141422
 21
107.19456
 31
0.0
  0
LINE
  5
144
330
1F
100
AcDbEntity
  8
0
  6
Continuous
 62
     7
370
    25
100
AcDbLine
 10
159.0008
 20
91.2811741422
 30
0.0
 11
861.0008
 21
91.2811741422
 31
0.0
  0
ARC
  5
145
330
1F
100
AcDbEntity
  8
0
  6
Continuous
 62
     7
370
    25
100
AcDbCircle
 10
861.0008
 20
546.19456
 30
0.0
 40
15.91338585783046
100
AcDbArc
 50
0.0
 51
90.0
  0
LINE
  5
146
330
1F
100
AcDbEntity
  8
0
  6
Continuous
 62
     7
370
    25
100
AcDbLine
 10
179.5008
 20
101.19456
 30
0.0
 11
468.5008
 21
101.19456
 31
0.0
  0
LINE
  5
147
330
1F
100
AcDbEntity
  8
0
  6
Continuous
 62
     7
370
    25
100
AcDbLine
 10
468.5008
 20
96.19456
 30
0.0
 11
468.5008
 21
101.19456
 31
0.0
  0
LINE
  5
148
330
1F
100
AcDbEntity
  8
0
  6
Continuous
 62
     7
370
    25
100
AcDbLine
 10
468.5008
 20
96.19456
 30
0.0
 11
179.5008
 21
96.19456
 31
0.0
  0
LINE
  5
149
330
1F
100
AcDbEntity
  8
0
  6
Continuous
 62
     7
370
    25
100
AcDbLine
 10
179.5008
 20
101.19456
 30
0.0
 11
179.5008
 21
96.19456
 31
0.0
  0
LINE
  5
14A
330
1F
100
AcDbEntity
  8
0
  6
Continuous
 62
     7
370
    25
100
AcDbLine
 10
840.5008
 20
486.19456
 30
0.0
 11
551.5008
 21
486.19456
 31
0.0
  0
LINE
  5
14B
330
1F
100
AcDbEntity
  8
0
  6
Continuous
 62
     7
370
    25
100
AcDbLine
 10
551.5008
 20
486.19456
 30
0.0
 11
551.5008
 21
491.19456
 31
0.0
  0
LINE
  5
14C
330
1F
100
AcDbEntity
  8
0
  6
Continuous
 62
     7
370
    25
100
AcDbLine
 10
551.5008
 20
491.19456
 30
0.0
 11
840.5008
 21
491.19456
 31
0.0
  0
LINE
  5
14D
330
1F
100
AcDbEntity
  8
0
  6
Continuous
 62
     7
370
    25
100
AcDbLine
 10
840.5008
 20
491.19456
 30
0.0
 11
840.5008
 21
486.19456
 31
0.0
  0
LINE
  5
14E
330
1F
100
AcDbEntity
  8
0
  6
Continuous
 62
     7
370
    25
100
AcDbLine
 10
500.0008
 20
459.69456
 30
0.0
 11
500.0008
 21
127.69456
 31
0.0
  0
ARC
  5
14F
330
1F
100
AcDbEntity
  8
0
  6
Continuous
 62
     7
370
    25
100
AcDbCircle
 10
468.5008
 20
459.69456
 30
0.0
 40
31.5000000000004
100
AcDbArc
 50
0.0
 51
90.0
  0
LINE
  5
150
330
1F
100
AcDbEntity
  8
0
  6
Continuous
 62
     7
370
    25
100
AcDbLine
 10
179.5008
 20
491.19456
 30
0.0
 11
468.5008
 21
491.19456
 31
0.0
  0
ARC
  5
151
330
1F
100
AcDbEntity
  8
0
  6
Continuous
 62
     7
370
    25
100
AcDbCircle
 10
179.5008
 20
459.69456
 30
0.0
 40
31.50000000000034
100
AcDbArc
 50
90.0
 51
180.0
  0
LINE
  5
152
330
1F
100
AcDbEntity
  8
0
  6
Continuous
 62
     7
370
    25
100
AcDbLine
 10
148.0008
 20
127.69456
 30
0.0
 11
148.0008
 21
459.69456
 31
0.0
  0
ARC
  5
153
330
1F
100
AcDbEntity
  8
0
  6
Continuous
 62
     7
370
    25
100
AcDbCircle
 10
179.5008
 20
127.69456
 30
0.0
 40
31.50000000000037
100
AcDbArc
 50
180.0
 51
270.0
  0
ARC
  5
154
330
1F
100
AcDbEntity
  8
0
  6
Continuous
 62
     7
370
    25
100
AcDbCircle
 10
468.5008
 20
127.69456
 30
0.0
 40
31.50000000000034
100
AcDbArc
 50
270.0
 51
0.0
  0
LINE
  5
155
330
1F
100
AcDbEntity
  8
0
  6
Continuous
 62
     7
370
    25
100
AcDbLine
 10
872.0008
 20
459.69456
 30
0.0
 11
872.0008
 21
127.69456
 31
0.0
  0
ARC
  5
156
330
1F
100
AcDbEntity
  8
0
  6
Continuous
 62
     7
370
    25
100
AcDbCircle
 10
840.5008
 20
459.69456
 30
0.0
 40
31.50000000000034
100
AcDbArc
 50
0.0
 51
90.0
  0
ARC
  5
157
330
1F
100
AcDbEntity
  8
0
  6
Continuous
 62
     7
370
    25
100
AcDbCircle
 10
551.5008
 20
459.69456
 30
0.0
 40
31.50000000000034
100
AcDbArc
 50
90.0
 51
180.0
  0
LINE
  5
158
330
1F
100
AcDbEntity
  8
0
  6
Continuous
 62
     7
370
    25
100
AcDbLine
 10
520.0008
 20
127.69456
 30
0.0
 11
520.0008
 21
459.69456
 31
0.0
  0
ARC
  5
159
330
1F
100
AcDbEntity
  8
0
  6
Continuous
 62
     7
370
    25
100
AcDbCircle
 10
551.5008
 20
127.69456
 30
0.0
 40
31.50000000000034
100
AcDbArc
 50
180.0
 51
270.0
  0
LINE
  5
15A
330
1F
100
AcDbEntity
  8
0
  6
Continuous
 62
     7
370
    25
100
AcDbLine
 10
840.5008
 20
96.19456
 30
0.0
 11
551.5008
 21
96.19456
 31
0.0
  0
ARC
  5
15B
330
1F
100
AcDbEntity
  8
0
  6
Continuous
 62
     7
370
    25
100
AcDbCircle
 10
840.5008
 20
127.69456
 30
0.0
 40
31.50000000000045
100
AcDbArc
 50
270.0
 51
0.0
  0
CIRCLE
  5
15C
330
1F
100
AcDbEntity
  8
0
  6
Continuous
 62
     7
370
    25
100
AcDbCircle
 10
510.0008
 20
530.19456
 30
0.0
 40
17.50000000000011
  0
ARC
  5
15D
330
1F
100
AcDbEntity
  8
0
  6
Continuous
 62
     7
370
    25
100
AcDbCircle
 10
551.5008
 20
127.69456
 30
0.0
 40
26.5
100
AcDbArc
 50
180.0
 51
270.0
  0
LINE
  5
15E
330
1F
100
AcDbEntity
  8
0
  6
Continuous
 62
     7
370
    25
100
AcDbLine
 10
551.5008
 20
101.19456
 30
0.0
 11
551.5008
 21
96.19456
 31
0.0
  0
LINE
  5
15F
330
1F
100
AcDbEntity
  8
0
  6
Continuous
 62
     7
370
    25
100
AcDbLine
 10
525.0008
 20
127.69456
 30
0.0
 11
520.0008
 21
127.69456
 31
0.0
  0
LINE
  5
160
330
1F
100
AcDbEntity
  8
0
  6
Continuous
 62
     7
370
    25
100
AcDbLine
 10
840.5008
 20
96.19456
 30
0.0
 11
840.5008
 21
101.19456
 31
0.0
  0
ARC
  5
161
330
1F
100
AcDbEntity
  8
0
  6
Continuous
 62
     7
370
    25
100
AcDbCircle
 10
840.5008
 20
127.69456
 30
0.0
 40
26.50000000000011
100
AcDbArc
 50
270.0
 51
0.0
  0
LINE
  5
162
330
1F
100
AcDbEntity
  8
0
  6
Continuous
 62
     7
370
    25
100
AcDbLine
 10
872.0008
 20
127.69456
 30
0.0
 11
867.0008
 21
127.69456
 31
0.0
  0
LINE
  5
163
330
1F
100
AcDbEntity
  8
0
  6
Continuous
 62
     7
370
    25
100
AcDbLine
 10
551.5008
 20
101.19456
 30
0.0
 11
840.5008
 21
101.19456
 31
0.0
  0
LINE
  5
164
330
1F
100
AcDbEntity
  8
0
  6
Continuous
 62
     7
370
    25
100
AcDbLine
 10
468.5008
 20
486.19456
 30
0.0
 11
179.5008
 21
486.19456
 31
0.0
  0
LINE
  5
165
330
1F
100
AcDbEntity
  8
0
  6
Continuous
 62
     7
370
    25
100
AcDbLine
 10
179.5008
 20
486.19456
 30
0.0
 11
179.5008
 21
491.19456
 31
0.0
  0
LINE
  5
166
330
1F
100
AcDbEntity
  8
0
  6
Continuous
 62
     7
370
    25
100
AcDbLine
 10
468.5008
 20
491.19456
 30
0.0
 11
468.5008
 21
486.19456
 31
0.0
  0
ARC
  5
167
330
1F
100
AcDbEntity
  8
0
  6
Continuous
 62
     7
370
    25
100
AcDbCircle
 10
551.5008
 20
459.69456
 30
0.0
 40
26.5
100
AcDbArc
 50
90.0
 51
180.0
  0
LINE
  5
168
330
1F
100
AcDbEntity
  8
0
  6
Continuous
 62
     7
370
    25
100
AcDbLine
 10
525.0008
 20
459.69456
 30
0.0
 11
520.0008
 21
459.69456
 31
0.0
  0
LINE
  5
169
330
1F
100
AcDbEntity
  8
0
  6
Continuous
 62
     7
370
    25
100
AcDbLine
 10
872.0008
 20
459.69456
 30
0.0
 11
867.0008
 21
459.69456
 31
0.0
  0
ARC
  5
16A
330
1F
100
AcDbEntity
  8
0
  6
Continuous
 62
     7
370
    25
100
AcDbCircle
 10
840.5008
 20
459.69456
 30
0.0
 40
26.5
100
AcDbArc
 50
0.0
 51
90.0
  0
LINE
  5
16B
330
1F
100
AcDbEntity
  8
0
  6
Continuous
 62
     7
370
    25
100
AcDbLine
 10
525.0008
 20
459.69456
 30
0.0
 11
525.0008
 21
127.69456
 31
0.0
  0
LINE
  5
16C
330
1F
100
AcDbEntity
  8
0
  6
Continuous
 62
     7
370
    25
100
AcDbLine
 10
867.0008
 20
127.69456
 30
0.0
 11
867.0008
 21
459.69456
 31
0.0
  0
ARC
  5
16D
330
1F
100
AcDbEntity
  8
0
  6
Continuous
 62
     7
370
    25
100
AcDbCircle
 10
179.5008
 20
127.69456
 30
0.0
 40
26.50000000000003
100
AcDbArc
 50
180.0
 51
270.0
  0
LINE
  5
16E
330
1F
100
AcDbEntity
  8
0
  6
Continuous
 62
     7
370
    25
100
AcDbLine
 10
153.0008
 20
127.69456
 30
0.0
 11
148.0008
 21
127.69456
 31
0.0
  0
ARC
  5
16F
330
1F
100
AcDbEntity
  8
0
  6
Continuous
 62
     7
370
    25
100
AcDbCircle
 10
468.5008
 20
127.69456
 30
0.0
 40
26.50000000000006
100
AcDbArc
 50
270.0
 51
0.0
  0
LINE
  5
170
330
1F
100
AcDbEntity
  8
0
  6
Continuous
 62
     7
370
    25
100
AcDbLine
 10
500.0008
 20
127.69456
 30
0.0
 11
495.0008
 21
127.69456
 31
0.0
  0
LINE
  5
171
330
1F
100
AcDbEntity
  8
0
  6
Continuous
 62
     7
370
    25
100
AcDbLine
 10
153.0008
 20
459.69456
 30
0.0
 11
153.0008
 21
127.69456
 31
0.0
  0
LINE
  5
172
330
1F
100
AcDbEntity
  8
0
  6
Continuous
 62
     7
370
    25
100
AcDbLine
 10
153.0008
 20
459.69456
 30
0.0
 11
148.0008
 21
459.69456
 31
0.0
  0
LINE
  5
173
330
1F
100
AcDbEntity
  8
0
  6
Continuous
 62
     7
370
    25
100
AcDbLine
 10
495.0008
 20
127.69456
 30
0.0
 11
495.0008
 21
459.69456
 31
0.0
  0
LINE
  5
174
330
1F
100
AcDbEntity
  8
0
  6
Continuous
 62
     7
370
    25
100
AcDbLine
 10
500.0008
 20
459.69456
 30
0.0
 11
495.0008
 21
459.69456
 31
0.0
  0
ARC
  5
175
330
1F
100
AcDbEntity
  8
0
  6
Continuous
 62
     7
370
    25
100
AcDbCircle
 10
179.5008
 20
459.69456
 30
0.0
 40
26.50000000000003
100
AcDbArc
 50
90.0
 51
180.0
  0
ARC
  5
176
330
1F
100
AcDbEntity
  8
0
  6
Continuous
 62
     7
370
    25
100
AcDbCircle
 10
468.5008
 20
459.69456
 30
0.0
 40
26.50000000000006
100
AcDbArc
 50
0.0
 51
90.0
  0
LINE
  5
177
330
1F
100
AcDbEntity
  8
0
  6
Continuous
 62
     8
370
    25
100
AcDbLine
 10
469.0008
 20
486.189842599
 30
0.0
 11
469.0008
 21
486.1200625479
 31
0.0
  0
LINE
  5
178
330
1F
100
AcDbEntity
  8
0
  6
Continuous
 62
     8
370
    25
100
AcDbLine
 10
179.0008
 20
486.189842599
 30
0.0
 11
179.0008
 21
486.1200625479
 31
0.0
  0
LINE
  5
179
330
1F
100
AcDbEntity
  8
0
  6
Continuous
 62
     8
370
    25
100
AcDbLine
 10
469.0008
 20
101.2690574521
 30
0.0
 11
469.0008
 21
101.199277401
 31
0.0
  0
LINE
  5
17A
330
1F
100
AcDbEntity
  8
0
  6
Continuous
 62
     8
370
    25
100
AcDbLine
 10
179.0008
 20
101.2690574521
 30
0.0
 11
179.0008
 21
101.199277401
 31
0.0
  0
LINE
  5
17B
330
1F
100
AcDbEntity
  8
0
  6
Continuous
 62
     8
370
    25
100
AcDbLine
 10
494.9583131106
 20
126.19456
 30
0.0
 11
493.9263025479
 21
126.19456
 31
0.0
  0
LINE
  5
17C
330
1F
100
AcDbEntity
  8
0
  6
Continuous
 62
     8
370
    25
100
AcDbLine
 10
494.9583131106
 20
461.19456
 30
0.0
 11
493.9263025479
 21
461.19456
 31
0.0
  0
LINE
  5
17D
330
1F
100
AcDbEntity
  8
0
  6
Continuous
 62
     8
370
    25
100
AcDbLine
 10
154.0752974521
 20
126.19456
 30
0.0
 11
153.0432868894
 21
126.19456
 31
0.0
  0
LINE
  5
17E
330
1F
100
AcDbEntity
  8
0
  6
Continuous
 62
     8
370
    25
100
AcDbLine
 10
154.0752974521
 20
461.19456
 30
0.0
 11
153.0432868894
 21
461.19456
 31
0.0
  0
LINE
  5
17F
330
1F
100
AcDbEntity
  8
0
  6
Continuous
 62
     8
370
    25
100
AcDbLine
 10
841.0008
 20
486.189842599
 30
0.0
 11
841.0008
 21
486.1200625479
 31
0.0
  0
LINE
  5
180
330
1F
100
AcDbEntity
  8
0
  6
Continuous
 62
     8
370
    25
100
AcDbLine
 10
551.0008
 20
486.189842599
 30
0.0
 11
551.0008
 21
486.1200625479
 31
0.0
  0
LINE
  5
181
330
1F
100
AcDbEntity
  8
0
  6
Continuous
 62
     8
370
    25
100
AcDbLine
 10
866.9583131106
 20
461.19456
 30
0.0
 11
865.9263025479
 21
461.19456
 31
0.0
  0
LINE
  5
182
330
1F
100
AcDbEntity
  8
0
  6
Continuous
 62
     8
370
    25
100
AcDbLine
 10
866.9583131106
 20
126.19456
 30
0.0
 11
865.9263025479
 21
126.19456
 31
0.0
  0
LINE
  5
183
330
1F
100
AcDbEntity
  8
0
  6
Continuous
 62
     8
370
    25
100
AcDbLine
 10
841.0008
 20
101.2690574521
 30
0.0
 11
841.0008
 21
101.199277401
 31
0.0
  0
LINE
  5
184
330
1F
100
AcDbEntity
  8
0
  6
Continuous
 62
     8
370
    25
100
AcDbLine
 10
551.0008
 20
101.2690574521
 30
0.0
 11
551.0008
 21
101.199277401
 31
0.0
  0
LINE
  5
185
330
1F
100
AcDbEntity
  8
0
  6
Continuous
 62
     8
370
    25
100
AcDbLine
 10
526.0752974521
 20
126.19456
 30
0.0
 11
525.0432868894
 21
126.19456
 31
0.0
  0
LINE
  5
186
330
1F
100
AcDbEntity
  8
0
  6
Continuous
 62
     8
370
    25
100
AcDbLine
 10
526.0752974521
 20
461.19456
 30
0.0
 11
525.0432868894
 21
461.19456
 31
0.0
  0
ENDSEC
  0
SECTION
  2
OBJECTS
  0
DICTIONARY
  5
C
330
0
100
AcDbDictionary
281
     1
  3
ACAD_GROUP
350
D
  3
ACAD_LAYOUT
350
1A
  3
ACAD_MLINESTYLE
350
17
  3
ACAD_PLOTSETTINGS
350
19
  3
ACAD_PLOTSTYLENAME
350
E
  3
ACAD_SCALELIST
350
47
  3
DWGPROPS
350
187
  0
DICTIONARY
  5
D
102
{ACAD_REACTORS
330
C
102
}
330
C
100
AcDbDictionary
281
     1
  0
DICTIONARY
  5
1A
102
{ACAD_REACTORS
330
C
102
}
330
C
100
AcDbDictionary
281
     1
  3
Layout1
350
1E
  3
Layout2
350
26
  3
Model
350
22
  0
DICTIONARY
  5
17
102
{ACAD_REACTORS
330
C
102
}
330
C
100
AcDbDictionary
281
     1
  3
Standard
350
18
  0
DICTIONARY
  5
19
102
{ACAD_REACTORS
330
C
102
}
330
C
100
AcDbDictionary
281
     1
  0
ACDBDICTIONARYWDFLT
  5
E
102
{ACAD_REACTORS
330
C
102
}
330
C
100
AcDbDictionary
281
     1
  3
Normal
350
F
100
AcDbDictionaryWithDefault
340
F
  0
DICTIONARY
  5
47
102
{ACAD_REACTORS
330
C
102
}
330
C
100
AcDbDictionary
281
     1
  3
A0
350
48
  3
A1
350
49
  3
A2
350
4A
  3
A3
350
4B
  3
A4
350
4C
  3
A5
350
4D
  3
A6
350
4E
  3
A7
350
4F
  3
A8
350
50
  3
A9
350
51
  3
B0
350
52
  3
B1
350
53
  3
B2
350
54
  3
B3
350
55
  3
B4
350
56
  3
B5
350
57
  3
B6
350
58
  3
B7
350
59
  3
B8
350
5A
  3
B9
350
5B
  3
C0
350
5C
  3
C1
350
5D
  3
C2
350
5E
  3
C3
350
5F
  3
C4
350
60
  3
C5
350
61
  3
C6
350
62
  3
C7
350
63
  3
C8
350
64
  3
C9
350
65
  3
D0
350
66
  3
D1
350
67
  3
D2
350
68
  0
XRECORD
  5
187
102
{ACAD_REACTORS
330
C
102
}
330
C
100
AcDbXrecord
280
     1
  1
DWGPROPS COOKIE
  2

  3

  4

  6

  7

  8
KalleMourujärvi
  9

300
=
301
=
302
=
303
=
304
=
305
=
306
=
307
=
308
=
309
=
 40
0.0
 41
2460130.40118154
 42
2460130.401181979
  1

 90
        0
  0
LAYOUT
  5
1E
102
{ACAD_REACTORS
330
1A
102
}
330
1A
100
AcDbPlotSettings
  1

  2
none_device
  4

  6

 40
0.0
 41
0.0
 42
0.0
 43
0.0
 44
0.0
 45
0.0
 46
0.0
 47
0.0
 48
0.0
 49
0.0
140
0.0
141
0.0
142
1.0
143
1.0
 70
   688
 72
     1
 73
     0
 74
     5
  7

 75
    16
147
1.0
148
0.0
149
0.0
100
AcDbLayout
  1
Layout1
 70
     1
 71
     1
 10
0.0
 20
0.0
 11
420.0
 21
297.0
 12
0.0
 22
0.0
 32
0.0
 14
1.0000000000E+20
 24
1.0000000000E+20
 34
1.0000000000E+20
 15
-1.0000000000E+20
 25
-1.0000000000E+20
 35
-1.0000000000E+20
146
0.0
 13
0.0
 23
0.0
 33
0.0
 16
1.0
 26
0.0
 36
0.0
 17
0.0
 27
1.0
 37
0.0
 76
     0
330
1B
  0
LAYOUT
  5
26
102
{ACAD_REACTORS
330
1A
102
}
330
1A
100
AcDbPlotSettings
  1

  2
none_device
  4

  6

 40
0.0
 41
0.0
 42
0.0
 43
0.0
 44
0.0
 45
0.0
 46
0.0
 47
0.0
 48
0.0
 49
0.0
140
0.0
141
0.0
142
1.0
143
1.0
 70
   688
 72
     1
 73
     0
 74
     5
  7

 75
    16
147
1.0
148
0.0
149
0.0
100
AcDbLayout
  1
Layout2
 70
     1
 71
     2
 10
0.0
 20
0.0
 11
0.0
 21
0.0
 12
0.0
 22
0.0
 32
0.0
 14
0.0
 24
0.0
 34
0.0
 15
0.0
 25
0.0
 35
0.0
146
0.0
 13
0.0
 23
0.0
 33
0.0
 16
1.0
 26
0.0
 36
0.0
 17
0.0
 27
1.0
 37
0.0
 76
     0
330
23
  0
LAYOUT
  5
22
102
{ACAD_REACTORS
330
1A
102
}
330
1A
100
AcDbPlotSettings
  1

  2
none_device
  4
Letter_(8.50_x_11.00_Inches)
  6

 40
6.35
 41
6.35
 42
6.35000508
 43
6.35000508
 44
215.9
 45
279.4
 46
0.0
 47
0.0
 48
0.0
 49
0.0
140
0.0
141
0.0
142
1.0
143
1.0
 70
  1712
 72
     1
 73
     0
 74
     0
  7

 75
     0
147
1.0
148
0.0
149
0.0
100
AcDbLayout
  1
Model
 70
     1
 71
     0
 10
0.0
 20
0.0
 11
1050.0
 21
650.0
 12
0.0
 22
0.0
 32
0.0
 14
0.0
 24
0.0
 34
0.0
 15
1050.0
 25
650.0
 35
0.0
146
0.0
 13
0.0
 23
0.0
 33
0.0
 16
1.0
 26
0.0
 36
0.0
 17
0.0
 27
1.0
 37
0.0
 76
     0
330
1F
331
29
  0
MLINESTYLE
  5
18
102
{ACAD_REACTORS
330
17
102
}
330
17
100
AcDbMlineStyle
  2
Standard
 70
     0
  3

 62
   256
 51
90.0
 52
90.0
 71
     2
 49
0.5
 62
   256
  6
BYLAYER
 49
-0.5
 62
   256
  6
BYLAYER
  0
ACDBPLACEHOLDER
  5
F
102
{ACAD_REACTORS
330
E
102
}
330
E
  0
SCALE
  5
48
102
{ACAD_REACTORS
330
47
102
}
330
47
100
AcDbScale
 70
     0
300
1:1
140
1.0
141
1.0
290
     1
  0
SCALE
  5
49
102
{ACAD_REACTORS
330
47
102
}
330
47
100
AcDbScale
 70
     0
300
1:2
140
1.0
141
2.0
290
     0
  0
SCALE
  5
4A
102
{ACAD_REACTORS
330
47
102
}
330
47
100
AcDbScale
 70
     0
300
1:4
140
1.0
141
4.0
290
     0
  0
SCALE
  5
4B
102
{ACAD_REACTORS
330
47
102
}
330
47
100
AcDbScale
 70
     0
300
1:5
140
1.0
141
5.0
290
     0
  0
SCALE
  5
4C
102
{ACAD_REACTORS
330
47
102
}
330
47
100
AcDbScale
 70
     0
300
1:8
140
1.0
141
8.0
290
     0
  0
SCALE
  5
4D
102
{ACAD_REACTORS
330
47
102
}
330
47
100
AcDbScale
 70
     0
300
1:10
140
1.0
141
10.0
290
     0
  0
SCALE
  5
4E
102
{ACAD_REACTORS
330
47
102
}
330
47
100
AcDbScale
 70
     0
300
1:16
140
1.0
141
16.0
290
     0
  0
SCALE
  5
4F
102
{ACAD_REACTORS
330
47
102
}
330
47
100
AcDbScale
 70
     0
300
1:20
140
1.0
141
20.0
290
     0
  0
SCALE
  5
50
102
{ACAD_REACTORS
330
47
102
}
330
47
100
AcDbScale
 70
     0
300
1:30
140
1.0
141
30.0
290
     0
  0
SCALE
  5
51
102
{ACAD_REACTORS
330
47
102
}
330
47
100
AcDbScale
 70
     0
300
1:40
140
1.0
141
40.0
290
     0
  0
SCALE
  5
52
102
{ACAD_REACTORS
330
47
102
}
330
47
100
AcDbScale
 70
     0
300
1:50
140
1.0
141
50.0
290
     0
  0
SCALE
  5
53
102
{ACAD_REACTORS
330
47
102
}
330
47
100
AcDbScale
 70
     0
300
1:100
140
1.0
141
100.0
290
     0
  0
SCALE
  5
54
102
{ACAD_REACTORS
330
47
102
}
330
47
100
AcDbScale
 70
     0
300
2:1
140
2.0
141
1.0
290
     0
  0
SCALE
  5
55
102
{ACAD_REACTORS
330
47
102
}
330
47
100
AcDbScale
 70
     0
300
4:1
140
4.0
141
1.0
290
     0
  0
SCALE
  5
56
102
{ACAD_REACTORS
330
47
102
}
330
47
100
AcDbScale
 70
     0
300
8:1
140
8.0
141
1.0
290
     0
  0
SCALE
  5
57
102
{ACAD_REACTORS
330
47
102
}
330
47
100
AcDbScale
 70
     0
300
10:1
140
10.0
141
1.0
290
     0
  0
SCALE
  5
58
102
{ACAD_REACTORS
330
47
102
}
330
47
100
AcDbScale
 70
     0
300
100:1
140
100.0
141
1.0
290
     0
  0
SCALE
  5
59
102
{ACAD_REACTORS
330
47
102
}
330
47
100
AcDbScale
 70
     0
300
1/128" = 1'-0"
140
0.0078125
141
12.0
290
     0
  0
SCALE
  5
5A
102
{ACAD_REACTORS
330
47
102
}
330
47
100
AcDbScale
 70
     0
300
1/64" = 1'-0"
140
0.015625
141
12.0
290
     0
  0
SCALE
  5
5B
102
{ACAD_REACTORS
330
47
102
}
330
47
100
AcDbScale
 70
     0
300
1/32" = 1'-0"
140
0.03125
141
12.0
290
     0
  0
SCALE
  5
5C
102
{ACAD_REACTORS
330
47
102
}
330
47
100
AcDbScale
 70
     0
300
1/16" = 1'-0"
140
0.0625
141
12.0
290
     0
  0
SCALE
  5
5D
102
{ACAD_REACTORS
330
47
102
}
330
47
100
AcDbScale
 70
     0
300
3/32" = 1'-0"
140
0.09375
141
12.0
290
     0
  0
SCALE
  5
5E
102
{ACAD_REACTORS
330
47
102
}
330
47
100
AcDbScale
 70
     0
300
1/8" = 1'-0"
140
0.125
141
12.0
290
     0
  0
SCALE
  5
5F
102
{ACAD_REACTORS
330
47
102
}
330
47
100
AcDbScale
 70
     0
300
3/16" = 1'-0"
140
0.1875
141
12.0
290
     0
  0
SCALE
  5
60
102
{ACAD_REACTORS
330
47
102
}
330
47
100
AcDbScale
 70
     0
300
1/4" = 1'-0"
140
0.25
141
12.0
290
     0
  0
SCALE
  5
61
102
{ACAD_REACTORS
330
47
102
}
330
47
100
AcDbScale
 70
     0
300
3/8" = 1'-0"
140
0.375
141
12.0
290
     0
  0
SCALE
  5
62
102
{ACAD_REACTORS
330
47
102
}
330
47
100
AcDbScale
 70
     0
300
1/2" = 1'-0"
140
0.5
141
12.0
290
     0
  0
SCALE
  5
63
102
{ACAD_REACTORS
330
47
102
}
330
47
100
AcDbScale
 70
     0
300
3/4" = 1'-0"
140
0.75
141
12.0
290
     0
  0
SCALE
  5
64
102
{ACAD_REACTORS
330
47
102
}
330
47
100
AcDbScale
 70
     0
300
1" = 1'-0"
140
1.0
141
12.0
290
     0
  0
SCALE
  5
65
102
{ACAD_REACTORS
330
47
102
}
330
47
100
AcDbScale
 70
     0
300
1-1/2" = 1'-0"
140
1.5
141
12.0
290
     0
  0
SCALE
  5
66
102
{ACAD_REACTORS
330
47
102
}
330
47
100
AcDbScale
 70
     0
300
3" = 1'-0"
140
3.0
141
12.0
290
     0
  0
SCALE
  5
67
102
{ACAD_REACTORS
330
47
102
}
330
47
100
AcDbScale
 70
     0
300
6" = 1'-0"
140
6.0
141
12.0
290
     0
  0
SCALE
  5
68
102
{ACAD_REACTORS
330
47
102
}
330
47
100
AcDbScale
 70
     0
300
1'-0" = 1'-0"
140
12.0
141
12.0
290
     0
  0
ENDSEC
  0
EOF
