  0
SECTION
  2
HEADER
  9
$ACADVER
  1
AC1015
  9
$ACADMAINTVER
 70
     6
  9
$DWGCODEPAGE
  3
ANSI_1252
  9
$INSBASE
 10
0.0
 20
0.0
 30
0.0
  9
$EXTMIN
 10
0.0
 20
0.0
 30
0.0
  9
$EXTMAX
 10
600.0
 20
600.0
 30
0.0
  9
$LIMMIN
 10
0.0
 20
0.0
  9
$LIMMAX
 10
600.0
 20
600.0
  9
$ORTHOMODE
 70
     0
  9
$REGENMODE
 70
     1
  9
$FILLMODE
 70
     1
  9
$QTEXTMODE
 70
     0
  9
$MIRRTEXT
 70
     1
  9
$LTSCALE
 40
1.0
  9
$ATTMODE
 70
     1
  9
$TEXTSIZE
 40
3.5
  9
$TRACEWID
 40
1.0
  9
$TEXTSTYLE
  7
Standard
  9
$CLAYER
  8
0
  9
$CELTYPE
  6
ByLayer
  9
$CECOLOR
 62
   256
  9
$CELTSCALE
 40
1.0
  9
$DISPSILH
 70
     0
  9
$DIMSCALE
 40
1.0
  9
$DIMASZ
 40
3.302
  9
$DIMEXO
 40
1.0
  9
$DIMDLI
 40
3.75
  9
$DIMRND
 40
0.0
  9
$DIMDLE
 40
0.0
  9
$DIMEXE
 40
1.0
  9
$DIMTP
 40
0.0
  9
$DIMTM
 40
0.0
  9
$DIMTXT
 40
3.5
  9
$DIMCEN
 40
2.5
  9
$DIMTSZ
 40
0.0
  9
$DIMTOL
 70
     0
  9
$DIMLIM
 70
     0
  9
$DIMTIH
 70
     1
  9
$DIMTOH
 70
     1
  9
$DIMSE1
 70
     0
  9
$DIMSE2
 70
     0
  9
$DIMTAD
 70
     1
  9
$DIMZIN
 70
     1
  9
$DIMBLK
  1

  9
$DIMASO
 70
     1
  9
$DIMSHO
 70
     1
  9
$DIMPOST
  1

  9
$DIMAPOST
  1

  9
$DIMALT
 70
     0
  9
$DIMALTD
 70
     3
  9
$DIMALTF
 40
0.0393700787
  9
$DIMLFAC
 40
1.0
  9
$DIMTOFL
 70
     1
  9
$DIMTVP
 40
0.0
  9
$DIMTIX
 70
     0
  9
$DIMSOXD
 70
     0
  9
$DIMSAH
 70
     0
  9
$DIMBLK1
  1

  9
$DIMBLK2
  1

  9
$DIMSTYLE
  2
ISO-25
  9
$DIMCLRD
 70
     0
  9
$DIMCLRE
 70
     0
  9
$DIMCLRT
 70
     0
  9
$DIMTFAC
 40
1.0
  9
$DIMGAP
 40
1.524
  9
$DIMJUST
 70
     0
  9
$DIMSD1
 70
     0
  9
$DIMSD2
 70
     0
  9
$DIMTOLJ
 70
     0
  9
$DIMTZIN
 70
     1
  9
$DIMALTZ
 70
     0
  9
$DIMALTTZ
 70
     0
  9
$DIMUPT
 70
     0
  9
$DIMDEC
 70
     2
  9
$DIMTDEC
 70
     2
  9
$DIMALTU
 70
     2
  9
$DIMALTTD
 70
     3
  9
$DIMTXSTY
  7
Standard
  9
$DIMAUNIT
 70
     0
  9
$DIMADEC
 70
     2
  9
$DIMALTRND
 40
0.0
  9
$DIMAZIN
 70
     0
  9
$DIMDSEP
 70
    44
  9
$DIMATFIT
 70
     3
  9
$DIMFRAC
 70
     0
  9
$DIMLDRBLK
  1

  9
$DIMLUNIT
 70
     2
  9
$DIMLWD
 70
    -2
  9
$DIMLWE
 70
    -2
  9
$DIMTMOVE
 70
     0
  9
$LUNITS
 70
     2
  9
$LUPREC
 70
     1
  9
$SKETCHINC
 40
1.0
  9
$FILLETRAD
 40
10.0
  9
$AUNITS
 70
     0
  9
$AUPREC
 70
     1
  9
$MENU
  1
.
  9
$ELEVATION
 40
0.0
  9
$PELEVATION
 40
0.0
  9
$THICKNESS
 40
0.0
  9
$LIMCHECK
 70
     0
  9
$CHAMFERA
 40
0.0
  9
$CHAMFERB
 40
0.0
  9
$CHAMFERC
 40
0.0
  9
$CHAMFERD
 40
0.0
  9
$SKPOLY
 70
     0
  9
$TDCREATE
 40
2460130.559002627
  9
$TDUCREATE
 40
2460130.434002627
  9
$TDUPDATE
 40
2460130.559002951
  9
$TDUUPDATE
 40
2460130.434002951
  9
$TDINDWG
 40
0.0000000116
  9
$TDUSRTIMER
 40
0.0000000116
  9
$USRTIMER
 70
     1
  9
$ANGBASE
 50
0.0
  9
$ANGDIR
 70
     0
  9
$PDMODE
 70
     0
  9
$PDSIZE
 40
-1.0
  9
$PLINEWID
 40
0.0
  9
$SPLFRAME
 70
     0
  9
$SPLINETYPE
 70
     6
  9
$SPLINESEGS
 70
     8
  9
$HANDSEED
  5
130
  9
$SURFTAB1
 70
     6
  9
$SURFTAB2
 70
     6
  9
$SURFTYPE
 70
     6
  9
$SURFU
 70
     6
  9
$SURFV
 70
     6
  9
$UCSBASE
  2

  9
$UCSNAME
  2

  9
$UCSORG
 10
0.0
 20
0.0
 30
0.0
  9
$UCSXDIR
 10
1.0
 20
0.0
 30
0.0
  9
$UCSYDIR
 10
0.0
 20
1.0
 30
0.0
  9
$UCSORTHOREF
  2

  9
$UCSORTHOVIEW
 70
     0
  9
$UCSORGTOP
 10
0.0
 20
0.0
 30
0.0
  9
$UCSORGBOTTOM
 10
0.0
 20
0.0
 30
0.0
  9
$UCSORGLEFT
 10
0.0
 20
0.0
 30
0.0
  9
$UCSORGRIGHT
 10
0.0
 20
0.0
 30
0.0
  9
$UCSORGFRONT
 10
0.0
 20
0.0
 30
0.0
  9
$UCSORGBACK
 10
0.0
 20
0.0
 30
0.0
  9
$PUCSBASE
  2

  9
$PUCSNAME
  2

  9
$PUCSORG
 10
0.0
 20
0.0
 30
0.0
  9
$PUCSXDIR
 10
1.0
 20
0.0
 30
0.0
  9
$PUCSYDIR
 10
0.0
 20
1.0
 30
0.0
  9
$PUCSORTHOREF
  2

  9
$PUCSORTHOVIEW
 70
     0
  9
$PUCSORGTOP
 10
0.0
 20
0.0
 30
0.0
  9
$PUCSORGBOTTOM
 10
0.0
 20
0.0
 30
0.0
  9
$PUCSORGLEFT
 10
0.0
 20
0.0
 30
0.0
  9
$PUCSORGRIGHT
 10
0.0
 20
0.0
 30
0.0
  9
$PUCSORGFRONT
 10
0.0
 20
0.0
 30
0.0
  9
$PUCSORGBACK
 10
0.0
 20
0.0
 30
0.0
  9
$USERI1
 70
     0
  9
$USERI2
 70
     0
  9
$USERI3
 70
     0
  9
$USERI4
 70
     0
  9
$USERI5
 70
     0
  9
$USERR1
 40
0.0
  9
$USERR2
 40
0.0
  9
$USERR3
 40
0.0
  9
$USERR4
 40
0.0
  9
$USERR5
 40
0.0
  9
$WORLDVIEW
 70
     1
  9
$SHADEDGE
 70
     3
  9
$SHADEDIF
 70
    70
  9
$TILEMODE
 70
     1
  9
$MAXACTVP
 70
    64
  9
$PINSBASE
 10
0.0
 20
0.0
 30
0.0
  9
$PLIMCHECK
 70
     0
  9
$PEXTMIN
 10
1.0000000000E+20
 20
1.0000000000E+20
 30
1.0000000000E+20
  9
$PEXTMAX
 10
-1.0000000000E+20
 20
-1.0000000000E+20
 30
-1.0000000000E+20
  9
$PLIMMIN
 10
0.0
 20
0.0
  9
$PLIMMAX
 10
420.0
 20
297.0
  9
$UNITMODE
 70
     0
  9
$VISRETAIN
 70
     1
  9
$PLINEGEN
 70
     0
  9
$PSLTSCALE
 70
     1
  9
$TREEDEPTH
 70
  3020
  9
$CMLSTYLE
  2
Standard
  9
$CMLJUST
 70
     0
  9
$CMLSCALE
 40
20.0
  9
$PROXYGRAPHICS
 70
     1
  9
$MEASUREMENT
 70
     1
  9
$CELWEIGHT
370
    -1
  9
$ENDCAPS
280
     0
  9
$JOINSTYLE
280
     0
  9
$LWDISPLAY
290
     1
  9
$INSUNITS
 70
     4
  9
$HYPERLINKBASE
  1

  9
$STYLESHEET
  1

  9
$XEDIT
290
     1
  9
$CEPSNTYPE
380
     0
  9
$PSTYLEMODE
290
     1
  9
$FINGERPRINTGUID
  2
{b1c8494d-ff62-40c6-a37e-079a0305e27a}
  9
$VERSIONGUID
  2
{FAEB1C32-E019-11D5-929B-00C0DF256EC4}
  9
$EXTNAMES
290
     1
  9
$PSVPSCALE
 40
0.0
  9
$OLESTARTUP
290
     0
  0
ENDSEC
  0
SECTION
  2
CLASSES
  0
CLASS
  1
ACDBDICTIONARYWDFLT
  2
AcDbDictionaryWithDefault
  3
ObjectDBX Classes
 90
        0
280
     0
281
     0
  0
CLASS
  1
VISUALSTYLE
  2
AcDbVisualStyle
  3
ObjectDBX Classes
 90
     4095
280
     0
281
     0
  0
CLASS
  1
MATERIAL
  2
AcDbMaterial
  3
ObjectDBX Classes
 90
     1153
280
     0
281
     0
  0
CLASS
  1
SCALE
  2
AcDbScale
  3
ObjectDBX Classes
 90
     1153
280
     0
281
     0
  0
CLASS
  1
TABLESTYLE
  2
AcDbTableStyle
  3
ObjectDBX Classes
 90
     4095
280
     0
281
     0
  0
CLASS
  1
MLEADERSTYLE
  2
AcDbMLeaderStyle
  3
ACDB_MLEADERSTYLE_CLASS
 90
     4095
280
     0
281
     0
  0
CLASS
  1
SUN
  2
AcDbSun
  3
SCENEOE
 90
     1153
280
     0
281
     0
  0
CLASS
  1
ACDBPLACEHOLDER
  2
AcDbPlaceHolder
  3
ObjectDBX Classes
 90
        0
280
     0
281
     0
  0
CLASS
  1
LAYOUT
  2
AcDbLayout
  3
ObjectDBX Classes
 90
        0
280
     0
281
     0
  0
ENDSEC
  0
SECTION
  2
TABLES
  0
TABLE
  2
VPORT
  5
8
330
0
100
AcDbSymbolTable
 70
     1
  0
VPORT
  5
29
330
8
100
AcDbSymbolTableRecord
100
AcDbViewportTableRecord
  2
*Active
 70
     0
 10
0.0
 20
0.0
 11
1.0
 21
1.0
 12
300.0
 22
300.0
 13
0.0
 23
0.0
 14
10.0
 24
10.0
 15
10.0
 25
10.0
 16
0.0
 26
0.0
 36
1.0
 17
0.0
 27
0.0
 37
0.0
 40
600.0
 41
1.0
 42
50.0
 43
0.0
 44
0.0
 50
0.0
 51
0.0
 71
     0
 72
  2000
 73
     1
 74
     3
 75
     0
 76
     0
 77
     0
 78
     0
281
     0
 65
     1
110
0.0
120
0.0
130
0.0
111
1.0
121
0.0
131
0.0
112
0.0
122
1.0
132
0.0
 79
     0
146
0.0
  0
ENDTAB
  0
TABLE
  2
LTYPE
  5
5
330
0
100
AcDbSymbolTable
 70
     6
  0
LTYPE
  5
14
330
5
100
AcDbSymbolTableRecord
100
AcDbLinetypeTableRecord
  2
ByBlock
 70
     0
  3

 72
    65
 73
     0
 40
0.0
  0
LTYPE
  5
15
330
5
100
AcDbSymbolTableRecord
100
AcDbLinetypeTableRecord
  2
ByLayer
 70
     0
  3

 72
    65
 73
     0
 40
0.0
  0
LTYPE
  5
16
330
5
100
AcDbSymbolTableRecord
100
AcDbLinetypeTableRecord
  2
Continuous
 70
     0
  3
Solid line
 72
    65
 73
     0
 40
0.0
  0
LTYPE
  5
6E
330
5
100
AcDbSymbolTableRecord
100
AcDbLinetypeTableRecord
  2
HIDDEN
 70
     0
  3
Hidden __ __ __ __ __ __ __ __ __ __ __ __ __ __
 72
    65
 73
     2
 40
1.905
 49
1.27
 74
     0
 49
-0.635
 74
     0
  0
LTYPE
  5
6F
330
5
100
AcDbSymbolTableRecord
100
AcDbLinetypeTableRecord
  2
PHANTOM
 70
     0
  3
Phantom ______  __  __  ______  __  __  ______
 72
    65
 73
     6
 40
12.7
 49
6.35
 74
     0
 49
-1.27
 74
     0
 49
1.27
 74
     0
 49
-1.27
 74
     0
 49
1.27
 74
     0
 49
-1.27
 74
     0
  0
LTYPE
  5
70
330
5
100
AcDbSymbolTableRecord
100
AcDbLinetypeTableRecord
  2
CENTER
 70
     0
  3
Center ____ _ ____ _ ____ _ ____ _ ____ _ ____
 72
    65
 73
     4
 40
10.16
 49
6.35
 74
     0
 49
-1.27
 74
     0
 49
1.27
 74
     0
 49
-1.27
 74
     0
  0
LTYPE
  5
71
330
5
100
AcDbSymbolTableRecord
100
AcDbLinetypeTableRecord
  2
CENTERX2
 70
     0
  3
Center (2x) ________  __  ________  __  _____
 72
    65
 73
     4
 40
20.32
 49
12.7
 74
     0
 49
-2.54
 74
     0
 49
2.54
 74
     0
 49
-2.54
 74
     0
  0
LTYPE
  5
72
330
5
100
AcDbSymbolTableRecord
100
AcDbLinetypeTableRecord
  2
DOT2
 70
     0
  3
Dot (.5x) ........................................
 72
    65
 73
     2
 40
0.635
 49
0.0
 74
     0
 49
-0.635
 74
     0
  0
ENDTAB
  0
TABLE
  2
LAYER
  5
2
330
0
100
AcDbSymbolTable
 70
     1
  0
LAYER
  5
10
330
2
100
AcDbSymbolTableRecord
100
AcDbLayerTableRecord
  2
0
 70
     0
 62
     7
  6
Continuous
370
    -3
390
F
  0
ENDTAB
  0
TABLE
  2
STYLE
  5
3
330
0
100
AcDbSymbolTable
 70
     1
  0
STYLE
  5
11
330
3
100
AcDbSymbolTableRecord
100
AcDbTextStyleTableRecord
  2
Standard
 70
     0
 40
0.0
 41
1.0
 50
0.0
 71
     0
 42
3.5
  3
txt
  4

  0
ENDTAB
  0
TABLE
  2
VIEW
  5
6
330
0
100
AcDbSymbolTable
 70
     0
  0
ENDTAB
  0
TABLE
  2
UCS
  5
7
330
0
100
AcDbSymbolTable
 70
     0
  0
ENDTAB
  0
TABLE
  2
APPID
  5
9
330
0
100
AcDbSymbolTable
 70
     1
  0
APPID
  5
12
330
9
100
AcDbSymbolTableRecord
100
AcDbRegAppTableRecord
  2
ACAD
 70
     0
  0
ENDTAB
  0
TABLE
  2
DIMSTYLE
  5
A
330
0
100
AcDbSymbolTable
 70
     1
100
AcDbDimStyleTable
  0
DIMSTYLE
105
27
330
A
100
AcDbSymbolTableRecord
100
AcDbDimStyleTableRecord
  2
ISO-25
 70
     0
 41
2.5
 42
0.625
 43
3.75
 44
1.25
 73
     0
 74
     0
 77
     1
 78
     8
140
2.5
141
2.5
143
0.0393700787
147
0.625
171
     3
172
     1
178
     0
271
     2
272
     2
274
     3
278
    44
283
     0
284
     8
340
11
  0
ENDTAB
  0
TABLE
  2
BLOCK_RECORD
  5
1
330
0
100
AcDbSymbolTable
 70
     1
  0
BLOCK_RECORD
  5
1F
330
1
100
AcDbSymbolTableRecord
100
AcDbBlockTableRecord
  2
*Model_Space
340
22
  0
BLOCK_RECORD
  5
1B
330
1
100
AcDbSymbolTableRecord
100
AcDbBlockTableRecord
  2
*Paper_Space
340
1E
  0
BLOCK_RECORD
  5
23
330
1
100
AcDbSymbolTableRecord
100
AcDbBlockTableRecord
  2
*Paper_Space0
340
26
  0
ENDTAB
  0
ENDSEC
  0
SECTION
  2
BLOCKS
  0
BLOCK
  5
20
330
1F
100
AcDbEntity
  8
0
100
AcDbBlockBegin
  2
*Model_Space
 70
     0
 10
0.0
 20
0.0
 30
0.0
  3
*Model_Space
  1

  0
ENDBLK
  5
21
330
1F
100
AcDbEntity
  8
0
100
AcDbBlockEnd
  0
BLOCK
  5
1C
330
1B
100
AcDbEntity
 67
     1
  8
0
100
AcDbBlockBegin
  2
*Paper_Space
 70
     0
 10
0.0
 20
0.0
 30
0.0
  3
*Paper_Space
  1

  0
ENDBLK
  5
1D
330
1B
100
AcDbEntity
 67
     1
  8
0
100
AcDbBlockEnd
  0
BLOCK
  5
24
330
23
100
AcDbEntity
  8
0
100
AcDbBlockBegin
  2
*Paper_Space0
 70
     0
 10
0.0
 20
0.0
 30
0.0
  3
*Paper_Space0
  1

  0
ENDBLK
  5
25
330
23
100
AcDbEntity
  8
0
100
AcDbBlockEnd
  0
ENDSEC
  0
SECTION
  2
ENTITIES
  0
LINE
  5
73
330
1F
100
AcDbEntity
  8
0
  6
Continuous
 62
     7
370
    25
100
AcDbLine
 10
368.3312516936
 20
564.6344283284
 30
0.0
 11
367.8488564298
 21
564.6344283284
 31
0.0
  0
LINE
  5
74
330
1F
100
AcDbEntity
  8
0
  6
Continuous
 62
     7
370
    25
100
AcDbLine
 10
368.3312516936
 20
563.7564668972
 30
0.0
 11
367.2697244117
 21
563.7564668972
 31
0.0
  0
LINE
  5
75
330
1F
100
AcDbEntity
  8
0
  6
Continuous
 62
     7
370
    25
100
AcDbLine
 10
367.2697244117
 20
563.7564668972
 30
0.0
 11
367.8488564298
 21
564.6344283284
 31
0.0
  0
LINE
  5
76
330
1F
100
AcDbEntity
  8
0
  6
Continuous
 62
     7
370
    25
100
AcDbLine
 10
368.3312516936
 20
564.6344283284
 30
0.0
 11
368.3312516936
 21
563.7564668972
 31
0.0
  0
LINE
  5
77
330
1F
100
AcDbEntity
  8
0
  6
Continuous
 62
     7
370
    25
100
AcDbLine
 10
345.3927789755
 20
563.7564668972
 30
0.0
 11
344.3312516936
 21
563.7564668972
 31
0.0
  0
ELLIPSE
  5
78
330
1F
100
AcDbEntity
  8
0
  6
Continuous
 62
     7
370
    25
100
AcDbEllipse
 10
349.4698499805
 20
557.5756463186
 30
0.0
 11
-6.465367590177892
 21
6.912116833489565
 31
0.0
210
0.0
220
0.0
230
1.0
 40
0.2065756201
 41
5.406531293554919
 42
5.593104306370242
  0
LINE
  5
79
330
1F
100
AcDbEntity
  8
0
  6
Continuous
 62
     7
370
    25
100
AcDbLine
 10
346.4312516936
 20
563.0240462922
 30
0.0
 11
366.2312516936
 21
563.0240462922
 31
0.0
  0
ELLIPSE
  5
7A
330
1F
100
AcDbEntity
  8
0
  6
Continuous
 62
     7
370
    25
100
AcDbEllipse
 10
363.1926534068
 20
557.5756463186
 30
0.0
 11
6.465367590177832
 21
6.912116833489561
 31
0.0
210
0.0
220
0.0
230
1.0
 40
0.2065756201
 41
0.6900810008094275
 42
0.8766540136247712
  0
LINE
  5
7B
330
1F
100
AcDbEntity
  8
0
  6
Continuous
 62
     7
370
    25
100
AcDbLine
 10
368.3312516936
 20
562.9344283284
 30
0.0
 11
368.3312516936
 21
563.7564668972
 31
0.0
  0
LINE
  5
7C
330
1F
100
AcDbEntity
  8
0
  6
Continuous
 62
     7
370
    25
100
AcDbLine
 10
344.3312516936
 20
562.9344283284
 30
0.0
 11
344.3312516936
 21
563.7564668972
 31
0.0
  0
LINE
  5
7D
330
1F
100
AcDbEntity
  8
0
  6
Continuous
 62
     7
370
    25
100
AcDbLine
 10
366.2312516936
 20
563.4636803999
 30
0.0
 11
366.2312516936
 21
563.0240462922
 31
0.0
  0
ELLIPSE
  5
7E
330
1F
100
AcDbEntity
  8
0
  6
Continuous
 62
     7
370
    25
100
AcDbEllipse
 10
363.1926534068
 20
557.5756463186
 30
0.0
 11
7.38374781345891
 21
7.893956042528315
 31
0.0
210
0.0
220
0.0
230
1.0
 40
0.2065756201
 41
0.6900810008093401
 42
0.9399081045636004
  0
LINE
  5
7F
330
1F
100
AcDbEntity
  8
0
  6
Continuous
 62
     7
370
    25
100
AcDbLine
 10
344.8136469575
 20
564.6344283284
 30
0.0
 11
344.3312516936
 21
564.6344283284
 31
0.0
  0
LINE
  5
80
330
1F
100
AcDbEntity
  8
0
  6
Continuous
 62
     7
370
    25
100
AcDbLine
 10
345.3927789755
 20
563.7564668972
 30
0.0
 11
344.8136469575
 21
564.6344283284
 31
0.0
  0
LINE
  5
81
330
1F
100
AcDbEntity
  8
0
  6
Continuous
 62
     7
370
    25
100
AcDbLine
 10
344.3312516936
 20
564.6344283284
 30
0.0
 11
344.3312516936
 21
563.7564668972
 31
0.0
  0
ELLIPSE
  5
82
330
1F
100
AcDbEntity
  8
0
  6
Continuous
 62
     7
370
    25
100
AcDbEllipse
 10
349.4698499805
 20
557.5756463186
 30
0.0
 11
-7.383747813458911
 21
7.893956042528202
 31
0.0
210
0.0
220
0.0
230
1.0
 40
0.2065756201
 41
5.343277202616091
 42
5.593104306370305
  0
LINE
  5
83
330
1F
100
AcDbEntity
  8
0
  6
Continuous
 62
     7
370
    25
100
AcDbLine
 10
346.4312516936
 20
563.4636803999
 30
0.0
 11
346.4312516936
 21
563.0240462922
 31
0.0
  0
LINE
  5
84
330
1F
100
AcDbEntity
  8
0
  6
Continuous
 62
     7
370
    25
100
AcDbLine
 10
346.4312516936
 20
563.4636803999
 30
0.0
 11
366.2312516936
 21
563.4636803999
 31
0.0
  0
LINE
  5
85
330
1F
100
AcDbEntity
  8
0
  6
Continuous
 62
     7
370
    25
100
AcDbLine
 10
446.9715102041
 20
466.6299308763
 30
0.0
 11
156.9715102041
 21
466.6299308763
 31
0.0
  0
LINE
  5
86
330
1F
100
AcDbEntity
  8
0
  6
Continuous
 62
     7
370
    25
100
AcDbLine
 10
132.0460076561
 20
441.7044283284
 30
0.0
 11
132.0460076561
 21
106.7044283284
 31
0.0
  0
LINE
  5
87
330
1F
100
AcDbEntity
  8
0
  6
Continuous
 62
     7
370
    25
100
AcDbLine
 10
156.9715102041
 20
81.7789257804
 30
0.0
 11
446.9715102041
 21
81.7789257804
 31
0.0
  0
LINE
  5
88
330
1F
100
AcDbEntity
  8
0
  6
Continuous
 62
     7
370
    25
100
AcDbLine
 10
471.897012752
 20
106.7044283284
 30
0.0
 11
471.897012752
 21
441.7044283284
 31
0.0
  0
ARC
  5
89
330
1F
100
AcDbEntity
  8
0
  6
Continuous
 62
     7
370
    25
100
AcDbCircle
 10
446.9715102041
 20
106.7044283284
 30
0.0
 40
24.92550254794043
100
AcDbArc
 50
270.0
 51
0.0
  0
ARC
  5
8A
330
1F
100
AcDbEntity
  8
0
  6
Continuous
 62
     7
370
    25
100
AcDbCircle
 10
156.9715102041
 20
106.7044283284
 30
0.0
 40
24.92550254794045
100
AcDbArc
 50
180.0
 51
270.0
  0
ARC
  5
8B
330
1F
100
AcDbEntity
  8
0
  6
Continuous
 62
     7
370
    25
100
AcDbCircle
 10
446.9715102041
 20
441.7044283284
 30
0.0
 40
24.92550254794043
100
AcDbArc
 50
0.0
 51
90.0
  0
ARC
  5
8C
330
1F
100
AcDbEntity
  8
0
  6
Continuous
 62
     7
370
    25
100
AcDbCircle
 10
156.9715102041
 20
441.7044283284
 30
0.0
 40
24.92550254794037
100
AcDbArc
 50
90.0
 51
180.0
  0
LINE
  5
8D
330
1F
100
AcDbEntity
  8
0
  6
Continuous
 62
     7
370
    25
100
AcDbLine
 10
156.9756864733
 20
89.1633698802
 30
0.0
 11
156.9715102041
 21
89.150482337
 31
0.0
  0
SPLINE
  5
8E
330
1F
100
AcDbEntity
  8
0
  6
Continuous
 62
     7
370
    25
100
AcDbSpline
210
0.0
220
0.0
230
1.0
 70
     8
 71
     3
 72
    13
 73
     9
 74
     0
 42
0.00000001
 43
0.00000001
 40
0.0
 40
0.0
 40
0.0
 40
0.0
 40
0.1664861396825427
 40
0.3329812993316087
 40
0.4994660550566636
 40
0.6663067480585368
 40
0.8331579135514221
 40
1.0
 40
1.0
 40
1.0
 40
1.0
 10
446.967333928449
 20
89.16336988022717
 30
0.0
 10
430.8821842060001
 20
89.19845203896021
 30
0.0
 10
398.7110132920881
 20
89.26861825712437
 30
0.0
 10
350.4235515569777
 20
89.32598221953256
 30
0.0
 10
302.0919973167775
 20
89.34702304211118
 30
0.0
 10
253.7259766723027
 20
89.3261775821946
 30
0.0
 10
205.3352054033877
 20
89.26881987271837
 30
0.0
 10
173.0952337242629
 20
89.19851924013989
 30
0.0
 10
156.9756864733288
 20
89.16336988021182
 30
0.0
  0
LINE
  5
8F
330
1F
100
AcDbEntity
  8
0
  6
Continuous
 62
     7
370
    25
100
AcDbLine
 10
446.9715102041
 20
89.150482337
 30
0.0
 11
446.9673339285
 21
89.1633698802
 31
0.0
  0
LINE
  5
90
330
1F
100
AcDbEntity
  8
0
  6
Continuous
 62
     7
370
    25
100
AcDbLine
 10
446.9715102041
 20
81.7789257804
 30
0.0
 11
446.9715102041
 21
89.150482337
 31
0.0
  0
LINE
  5
91
330
1F
100
AcDbEntity
  8
0
  6
Continuous
 62
     7
370
    25
100
AcDbLine
 10
156.9715102041
 20
81.7789257804
 30
0.0
 11
156.9715102041
 21
89.150482337
 31
0.0
  0
SPLINE
  5
92
330
1F
100
AcDbEntity
  8
0
  6
Continuous
 62
     7
370
    25
100
AcDbSpline
210
0.0
220
0.0
230
1.0
 70
     8
 71
     3
 72
    15
 73
    11
 74
     0
 42
0.00000001
 43
0.00000001
 40
0.0
 40
0.0
 40
0.0
 40
0.0
 40
0.1277272255720584
 40
0.2500006214609073
 40
0.3758169317197239
 40
0.500000000732818
 40
0.6241812956716665
 40
0.7499993797185059
 40
0.8722718134135489
 40
1.0
 40
1.0
 40
1.0
 40
1.0
 10
156.9715102040825
 20
89.15048233695735
 30
0.0
 10
155.7993153460144
 20
89.22133418994224
 30
0.0
 10
153.5049772228945
 20
89.36001258993517
 30
0.0
 10
150.1914005269341
 20
90.41664122687071
 30
0.0
 10
147.162493262847
 20
92.0310706896614
 30
0.0
 10
144.4949588073901
 20
94.22785398842495
 30
0.0
 10
142.2981619786438
 20
96.89539735528734
 30
0.0
 10
140.6837321701256
 20
99.92429528994545
 30
0.0
 10
139.6270963809843
 20
103.237886412957
 30
0.0
 10
139.4884170663725
 20
105.5322246083122
 30
0.0
 10
139.4175642126777
 20
106.7044283283622
 30
0.0
  0
LINE
  5
93
330
1F
100
AcDbEntity
  8
0
  6
Continuous
 62
     7
370
    25
100
AcDbLine
 10
132.0460076561
 20
106.7044283284
 30
0.0
 11
139.4175642127
 21
106.7044283284
 31
0.0
  0
SPLINE
  5
94
330
1F
100
AcDbEntity
  8
0
  6
Continuous
 62
     7
370
    25
100
AcDbSpline
210
0.0
220
0.0
230
1.0
 70
     8
 71
     3
 72
    15
 73
    11
 74
     0
 42
0.00000001
 43
0.00000001
 40
0.0
 40
0.0
 40
0.0
 40
0.0
 40
0.1277272255748715
 40
0.2500006214609059
 40
0.3758169311157531
 40
0.5000000007328528
 40
0.6241812950806359
 40
0.7499993797184944
 40
0.8722718134307305
 40
0.9999999999999999
 40
0.9999999999999999
 40
0.9999999999999999
 40
0.9999999999999999
 10
464.5254561954874
 20
106.7044283283622
 30
0.0
 10
464.4546043425028
 20
105.5322334702695
 30
0.0
 10
464.3159259425136
 20
103.237895347152
 30
0.0
 10
463.2592973072225
 20
99.92431865650114
 30
0.0
 10
461.6448678460069
 20
96.89541139189275
 30
0.0
 10
459.4480845517623
 20
94.22787693939568
 30
0.0
 10
456.7805411818205
 20
92.03108010607922
 30
0.0
 10
453.7516432475565
 20
90.4166502959556
 30
0.0
 10
450.438052119332
 20
89.3600145052398
 30
0.0
 10
448.1437139239754
 20
89.22133519063769
 30
0.0
 10
446.9715102040826
 20
89.15048233695741
 30
0.0
  0
LINE
  5
95
330
1F
100
AcDbEntity
  8
0
  6
Continuous
 62
     7
370
    25
100
AcDbLine
 10
471.897012752
 20
106.7044283284
 30
0.0
 11
464.5254561955
 21
106.7044283284
 31
0.0
  0
LINE
  5
96
330
1F
100
AcDbEntity
  8
0
  6
Continuous
 62
     7
370
    25
100
AcDbLine
 10
139.8980066313
 20
441.7025303284
 30
0.0
 11
139.8890626366
 21
441.7044283284
 31
0.0
  0
SPLINE
  5
97
330
1F
100
AcDbEntity
  8
0
  6
Continuous
 62
     7
370
    25
100
AcDbSpline
210
0.0
220
0.0
230
1.0
 70
     8
 71
     3
 72
    14
 73
    10
 74
     0
 42
0.00000001
 43
0.00000001
 40
0.0
 40
0.0
 40
0.0
 40
0.0
 40
0.1421653558241426
 40
0.2843364374989546
 40
0.4265001241230321
 40
0.5689494416617654
 40
0.7114078093302308
 40
0.8538541196898948
 40
1.0
 40
1.0
 40
1.0
 40
1.0
 10
139.4175642126777
 20
106.7044283283622
 30
0.0
 10
139.4799383763887
 20
122.5489072607945
 30
0.0
 10
139.6046892159919
 20
154.2385032777588
 30
0.0
 10
139.7506051917814
 20
201.8265433475103
 30
0.0
 10
139.8643547815811
 20
249.4775170220735
 30
0.0
 10
139.9399453429011
 20
297.1893573523772
 30
0.0
 10
139.973165497798
 20
344.9499043201858
 30
0.0
 10
139.9645642057895
 20
393.1296391568606
 30
0.0
 10
139.9203812884912
 20
425.3737834039172
 30
0.0
 10
139.8980066312691
 20
441.7025303284116
 30
0.0
  0
LINE
  5
98
330
1F
100
AcDbEntity
  8
0
  6
Continuous
 62
     7
370
    25
100
AcDbLine
 10
132.0460076561
 20
441.7044283284
 30
0.0
 11
139.8890626366
 21
441.7044283284
 31
0.0
  0
LINE
  5
99
330
1F
100
AcDbEntity
  8
0
  6
Continuous
 62
     7
370
    25
100
AcDbLine
 10
277.7215102041
 20
464.9812406677
 30
0.0
 11
277.7215102041
 21
463.8298496304
 31
0.0
  0
ARC
  5
9A
330
1F
100
AcDbEntity
  8
0
  6
Continuous
 62
     7
370
    25
100
AcDbCircle
 10
278.4721949672
 20
468.5935962937
 30
0.0
 40
4.822531481002843
100
AcDbArc
 50
261.0448095014
 51
272.9633983002
  0
LINE
  5
9B
330
1F
100
AcDbEntity
  8
0
  6
Continuous
 62
     7
370
    25
100
AcDbLine
 10
278.7215102041
 20
463.7775136741
 30
0.0
 11
325.2215102041
 21
463.7775136741
 31
0.0
  0
ARC
  5
9C
330
1F
100
AcDbEntity
  8
0
  6
Continuous
 62
     7
370
    25
100
AcDbCircle
 10
325.470825441
 20
468.5935962937
 30
0.0
 40
4.822531481003177
100
AcDbArc
 50
267.0366016998
 51
278.9551904986
  0
LINE
  5
9D
330
1F
100
AcDbEntity
  8
0
  6
Continuous
 62
     7
370
    25
100
AcDbLine
 10
326.2215102041
 20
463.8298496304
 30
0.0
 11
326.2215102041
 21
464.9812406677
 31
0.0
  0
ARC
  5
9E
330
1F
100
AcDbEntity
  8
0
  6
Continuous
 62
     7
370
    25
100
AcDbCircle
 10
325.470825441
 20
460.2174940045
 30
0.0
 40
4.822531481014263
100
AcDbArc
 50
81.0448095014
 51
92.9633983002
  0
LINE
  5
9F
330
1F
100
AcDbEntity
  8
0
  6
Continuous
 62
     7
370
    25
100
AcDbLine
 10
325.2215102041
 20
465.033576624
 30
0.0
 11
278.7215102041
 21
465.033576624
 31
0.0
  0
ARC
  5
A0
330
1F
100
AcDbEntity
  8
0
  6
Continuous
 62
     7
370
    25
100
AcDbCircle
 10
278.4721949672
 20
460.2174940045
 30
0.0
 40
4.82253148100673
100
AcDbArc
 50
87.0366016998
 51
98.9551904986
  0
SPLINE
  5
A1
330
1F
100
AcDbEntity
  8
0
  6
Continuous
 62
     7
370
    25
100
AcDbSpline
210
0.0
220
0.0
230
1.0
 70
     8
 71
     3
 72
    14
 73
    10
 74
     0
 42
0.00000001
 43
0.00000001
 40
0.0
 40
0.0
 40
0.0
 40
0.0
 40
0.1416418592737026
 40
0.2832827544648179
 40
0.4250451509087887
 40
0.5668053210537427
 40
0.6750778940077848
 40
0.7833514471234172
 40
1.0
 40
1.0
 40
1.0
 40
1.0
 10
156.9715102040823
 20
458.7868758958042
 30
0.0
 10
170.6543868873198
 20
458.7517994751531
 30
0.0
 10
198.0200471215584
 20
458.6816468725979
 30
0.0
 10
239.1074890382075
 20
458.609369848085
 30
0.0
 10
280.2215813669665
 20
458.5672236902136
 30
0.0
 10
318.117462056113
 20
458.5653190136996
 30
0.0
 10
352.7676436210789
 20
458.5956326724734
 30
0.0
 10
394.6498279877283
 20
458.6568663829557
 30
0.0
 10
426.0408771451972
 20
458.7348672200062
 30
0.0
 10
446.9715102040824
 20
458.7868758958042
 30
0.0
  0
LINE
  5
A2
330
1F
100
AcDbEntity
  8
0
  6
Continuous
 62
     7
370
    25
100
AcDbLine
 10
156.9715102041
 20
466.6299308763
 30
0.0
 11
156.9715102041
 21
458.7868758958
 31
0.0
  0
LINE
  5
A3
330
1F
100
AcDbEntity
  8
0
  6
Continuous
 62
     7
370
    25
100
AcDbLine
 10
446.9715102041
 20
466.6299308763
 30
0.0
 11
446.9715102041
 21
458.7868758958
 31
0.0
  0
SPLINE
  5
A4
330
1F
100
AcDbEntity
  8
0
  6
Continuous
 62
     7
370
    25
100
AcDbSpline
210
0.0
220
0.0
230
1.0
 70
     8
 71
     3
 72
    15
 73
    11
 74
     0
 42
0.00000001
 43
0.00000001
 40
0.0
 40
0.0
 40
0.0
 40
0.0
 40
0.1203969716547335
 40
0.2407933190589451
 40
0.3612955072028614
 40
0.4817982483628453
 40
0.6113057324163224
 40
0.7408138661147201
 40
0.8704068237473349
 40
1.0
 40
1.0
 40
1.0
 40
1.0
 10
464.0450137769109
 20
441.7025303377524
 30
0.0
 10
464.0260906714702
 20
428.2510361129721
 30
0.0
 10
463.9882445587038
 20
401.3481174085403
 30
0.0
 10
463.9698803484462
 20
360.9673036400019
 30
0.0
 10
463.9825729909404
 20
320.5748041620004
 30
0.0
 10
464.028322522141
 20
279.1723481953968
 30
0.0
 10
464.1064046752026
 20
236.7803786515152
 30
0.0
 10
464.2172563341924
 20
193.39837668881
 30
0.0
 10
464.3542781297039
 20
150.0334646990368
 30
0.0
 10
464.4683968081403
 20
121.147448573577
 30
0.0
 10
464.5254561954873
 20
106.7044283283622
 30
0.0
  0
LINE
  5
A5
330
1F
100
AcDbEntity
  8
0
  6
Continuous
 62
     7
370
    25
100
AcDbLine
 10
464.0539577715
 20
441.7044283284
 30
0.0
 11
464.0450137769
 21
441.7025303378
 31
0.0
  0
LINE
  5
A6
330
1F
100
AcDbEntity
  8
0
  6
Continuous
 62
     7
370
    25
100
AcDbLine
 10
471.897012752
 20
441.7044283284
 30
0.0
 11
464.0539577715
 21
441.7044283284
 31
0.0
  0
SPLINE
  5
A7
330
1F
100
AcDbEntity
  8
0
  6
Continuous
 62
     7
370
    25
100
AcDbSpline
210
0.0
220
0.0
230
1.0
 70
     8
 71
     3
 72
    15
 73
    11
 74
     0
 42
0.00000001
 43
0.00000001
 40
0.0
 40
0.0
 40
0.0
 40
0.0
 40
0.1277272117026999
 40
0.250000621466342
 40
0.3758169053141822
 40
0.500000000741431
 40
0.6241812692474732
 40
0.7499993797239397
 40
0.8722717995237486
 40
1.0
 40
1.0
 40
1.0
 40
1.0
 10
446.9715102040824
 20
458.7868758958043
 30
0.0
 10
448.1122198215536
 20
458.7179271353674
 30
0.0
 10
450.3449320954597
 20
458.5829736455923
 30
0.0
 10
453.5695060184356
 20
457.554726122486
 30
0.0
 10
456.517057062629
 20
455.9836601900761
 30
0.0
 10
459.1129414992911
 20
453.8458826161478
 30
0.0
 10
461.2507326320817
 20
451.2499892491373
 30
0.0
 10
462.8217989149049
 20
448.3024475472944
 30
0.0
 10
463.8500536035513
 20
445.0778591653366
 30
0.0
 10
463.9850080091184
 20
442.8451468188911
 30
0.0
 10
464.0539577715246
 20
441.7044283283622
 30
0.0
  0
SPLINE
  5
A8
330
1F
100
AcDbEntity
  8
0
  6
Continuous
 62
     7
370
    25
100
AcDbSpline
210
0.0
220
0.0
230
1.0
 70
     8
 71
     3
 72
    15
 73
    11
 74
     0
 42
0.00000001
 43
0.00000001
 40
0.0
 40
0.0
 40
0.0
 40
0.0
 40
0.1277272124220027
 40
0.2500006214662496
 40
0.3758169059605602
 40
0.5000000007414153
 40
0.6241812686443764
 40
0.7499993797240048
 40
0.8722717988525032
 40
1.0
 40
1.0
 40
1.0
 40
1.0
 10
139.8890626366405
 20
441.7044283283621
 30
0.0
 10
139.9580113978021
 20
442.8451379522858
 30
0.0
 10
140.0929648882359
 20
445.0778502262468
 30
0.0
 10
141.1212124147477
 20
448.3024241539124
 30
0.0
 10
142.6922783456795
 20
451.2499751919076
 30
0.0
 10
144.8300559173573
 20
453.8458596230557
 30
0.0
 10
147.4259492786434
 20
455.983650753273
 30
0.0
 10
150.3734909747018
 20
457.5547170347156
 30
0.0
 10
153.5980793610353
 20
458.5829717265398
 30
0.0
 10
155.8307917075321
 20
458.7179261327217
 30
0.0
 10
156.9715102040823
 20
458.7868758958042
 30
0.0
  0
LINE
  5
A9
330
1F
100
AcDbEntity
  8
0
  6
Continuous
 62
     7
370
    25
100
AcDbLine
 10
278.7215102041
 20
463.7775136741
 30
0.0
 11
278.7215102041
 21
464.576417302
 31
0.0
  0
ARC
  5
AA
330
1F
100
AcDbEntity
  8
0
  6
Continuous
 62
     7
370
    25
100
AcDbCircle
 10
278.4721949672
 20
469.3924999215
 30
0.0
 40
4.822531481007124
100
AcDbArc
 50
261.0448095014
 51
272.9633983002
  0
LINE
  5
AB
330
1F
100
AcDbEntity
  8
0
  6
Continuous
 62
     7
370
    25
100
AcDbLine
 10
325.2215102041
 20
463.7775136741
 30
0.0
 11
325.2215102041
 21
464.576417302
 31
0.0
  0
ARC
  5
AC
330
1F
100
AcDbEntity
  8
0
  6
Continuous
 62
     7
370
    25
100
AcDbCircle
 10
325.470825441
 20
469.3924999215
 30
0.0
 40
4.822531481007409
100
AcDbArc
 50
267.0366016998
 51
278.9551904986
  0
LINE
  5
AD
330
1F
100
AcDbEntity
  8
0
  6
Continuous
 62
     7
370
    25
100
AcDbLine
 10
278.7215102041
 20
464.576417302
 30
0.0
 11
325.2215102041
 21
464.576417302
 31
0.0
  0
LINE
  5
AE
330
1F
100
AcDbEntity
  8
0
  6
Continuous
 62
     7
370
    25
100
AcDbLine
 10
139.4175642127
 20
106.7044283284
 30
0.0
 11
139.4743832648
 21
106.6589238413
 31
0.0
  0
SPLINE
  5
AF
330
1F
100
AcDbEntity
  8
0
  6
Continuous
 62
     7
370
    25
100
AcDbSpline
210
0.0
220
0.0
230
1.0
 70
     8
 71
     3
 72
    20
 73
    16
 74
     0
 42
0.00000001
 43
0.00000001
 40
0.0
 40
0.0
 40
0.0
 40
0.0
 40
0.1238994817808226
 40
0.2498468348127867
 40
0.3327161568940996
 40
0.415849342686521
 40
0.5003138827337015
 40
0.5610643330988697
 40
0.6244975982562699
 40
0.685256065704248
 40
0.7501883124678863
 40
0.8087829264722686
 40
0.8744877433555924
 40
0.9261458689734474
 40
1.0
 40
1.0
 40
1.0
 40
1.0
 10
139.8980066312691
 20
441.7025303284116
 30
0.0
 10
140.0639912527128
 20
441.6963817891051
 30
0.0
 10
140.3987039706294
 20
441.6839830844263
 30
0.0
 10
141.8213126620883
 20
441.3391211086617
 30
0.0
 10
143.526276246142
 20
440.8735689117172
 30
0.0
 10
145.314891815797
 20
440.356764827644
 30
0.0
 10
147.2039316185481
 20
439.7894884706865
 30
0.0
 10
149.1083370429701
 20
439.2029042586717
 30
0.0
 10
150.9168216200667
 20
438.6364449169541
 30
0.0
 10
152.8722480709042
 20
438.0145756830846
 30
0.0
 10
154.8673469397971
 20
437.3730935526082
 30
0.0
 10
156.9886647818855
 20
436.6837608560531
 30
0.0
 10
159.0167669161046
 20
436.0208134717922
 30
0.0
 10
161.2588771465201
 20
435.2825997060355
 30
0.0
 10
162.7529913901566
 20
434.7895576539447
 30
0.0
 10
163.6321605810253
 20
434.4994410287622
 30
0.0
  0
SPLINE
  5
B0
330
1F
100
AcDbEntity
  8
0
  6
Continuous
 62
     7
370
    25
100
AcDbSpline
210
0.0
220
0.0
230
1.0
 70
     8
 71
     3
 72
    14
 73
    10
 74
     0
 42
0.00000001
 43
0.00000001
 40
0.0
 40
0.0
 40
0.0
 40
0.0
 40
0.1285392505246246
 40
0.2736230611079025
 40
0.418718319014612
 40
0.5638047450221954
 40
0.7092001461728283
 40
0.8546029035485716
 40
1.0
 40
1.0
 40
1.0
 40
1.0
 10
163.6321605810253
 20
434.4994410287622
 30
0.0
 10
163.6334938530201
 20
420.6839436181112
 30
0.0
 10
163.6363320052811
 20
391.2747267695466
 30
0.0
 10
163.637536445755
 20
346.2553489084833
 30
0.0
 10
163.6407807256315
 20
299.4619136941791
 30
0.0
 10
163.6258467833729
 20
252.6505564514471
 30
0.0
 10
163.5719382683742
 20
205.8328908647113
 30
0.0
 10
163.4778457099589
 20
159.0111862220529
 30
0.0
 10
163.3809750038648
 20
127.8303646421038
 30
0.0
 10
163.3325405936961
 20
112.240257346558
 30
0.0
  0
SPLINE
  5
B1
330
1F
100
AcDbEntity
  8
0
  6
Continuous
 62
     7
370
    25
100
AcDbSpline
210
0.0
220
0.0
230
1.0
 70
     8
 71
     3
 72
    17
 73
    13
 74
     0
 42
0.00000001
 43
0.00000001
 40
0.0
 40
0.0
 40
0.0
 40
0.0
 40
0.1266199350159332
 40
0.2500906723957796
 40
0.3749952093690982
 40
0.5003472215493807
 40
0.6244895802648517
 40
0.7500856353975307
 40
0.8087095798011512
 40
0.8744284842896026
 40
0.9260769690972783
 40
1.0
 40
1.0
 40
1.0
 40
1.0
 10
139.4743832647634
 20
106.6589238413385
 30
0.0
 10
139.6916864128581
 20
106.5996926234235
 30
0.0
 10
140.1208881054183
 20
106.4827033427597
 30
0.0
 10
141.8123956574592
 20
106.6530217168271
 30
0.0
 10
144.1729828021349
 20
107.0663087088081
 30
0.0
 10
147.1976659228556
 20
107.7336854364983
 30
0.0
 10
150.7486451656083
 20
108.6205435129544
 30
0.0
 10
154.0036031925871
 20
109.5032895938299
 30
0.0
 10
156.7738879484521
 20
110.2892603554313
 30
0.0
 10
158.7776011000524
 20
110.8716060539498
 30
0.0
 10
160.9912235759298
 20
111.529014798038
 30
0.0
 10
162.4649617390568
 20
111.9767052556103
 30
0.0
 10
163.3325405936961
 20
112.2402573465662
 30
0.0
  0
SPLINE
  5
B2
330
1F
100
AcDbEntity
  8
0
  6
Continuous
 62
     7
370
    25
100
AcDbSpline
210
0.0
220
0.0
230
1.0
 70
     8
 71
     3
 72
    20
 73
    16
 74
     0
 42
0.00000001
 43
0.00000001
 40
0.0
 40
0.0
 40
0.0
 40
0.0
 40
0.1265688428652103
 40
0.249987360725352
 40
0.3327598806448896
 40
0.4158800365020199
 40
0.5003308538271422
 40
0.5611043053137725
 40
0.6245378460982867
 40
0.685296738884994
 40
0.7501963666869363
 40
0.8087939128917638
 40
0.8744838204705035
 40
0.9261733936587779
 40
0.9999999999999999
 40
0.9999999999999999
 40
0.9999999999999999
 40
0.9999999999999999
 10
156.9756864733291
 20
89.16336988021182
 30
0.0
 10
156.9673528396399
 20
89.3292583655885
 30
0.0
 10
156.950892998149
 20
89.65690633720028
 30
0.0
 10
157.2299088200958
 20
91.03387015844736
 30
0.0
 10
157.6183270197203
 20
92.66225464658758
 30
0.0
 10
158.0632815055658
 20
94.38730686036534
 30
0.0
 10
158.559046112778
 20
96.2134028638546
 30
0.0
 10
159.0768581805948
 20
98.05812522375525
 30
0.0
 10
159.5804736121955
 20
99.8131981415223
 30
0.0
 10
160.1366482475011
 20
101.7139286402982
 30
0.0
 10
160.713646613858
 20
103.6570579851623
 30
0.0
 10
161.3368807608966
 20
105.7271374260056
 30
0.0
 10
161.9395161180884
 20
107.7110879986833
 30
0.0
 10
162.6132902219218
 20
109.9081556739992
 30
0.0
 10
163.0661661983259
 20
111.3765634266818
 30
0.0
 10
163.3325405936964
 20
112.240257346558
 30
0.0
  0
SPLINE
  5
B3
330
1F
100
AcDbEntity
  8
0
  6
Continuous
 62
     7
370
    25
100
AcDbSpline
210
0.0
220
0.0
230
1.0
 70
     8
 71
     3
 72
    13
 73
     9
 74
     0
 42
0.00000001
 43
0.00000001
 40
0.0
 40
0.0
 40
0.0
 40
0.0
 40
0.1532153516038963
 40
0.3335117285126598
 40
0.5138077669700616
 40
0.694287912504337
 40
0.8747684420969073
 40
1.0
 40
1.0
 40
1.0
 40
1.0
 10
163.3325405936961
 20
112.240257346558
 30
0.0
 10
177.4870157274887
 20
112.2605457088567
 30
0.0
 10
208.2977890517238
 20
112.3047084295508
 30
0.0
 10
255.7930778971795
 20
112.3372909603066
 30
0.0
 10
305.8185522175748
 20
112.3474801030734
 30
0.0
 10
355.8600813773062
 20
112.3335877717157
 30
0.0
 10
400.7998838095947
 20
112.2985618305646
 30
0.0
 10
429.0415820897376
 20
112.2572005395784
 30
0.0
 10
440.6104798144688
 20
112.240257346558
 30
0.0
  0
SPLINE
  5
B4
330
1F
100
AcDbEntity
  8
0
  6
Continuous
 62
     7
370
    25
100
AcDbSpline
210
0.0
220
0.0
230
1.0
 70
     8
 71
     3
 72
    17
 73
    13
 74
     0
 42
0.00000001
 43
0.00000001
 40
0.0
 40
0.0
 40
0.0
 40
0.0
 40
0.1266242002821653
 40
0.2500966973960828
 40
0.375001139174683
 40
0.5003518892706043
 40
0.6244925771319276
 40
0.7500871058679411
 40
0.8087091135101013
 40
0.8744289188915394
 40
0.9261485744346063
 40
1.0
 40
1.0
 40
1.0
 40
1.0
 10
446.967333928449
 20
89.1633698802272
 30
0.0
 10
446.9755991356563
 20
89.32949113911754
 30
0.0
 10
446.9919238273126
 20
89.65759886357438
 30
0.0
 10
446.6786245117532
 20
91.20528370504289
 30
0.0
 10
446.134845205161
 20
93.43450347122109
 30
0.0
 10
445.3531909693586
 20
96.34404335355548
 30
0.0
 10
444.3714979814195
 20
99.79939268233534
 30
0.0
 10
443.4289359225925
 20
102.9939428851545
 30
0.0
 10
442.6061864355072
 20
105.7270378443394
 30
0.0
 10
442.0034732741307
 20
107.7111768886585
 30
0.0
 10
441.3297080581098
 20
109.9082370935568
 30
0.0
 10
440.8768290444815
 20
111.3766486044757
 30
0.0
 10
440.6104798144688
 20
112.2402573465581
 30
0.0
  0
SPLINE
  5
B5
330
1F
100
AcDbEntity
  8
0
  6
Continuous
 62
     7
370
    25
100
AcDbSpline
210
0.0
220
0.0
230
1.0
 70
     8
 71
     3
 72
    19
 73
    15
 74
     0
 42
0.00000001
 43
0.00000001
 40
0.0
 40
0.0
 40
0.0
 40
0.0
 40
0.0609285033155404
 40
0.10758519673772
 40
0.1526973776839477
 40
0.203564550732738
 40
0.2498915470303144
 40
0.3355022901934819
 40
0.4181341588157993
 40
0.4997559269722094
 40
0.6250820973863698
 40
0.7499608846711027
 40
0.873406167974859
 40
1.0
 40
1.0
 40
1.0
 40
1.0
 10
440.6104798144689
 20
112.240257346558
 30
0.0
 10
441.3257267495798
 20
112.022746447211
 30
0.0
 10
442.5886821488198
 20
111.6386741062633
 30
0.0
 10
444.3623660876127
 20
111.1095683687107
 30
0.0
 10
446.0001505703432
 20
110.6281999718699
 30
0.0
 10
447.6075542801103
 20
110.1645652915954
 30
0.0
 10
449.6276115119156
 20
109.5929931811412
 30
0.0
 10
451.9161266755094
 20
108.9660675811607
 30
0.0
 10
454.4170776089498
 20
108.3135237747825
 30
0.0
 10
457.0879333553128
 20
107.6581387295737
 30
0.0
 10
459.7702878203531
 20
107.0662407396421
 30
0.0
 10
462.1305590406885
 20
106.6530396515865
 30
0.0
 10
463.8221491388728
 20
106.4826988040425
 30
0.0
 10
464.2513396540736
 20
106.5996911020544
 30
0.0
 10
464.4686371433751
 20
106.6589238477122
 30
0.0
  0
SPLINE
  5
B6
330
1F
100
AcDbEntity
  8
0
  6
Continuous
 62
     7
370
    25
100
AcDbSpline
210
0.0
220
0.0
230
1.0
 70
     8
 71
     3
 72
    15
 73
    11
 74
     0
 42
0.00000001
 43
0.00000001
 40
0.0
 40
0.0
 40
0.0
 40
0.0
 40
0.1297941873541711
 40
0.2595881683953805
 40
0.389456831038737
 40
0.5193249251085722
 40
0.6394460709200768
 40
0.7595667430326072
 40
0.8797831318606988
 40
1.0
 40
1.0
 40
1.0
 40
1.0
 10
440.6104798144688
 20
112.2402573465579
 30
0.0
 10
440.5667503474415
 20
126.1570203009686
 30
0.0
 10
440.4792914828966
 20
153.9905240885483
 30
0.0
 10
440.3885489258148
 20
195.7898090286786
 30
0.0
 10
440.3311189631179
 20
237.6212837823141
 30
0.0
 10
440.3072972080932
 20
278.4365045103571
 30
0.0
 10
440.3060741622666
 20
318.2192817723945
 30
0.0
 10
440.3102884762368
 20
356.9723571529383
 30
0.0
 10
440.3051610528128
 20
395.7366748611725
 30
0.0
 10
440.3089602331728
 20
421.5785018007359
 30
0.0
 10
440.3108598271396
 20
434.4994410287622
 30
0.0
  0
SPLINE
  5
B7
330
1F
100
AcDbEntity
  8
0
  6
Continuous
 62
     7
370
    25
100
AcDbSpline
210
0.0
220
0.0
230
1.0
 70
     8
 71
     3
 72
    19
 73
    15
 74
     0
 42
0.00000001
 43
0.00000001
 40
0.0
 40
0.0
 40
0.0
 40
0.0
 40
0.060891676453129
 40
0.107559278170193
 40
0.1527038169053541
 40
0.2035793155923102
 40
0.2499014344020634
 40
0.3355488354048987
 40
0.4181785294456961
 40
0.4997722410757722
 40
0.6250900273305249
 40
0.7500927226125491
 40
0.8760709826323866
 40
1.0
 40
1.0
 40
1.0
 40
1.0
 10
440.3108598271397
 20
434.4994410287622
 30
0.0
 10
441.03560080718
 20
434.7386489330298
 30
0.0
 10
442.3157859033073
 20
435.1611866428502
 30
0.0
 10
444.1126367448936
 20
435.7530585788816
 30
0.0
 10
445.7713221616924
 20
436.2972699854133
 30
0.0
 10
447.3977599410888
 20
436.8279806714186
 30
0.0
 10
449.4397116004343
 20
437.490832372354
 30
0.0
 10
451.7493566655561
 20
438.2323415138651
 30
0.0
 10
454.2662887271952
 20
439.0270030718696
 30
0.0
 10
456.9438055673268
 20
439.8541856859504
 30
0.0
 10
459.6154949030034
 20
440.6501155853865
 30
0.0
 10
461.9445171022786
 20
441.2963206956995
 30
0.0
 10
463.5436218105525
 20
441.6837751041678
 30
0.0
 10
463.8787992745242
 20
441.6963128631486
 30
0.0
 10
464.0450137769109
 20
441.7025303377524
 30
0.0
  0
LINE
  5
B8
330
1F
100
AcDbEntity
  8
0
  6
Continuous
 62
     7
370
    25
100
AcDbLine
 10
464.4686371434
 20
106.6589238477
 30
0.0
 11
464.5254561955
 21
106.7044283284
 31
0.0
  0
SPLINE
  5
B9
330
1F
100
AcDbEntity
  8
0
  6
Continuous
 62
     7
370
    25
100
AcDbSpline
210
0.0
220
0.0
230
1.0
 70
     8
 71
     3
 72
    15
 73
    11
 74
     0
 42
0.00000001
 43
0.00000001
 40
0.0
 40
0.0
 40
0.0
 40
0.0
 40
0.1250485647648286
 40
0.2500560396443414
 40
0.3750352273637317
 40
0.4999999995579342
 40
0.6249647717823644
 40
0.7499439595730045
 40
0.8749514385700546
 40
0.9999999999999999
 40
0.9999999999999999
 40
0.9999999999999999
 40
0.9999999999999999
 10
446.9673339284517
 20
89.1633698802273
 30
0.0
 10
448.1082500370401
 20
89.23304699979967
 30
0.0
 10
450.3897073589741
 20
89.37237834364079
 30
0.0
 10
453.6814255105132
 20
90.41977324914521
 30
0.0
 10
456.7172069757461
 20
92.03951906533173
 30
0.0
 10
459.3803184290431
 20
94.23092637905519
 30
0.0
 10
461.5736706301936
 20
96.89438734577813
 30
0.0
 10
463.19762965351
 20
99.93285128462331
 30
0.0
 10
464.2512040520555
 20
103.2293214979167
 30
0.0
 10
464.3961515083224
 20
105.5155978581199
 30
0.0
 10
464.4686371433751
 20
106.6589238477122
 30
0.0
  0
SPLINE
  5
BA
330
1F
100
AcDbEntity
  8
0
  6
Continuous
 62
     7
370
    25
100
AcDbSpline
210
0.0
220
0.0
230
1.0
 70
     8
 71
     3
 72
    15
 73
    11
 74
     0
 42
0.00000001
 43
0.00000001
 40
0.0
 40
0.0
 40
0.0
 40
0.0
 40
0.1250485637390565
 40
0.2500560404331589
 40
0.3750352282041681
 40
0.5000000004149736
 40
0.6249647726227966
 40
0.7499439603618185
 40
0.8749514375442687
 40
1.0
 40
1.0
 40
1.0
 40
1.0
 10
156.9756864733288
 20
89.16336988021209
 30
0.0
 10
155.8347703745671
 20
89.23304699874008
 30
0.0
 10
153.5533130463717
 20
89.37237834207524
 30
0.0
 10
150.2615948877254
 20
90.4197732493625
 30
0.0
 10
147.225813410476
 20
92.03951907700828
 30
0.0
 10
144.5627019606525
 20
94.23092639378666
 30
0.0
 10
142.3693497641351
 20
96.89438736206348
 30
0.0
 10
140.7453907534633
 20
99.93285128668647
 30
0.0
 10
139.6918163574814
 20
103.2293214904658
 30
0.0
 10
139.5468689008311
 20
105.5155978427307
 30
0.0
 10
139.4743832647634
 20
106.6589238413385
 30
0.0
  0
LINE
  5
BB
330
1F
100
AcDbEntity
  8
0
  6
Continuous
 62
     7
370
    25
100
AcDbLine
 10
156.9523143679
 20
458.752791487
 30
0.0
 11
156.9715102041
 21
458.7868758958
 31
0.0
  0
LINE
  5
BC
330
1F
100
AcDbEntity
  8
0
  6
Continuous
 62
     7
370
    25
100
AcDbLine
 10
446.9907060496
 20
458.7527914871
 30
0.0
 11
446.9715102041
 21
458.7868758958
 31
0.0
  0
SPLINE
  5
BD
330
1F
100
AcDbEntity
  8
0
  6
Continuous
 62
     7
370
    25
100
AcDbSpline
210
0.0
220
0.0
230
1.0
 70
     8
 71
     3
 72
    19
 73
    15
 74
     0
 42
0.00000001
 43
0.00000001
 40
0.0
 40
0.0
 40
0.0
 40
0.0
 40
0.0571951907011246
 40
0.1012386229203424
 40
0.1527044771278954
 40
0.2035799468192278
 40
0.2499049111694464
 40
0.3355521358503271
 40
0.4181835141861057
 40
0.4997809440829026
 40
0.6251008314803017
 40
0.7501036376053283
 40
0.8760744652838687
 40
1.0
 40
1.0
 40
1.0
 40
1.0
 10
440.3108598271397
 20
434.4994410287622
 30
0.0
 10
440.5341000053683
 20
435.1815142017966
 30
0.0
 10
440.9292473586214
 20
436.3888211085913
 30
0.0
 10
441.5138037450831
 20
438.1948981284481
 30
0.0
 10
442.0629022546153
 20
439.9080063687755
 30
0.0
 10
442.6044308409045
 20
441.6188827808029
 30
0.0
 10
443.2484832406427
 20
443.6790302599304
 30
0.0
 10
443.9631219312773
 20
446.0149190998112
 30
0.0
 10
444.719717996876
 20
448.5693358222147
 30
0.0
 10
445.4956297187213
 20
451.2976420699097
 30
0.0
 10
446.2231496946015
 20
454.0374447390192
 30
0.0
 10
446.7809467798025
 20
456.4548570849543
 30
0.0
 10
447.07240836688
 20
458.1503173293892
 30
0.0
 10
447.0177911492992
 20
458.5530655407744
 30
0.0
 10
446.9907060495861
 20
458.752791487057
 30
0.0
  0
SPLINE
  5
BE
330
1F
100
AcDbEntity
  8
0
  6
Continuous
 62
     7
370
    25
100
AcDbSpline
210
0.0
220
0.0
230
1.0
 70
     8
 71
     3
 72
    14
 73
    10
 74
     0
 42
0.00000001
 43
0.00000001
 40
0.0
 40
0.0
 40
0.0
 40
0.0
 40
0.214532213421905
 40
0.3218404806755493
 40
0.4291479606400775
 40
0.5717931378587126
 40
0.7144401314222913
 40
0.8572195843739369
 40
1.0
 40
1.0
 40
1.0
 40
1.0
 10
440.3108598271396
 20
434.4994410287622
 30
0.0
 10
420.5358576300189
 20
434.4791375395604
 30
0.0
 10
390.8694680889526
 20
434.4486783156522
 30
0.0
 10
351.2851357072328
 20
434.4833058971274
 30
0.0
 10
318.3244469466214
 20
434.5251001772577
 30
0.0
 10
282.0970479239898
 20
434.5177788881376
 30
0.0
 10
242.6041585784899
 20
434.46901247927
 30
0.0
 10
203.1121504954169
 20
434.4550111999742
 30
0.0
 10
176.7921867956224
 20
434.4846310525483
 30
0.0
 10
163.6321605810253
 20
434.4994410287622
 30
0.0
  0
SPLINE
  5
BF
330
1F
100
AcDbEntity
  8
0
  6
Continuous
 62
     7
370
    25
100
AcDbSpline
210
0.0
220
0.0
230
1.0
 70
     8
 71
     3
 72
    19
 73
    15
 74
     0
 42
0.00000001
 43
0.00000001
 40
0.0
 40
0.0
 40
0.0
 40
0.0
 40
0.0572170919384312
 40
0.1012397191517093
 40
0.1527050890721181
 40
0.2035808683506706
 40
0.2499049067935501
 40
0.3355531512428723
 40
0.4181845737194115
 40
0.4997809419083347
 40
0.6251008305048591
 40
0.7501036373913962
 40
0.8760750143916405
 40
1.0
 40
1.0
 40
1.0
 40
1.0
 10
163.6321605810253
 20
434.4994410287622
 30
0.0
 10
163.4088356449915
 20
435.1817756193283
 30
0.0
 10
163.013685296771
 20
436.3890960191617
 30
0.0
 10
162.4291275486724
 20
438.195174549387
 30
0.0
 10
161.8801087788329
 20
439.9080372311352
 30
0.0
 10
161.3385838660835
 20
441.6189002611874
 30
0.0
 10
160.6945308270103
 20
443.6790518988255
 30
0.0
 10
159.9798912442365
 20
446.0149414457247
 30
0.0
 10
159.2232972641273
 20
448.5693561299557
 30
0.0
 10
158.4473883117203
 20
451.2976507967643
 30
0.0
 10
157.7198711097591
 20
454.0374447778665
 30
0.0
 10
157.162072349526
 20
456.4548606101771
 30
0.0
 10
156.8706141031618
 20
458.1503192719408
 30
0.0
 10
156.9252300288806
 20
458.5530667764424
 30
0.0
 10
156.9523143679164
 20
458.7527914870311
 30
0.0
  0
SPLINE
  5
C0
330
1F
100
AcDbEntity
  8
0
  6
Continuous
 62
     7
370
    25
100
AcDbSpline
210
0.0
220
0.0
230
1.0
 70
     8
 71
     3
 72
    15
 73
    11
 74
     0
 42
0.00000001
 43
0.00000001
 40
0.0
 40
0.0
 40
0.0
 40
0.0
 40
0.1250258700962927
 40
0.2500298668122468
 40
0.3750187806357309
 40
0.499999999559929
 40
0.624981218505434
 40
0.7499701323940445
 40
0.8749741324286368
 40
1.0
 40
1.0
 40
1.0
 40
1.0
 10
464.0450137769109
 20
441.7025303377574
 30
0.0
 10
463.9777018783314
 20
442.8152934068954
 30
0.0
 10
463.8430898574453
 20
445.0406248663434
 30
0.0
 10
462.8230465750863
 20
448.2512668185822
 30
0.0
 10
461.2442423033896
 20
451.2119405197423
 30
0.0
 10
459.1073922987736
 20
453.8082599270733
 30
0.0
 10
456.5099380671291
 20
455.9451214255266
 30
0.0
 10
453.5470031590477
 20
457.5251092519432
 30
0.0
 10
450.3331289738013
 20
458.5473801489422
 30
0.0
 10
448.104911984053
 20
458.6843170488655
 30
0.0
 10
446.9907060495862
 20
458.752791487057
 30
0.0
  0
SPLINE
  5
C1
330
1F
100
AcDbEntity
  8
0
  6
Continuous
 62
     7
370
    25
100
AcDbSpline
210
0.0
220
0.0
230
1.0
 70
     8
 71
     3
 72
    15
 73
    11
 74
     0
 42
0.00000001
 43
0.00000001
 40
0.0
 40
0.0
 40
0.0
 40
0.0
 40
0.1250258690640295
 40
0.2500298676061396
 40
0.3750187814816455
 40
0.5000000004225784
 40
0.6249812193513488
 40
0.7499701331879431
 40
0.8749741313963791
 40
1.0
 40
1.0
 40
1.0
 40
1.0
 10
139.8980066312691
 20
441.7025303284117
 30
0.0
 10
139.9653185288902
 20
442.815293388918
 30
0.0
 10
140.0999305493984
 20
445.0406248565434
 30
0.0
 10
141.1199738344363
 20
448.251266818691
 30
0.0
 10
142.6987781188199
 20
451.2119405343395
 30
0.0
 10
144.835628128387
 20
453.8082599406221
 30
0.0
 10
147.4330823639267
 20
455.9451214364681
 30
0.0
 10
150.3960172607532
 20
457.5251092519267
 30
0.0
 10
153.6098914395938
 20
458.5473801473569
 30
0.0
 10
155.8381084235891
 20
458.6843170477978
 30
0.0
 10
156.9523143679164
 20
458.7527914870311
 30
0.0
  0
CIRCLE
  5
C2
330
1F
100
AcDbEntity
  8
0
  6
Continuous
 62
     7
370
    25
100
AcDbCircle
 10
301.9715102041
 20
356.7044283284
 30
0.0
 40
70.00000000000006
  0
CIRCLE
  5
C3
330
1F
100
AcDbEntity
  8
0
  6
Continuous
 62
     7
370
    25
100
AcDbCircle
 10
301.9715102041
 20
356.7044283284
 30
0.0
 40
58.94765075494627
  0
CIRCLE
  5
C4
330
1F
100
AcDbEntity
  8
0
  6
Continuous
 62
     7
370
    25
100
AcDbCircle
 10
301.9715102041
 20
356.7044283284
 30
0.0
 40
57.5
  0
CIRCLE
  5
C5
330
1F
100
AcDbEntity
  8
0
  6
Continuous
 62
     7
370
    25
100
AcDbCircle
 10
301.9715102041
 20
356.7044283284
 30
0.0
 40
56.58715574274771
  0
CIRCLE
  5
C6
330
1F
100
AcDbEntity
  8
0
  6
Continuous
 62
     7
370
    25
100
AcDbCircle
 10
301.9715102041
 20
356.7044283284
 30
0.0
 40
45.00000000000006
  0
LINE
  5
C7
330
1F
100
AcDbEntity
  8
0
  6
Continuous
 62
     7
370
    25
100
AcDbLine
 10
113.9715102041
 20
521.9344283284
 30
0.0
 11
114.7376357934
 21
521.9344283284
 31
0.0
  0
ARC
  5
C8
330
1F
100
AcDbEntity
  8
0
  6
Continuous
 62
     7
370
    25
100
AcDbCircle
 10
136.9715102041
 20
521.9344283284
 30
0.0
 40
23.00000000000011
100
AcDbArc
 50
90.0
 51
180.0
  0
LINE
  5
C9
330
1F
100
AcDbEntity
  8
0
  6
Continuous
 62
     7
370
    25
100
AcDbLine
 10
136.9715102041
 20
544.9344283284
 30
0.0
 11
136.9715102041
 21
544.168302739
 31
0.0
  0
ARC
  5
CA
330
1F
100
AcDbEntity
  8
0
  6
Continuous
 62
     7
370
    25
100
AcDbCircle
 10
136.9715102041
 20
521.9344283284
 30
0.0
 40
22.23387441067962
100
AcDbArc
 50
90.0
 51
180.0
  0
LINE
  5
CB
330
1F
100
AcDbEntity
  8
0
  6
Continuous
 62
     7
370
    25
100
AcDbLine
 10
489.9715102041
 20
521.9344283284
 30
0.0
 11
489.2053846148
 21
521.9344283284
 31
0.0
  0
LINE
  5
CC
330
1F
100
AcDbEntity
  8
0
  6
Continuous
 62
     7
370
    25
100
AcDbLine
 10
489.9715102041
 20
302.9344283284
 30
0.0
 11
489.9715102041
 21
521.9344283284
 31
0.0
  0
LINE
  5
CD
330
1F
100
AcDbEntity
  8
0
  6
Continuous
 62
     7
370
    25
100
AcDbLine
 10
489.9715102041
 20
302.9344283284
 30
0.0
 11
489.2053846148
 21
302.9344283284
 31
0.0
  0
LINE
  5
CE
330
1F
100
AcDbEntity
  8
0
  6
Continuous
 62
     7
370
    25
100
AcDbLine
 10
489.2053846148
 20
302.9344283284
 30
0.0
 11
489.2053846148
 21
521.9344283284
 31
0.0
  0
LINE
  5
CF
330
1F
100
AcDbEntity
  8
0
  6
Continuous
 62
     7
370
    25
100
AcDbLine
 10
489.9715102041
 20
83.9344283284
 30
0.0
 11
489.2053846148
 21
83.9344283284
 31
0.0
  0
ARC
  5
D0
330
1F
100
AcDbEntity
  8
0
  6
Continuous
 62
     7
370
    25
100
AcDbCircle
 10
466.9715102041
 20
83.9344283284
 30
0.0
 40
22.99999999999999
100
AcDbArc
 50
270.0
 51
0.0
  0
LINE
  5
D1
330
1F
100
AcDbEntity
  8
0
  6
Continuous
 62
     7
370
    25
100
AcDbLine
 10
466.9715102041
 20
60.9344283284
 30
0.0
 11
466.9715102041
 21
61.7005539177
 31
0.0
  0
ARC
  5
D2
330
1F
100
AcDbEntity
  8
0
  6
Continuous
 62
     7
370
    25
100
AcDbCircle
 10
466.9715102041
 20
83.9344283284
 30
0.0
 40
22.23387441067958
100
AcDbArc
 50
270.0
 51
0.0
  0
LINE
  5
D3
330
1F
100
AcDbEntity
  8
0
  6
Continuous
 62
     7
370
    25
100
AcDbLine
 10
113.9715102041
 20
83.9344283284
 30
0.0
 11
114.7376357934
 21
83.9344283284
 31
0.0
  0
LINE
  5
D4
330
1F
100
AcDbEntity
  8
0
  6
Continuous
 62
     7
370
    25
100
AcDbLine
 10
113.9715102041
 20
521.9344283284
 30
0.0
 11
113.9715102041
 21
83.9344283284
 31
0.0
  0
LINE
  5
D5
330
1F
100
AcDbEntity
  8
0
  6
Continuous
 62
     7
370
    25
100
AcDbLine
 10
114.7376357934
 20
521.9344283284
 30
0.0
 11
114.7376357934
 21
83.9344283284
 31
0.0
  0
LINE
  5
D6
330
1F
100
AcDbEntity
  8
0
  6
Continuous
 62
     7
370
    25
100
AcDbLine
 10
136.9715102041
 20
60.9344283284
 30
0.0
 11
466.9715102041
 21
60.9344283284
 31
0.0
  0
LINE
  5
D7
330
1F
100
AcDbEntity
  8
0
  6
Continuous
 62
     7
370
    25
100
AcDbLine
 10
136.9715102041
 20
60.9344283284
 30
0.0
 11
136.9715102041
 21
61.7005539177
 31
0.0
  0
LINE
  5
D8
330
1F
100
AcDbEntity
  8
0
  6
Continuous
 62
     7
370
    25
100
AcDbLine
 10
136.9715102041
 20
61.7005539177
 30
0.0
 11
466.9715102041
 21
61.7005539177
 31
0.0
  0
ARC
  5
D9
330
1F
100
AcDbEntity
  8
0
  6
Continuous
 62
     7
370
    25
100
AcDbCircle
 10
466.9715102041
 20
521.9344283284
 30
0.0
 40
23.00000000000011
100
AcDbArc
 50
0.0
 51
90.0
  0
LINE
  5
DA
330
1F
100
AcDbEntity
  8
0
  6
Continuous
 62
     7
370
    25
100
AcDbLine
 10
466.9715102041
 20
544.9344283284
 30
0.0
 11
136.9715102041
 21
544.9344283284
 31
0.0
  0
ARC
  5
DB
330
1F
100
AcDbEntity
  8
0
  6
Continuous
 62
     7
370
    25
100
AcDbCircle
 10
136.9715102041
 20
83.9344283284
 30
0.0
 40
22.99999999999999
100
AcDbArc
 50
180.0
 51
270.0
  0
LINE
  5
DC
330
1F
100
AcDbEntity
  8
0
  6
Continuous
 62
     7
370
    25
100
AcDbLine
 10
489.9715102041
 20
83.9344283284
 30
0.0
 11
489.9715102041
 21
302.9344283284
 31
0.0
  0
ARC
  5
DD
330
1F
100
AcDbEntity
  8
0
  6
Continuous
 62
     7
370
    25
100
AcDbCircle
 10
105.9715102041
 20
552.9344283284
 30
0.0
 40
10.0
100
AcDbArc
 50
90.0
 51
180.0
  0
LINE
  5
DE
330
1F
100
AcDbEntity
  8
0
  6
Continuous
 62
     7
370
    25
100
AcDbLine
 10
105.9715102041
 20
42.9344283284
 30
0.0
 11
497.9715102041
 21
42.9344283284
 31
0.0
  0
LINE
  5
DF
330
1F
100
AcDbEntity
  8
0
  6
Continuous
 62
     7
370
    25
100
AcDbLine
 10
95.9715102041
 20
552.9344283284
 30
0.0
 11
95.9715102041
 21
52.9344283284
 31
0.0
  0
ARC
  5
E0
330
1F
100
AcDbEntity
  8
0
  6
Continuous
 62
     7
370
    25
100
AcDbCircle
 10
497.9715102041
 20
52.9344283284
 30
0.0
 40
10.00000000000001
100
AcDbArc
 50
270.0
 51
0.0
  0
ARC
  5
E1
330
1F
100
AcDbEntity
  8
0
  6
Continuous
 62
     7
370
    25
100
AcDbCircle
 10
497.9715102041
 20
552.9344283284
 30
0.0
 40
10.0
100
AcDbArc
 50
0.0
 51
90.0
  0
ARC
  5
E2
330
1F
100
AcDbEntity
  8
0
  6
Continuous
 62
     7
370
    25
100
AcDbCircle
 10
105.9715102041
 20
52.9344283284
 30
0.0
 40
10.00000000000001
100
AcDbArc
 50
180.0
 51
270.0
  0
LINE
  5
E3
330
1F
100
AcDbEntity
  8
0
  6
Continuous
 62
     7
370
    25
100
AcDbLine
 10
497.9715102041
 20
562.9344283284
 30
0.0
 11
105.9715102041
 21
562.9344283284
 31
0.0
  0
LINE
  5
E4
330
1F
100
AcDbEntity
  8
0
  6
Continuous
 62
     7
370
    25
100
AcDbLine
 10
507.9715102041
 20
52.9344283284
 30
0.0
 11
507.9715102041
 21
552.9344283284
 31
0.0
  0
ARC
  5
E5
330
1F
100
AcDbEntity
  8
0
  6
Continuous
 62
     7
370
    25
100
AcDbCircle
 10
136.9715102041
 20
83.9344283284
 30
0.0
 40
22.23387441067959
100
AcDbArc
 50
180.0
 51
270.0
  0
LINE
  5
E6
330
1F
100
AcDbEntity
  8
0
  6
Continuous
 62
     7
370
    25
100
AcDbLine
 10
466.9715102041
 20
544.9344283284
 30
0.0
 11
466.9715102041
 21
544.168302739
 31
0.0
  0
LINE
  5
E7
330
1F
100
AcDbEntity
  8
0
  6
Continuous
 62
     7
370
    25
100
AcDbLine
 10
466.9715102041
 20
544.168302739
 30
0.0
 11
136.9715102041
 21
544.168302739
 31
0.0
  0
LINE
  5
E8
330
1F
100
AcDbEntity
  8
0
  6
Continuous
 62
     7
370
    25
100
AcDbLine
 10
489.2053846148
 20
83.9344283284
 30
0.0
 11
489.2053846148
 21
302.9344283284
 31
0.0
  0
ARC
  5
E9
330
1F
100
AcDbEntity
  8
0
  6
Continuous
 62
     7
370
    25
100
AcDbCircle
 10
466.9715102041
 20
521.9344283284
 30
0.0
 40
22.23387441067962
100
AcDbArc
 50
0.0
 51
90.0
  0
LINE
  5
EA
330
1F
100
AcDbEntity
  8
0
  6
Continuous
 62
     7
370
    25
100
AcDbLine
 10
114.7376357934
 20
83.9344283284
 30
0.0
 11
115.695245221
 21
83.9344283284
 31
0.0
  0
LINE
  5
EB
330
1F
100
AcDbEntity
  8
0
  6
Continuous
 62
     7
370
    25
100
AcDbLine
 10
114.7376357934
 20
521.9344283284
 30
0.0
 11
115.695245221
 21
521.9344283284
 31
0.0
  0
LINE
  5
EC
330
1F
100
AcDbEntity
  8
0
  6
Continuous
 62
     7
370
    25
100
AcDbLine
 10
115.695245221
 20
521.9344283284
 30
0.0
 11
115.695245221
 21
83.9344283284
 31
0.0
  0
LINE
  5
ED
330
1F
100
AcDbEntity
  8
0
  6
Continuous
 62
     7
370
    25
100
AcDbLine
 10
489.2053846148
 20
83.9344283284
 30
0.0
 11
488.2477751872
 21
83.9344283284
 31
0.0
  0
LINE
  5
EE
330
1F
100
AcDbEntity
  8
0
  6
Continuous
 62
     7
370
    25
100
AcDbLine
 10
488.2477751872
 20
83.9344283284
 30
0.0
 11
488.2477751872
 21
302.9344283284
 31
0.0
  0
LINE
  5
EF
330
1F
100
AcDbEntity
  8
0
  6
Continuous
 62
     7
370
    25
100
AcDbLine
 10
489.2053846148
 20
302.9344283284
 30
0.0
 11
488.2477751872
 21
302.9344283284
 31
0.0
  0
LINE
  5
F0
330
1F
100
AcDbEntity
  8
0
  6
Continuous
 62
     7
370
    25
100
AcDbLine
 10
136.9715102041
 20
544.168302739
 30
0.0
 11
136.9715102041
 21
543.2106933114
 31
0.0
  0
ARC
  5
F1
330
1F
100
AcDbEntity
  8
0
  6
Continuous
 62
     7
370
    25
100
AcDbCircle
 10
136.9715102041
 20
521.9344283284
 30
0.0
 40
21.27626498307328
100
AcDbArc
 50
90.0
 51
180.0
  0
LINE
  5
F2
330
1F
100
AcDbEntity
  8
0
  6
Continuous
 62
     7
370
    25
100
AcDbLine
 10
466.9715102041
 20
61.7005539177
 30
0.0
 11
466.9715102041
 21
62.6581633453
 31
0.0
  0
ARC
  5
F3
330
1F
100
AcDbEntity
  8
0
  6
Continuous
 62
     7
370
    25
100
AcDbCircle
 10
466.9715102041
 20
83.9344283284
 30
0.0
 40
21.27626498307328
100
AcDbArc
 50
270.0
 51
0.0
  0
LINE
  5
F4
330
1F
100
AcDbEntity
  8
0
  6
Continuous
 62
     7
370
    25
100
AcDbLine
 10
136.9715102041
 20
61.7005539177
 30
0.0
 11
136.9715102041
 21
62.6581633453
 31
0.0
  0
ARC
  5
F5
330
1F
100
AcDbEntity
  8
0
  6
Continuous
 62
     7
370
    25
100
AcDbCircle
 10
136.9715102041
 20
83.9344283284
 30
0.0
 40
21.27626498307328
100
AcDbArc
 50
180.0
 51
270.0
  0
LINE
  5
F6
330
1F
100
AcDbEntity
  8
0
  6
Continuous
 62
     7
370
    25
100
AcDbLine
 10
136.9715102041
 20
62.6581633453
 30
0.0
 11
466.9715102041
 21
62.6581633453
 31
0.0
  0
LINE
  5
F7
330
1F
100
AcDbEntity
  8
0
  6
Continuous
 62
     7
370
    25
100
AcDbLine
 10
466.9715102041
 20
544.168302739
 30
0.0
 11
466.9715102041
 21
543.2106933114
 31
0.0
  0
LINE
  5
F8
330
1F
100
AcDbEntity
  8
0
  6
Continuous
 62
     7
370
    25
100
AcDbLine
 10
466.9715102041
 20
543.2106933114
 30
0.0
 11
136.9715102041
 21
543.2106933114
 31
0.0
  0
LINE
  5
F9
330
1F
100
AcDbEntity
  8
0
  6
Continuous
 62
     7
370
    25
100
AcDbLine
 10
489.2053846148
 20
521.9344283284
 30
0.0
 11
488.2477751872
 21
521.9344283284
 31
0.0
  0
LINE
  5
FA
330
1F
100
AcDbEntity
  8
0
  6
Continuous
 62
     7
370
    25
100
AcDbLine
 10
488.2477751872
 20
302.9344283284
 30
0.0
 11
488.2477751872
 21
521.9344283284
 31
0.0
  0
ARC
  5
FB
330
1F
100
AcDbEntity
  8
0
  6
Continuous
 62
     7
370
    25
100
AcDbCircle
 10
466.9715102041
 20
521.9344283284
 30
0.0
 40
21.27626498307325
100
AcDbArc
 50
0.0
 51
90.0
  0
LINE
  5
FC
330
1F
100
AcDbEntity
  8
0
  6
Continuous
 62
     7
370
    25
100
AcDbLine
 10
488.2477751872
 20
83.9344283284
 30
0.0
 11
482.8848960619
 21
83.9344283284
 31
0.0
  0
LINE
  5
FD
330
1F
100
AcDbEntity
  8
0
  6
Continuous
 62
     7
370
    25
100
AcDbLine
 10
482.8848960619
 20
83.9344283284
 30
0.0
 11
482.8848960619
 21
302.9344283284
 31
0.0
  0
LINE
  5
FE
330
1F
100
AcDbEntity
  8
0
  6
Continuous
 62
     7
370
    25
100
AcDbLine
 10
488.2477751872
 20
302.9344283284
 30
0.0
 11
482.8848960619
 21
302.9344283284
 31
0.0
  0
LINE
  5
FF
330
1F
100
AcDbEntity
  8
0
  6
Continuous
 62
     7
370
    25
100
AcDbLine
 10
115.695245221
 20
521.9344283284
 30
0.0
 11
121.0581243463
 21
521.9344283284
 31
0.0
  0
LINE
  5
100
330
1F
100
AcDbEntity
  8
0
  6
Continuous
 62
     7
370
    25
100
AcDbLine
 10
136.9715102041
 20
543.2106933114
 30
0.0
 11
136.9715102041
 21
537.8478141862
 31
0.0
  0
ARC
  5
101
330
1F
100
AcDbEntity
  8
0
  6
Continuous
 62
     7
370
    25
100
AcDbCircle
 10
136.9715102041
 20
521.9344283284
 30
0.0
 40
15.91338585783035
100
AcDbArc
 50
90.0
 51
180.0
  0
LINE
  5
102
330
1F
100
AcDbEntity
  8
0
  6
Continuous
 62
     7
370
    25
100
AcDbLine
 10
488.2477751872
 20
521.9344283284
 30
0.0
 11
482.8848960619
 21
521.9344283284
 31
0.0
  0
LINE
  5
103
330
1F
100
AcDbEntity
  8
0
  6
Continuous
 62
     7
370
    25
100
AcDbLine
 10
482.8848960619
 20
302.9344283284
 30
0.0
 11
482.8848960619
 21
521.9344283284
 31
0.0
  0
LINE
  5
104
330
1F
100
AcDbEntity
  8
0
  6
Continuous
 62
     7
370
    25
100
AcDbLine
 10
466.9715102041
 20
62.6581633453
 30
0.0
 11
466.9715102041
 21
68.0210424705
 31
0.0
  0
ARC
  5
105
330
1F
100
AcDbEntity
  8
0
  6
Continuous
 62
     7
370
    25
100
AcDbCircle
 10
466.9715102041
 20
83.9344283284
 30
0.0
 40
15.91338585783025
100
AcDbArc
 50
270.0
 51
0.0
  0
LINE
  5
106
330
1F
100
AcDbEntity
  8
0
  6
Continuous
 62
     7
370
    25
100
AcDbLine
 10
115.695245221
 20
83.9344283284
 30
0.0
 11
121.0581243463
 21
83.9344283284
 31
0.0
  0
LINE
  5
107
330
1F
100
AcDbEntity
  8
0
  6
Continuous
 62
     7
370
    25
100
AcDbLine
 10
121.0581243463
 20
521.9344283284
 30
0.0
 11
121.0581243463
 21
83.9344283284
 31
0.0
  0
LINE
  5
108
330
1F
100
AcDbEntity
  8
0
  6
Continuous
 62
     7
370
    25
100
AcDbLine
 10
466.9715102041
 20
543.2106933114
 30
0.0
 11
466.9715102041
 21
537.8478141862
 31
0.0
  0
LINE
  5
109
330
1F
100
AcDbEntity
  8
0
  6
Continuous
 62
     7
370
    25
100
AcDbLine
 10
466.9715102041
 20
537.8478141862
 30
0.0
 11
136.9715102041
 21
537.8478141862
 31
0.0
  0
LINE
  5
10A
330
1F
100
AcDbEntity
  8
0
  6
Continuous
 62
     7
370
    25
100
AcDbLine
 10
136.9715102041
 20
62.6581633453
 30
0.0
 11
136.9715102041
 21
68.0210424705
 31
0.0
  0
LINE
  5
10B
330
1F
100
AcDbEntity
  8
0
  6
Continuous
 62
     7
370
    25
100
AcDbLine
 10
136.9715102041
 20
68.0210424705
 30
0.0
 11
466.9715102041
 21
68.0210424705
 31
0.0
  0
ARC
  5
10C
330
1F
100
AcDbEntity
  8
0
  6
Continuous
 62
     7
370
    25
100
AcDbCircle
 10
466.9715102041
 20
521.9344283284
 30
0.0
 40
15.91338585783035
100
AcDbArc
 50
0.0
 51
90.0
  0
ARC
  5
10D
330
1F
100
AcDbEntity
  8
0
  6
Continuous
 62
     7
370
    25
100
AcDbCircle
 10
136.9715102041
 20
83.9344283284
 30
0.0
 40
15.91338585783025
100
AcDbArc
 50
180.0
 51
270.0
  0
LINE
  5
10E
330
1F
100
AcDbEntity
  8
0
  6
Continuous
 62
     7
370
    25
100
AcDbLine
 10
477.9715102041
 20
441.2044283284
 30
0.0
 11
477.9715102041
 21
107.2044283284
 31
0.0
  0
LINE
  5
10F
330
1F
100
AcDbEntity
  8
0
  6
Continuous
 62
     7
370
    25
100
AcDbLine
 10
477.9715102041
 20
107.2044283284
 30
0.0
 11
472.9715102041
 21
107.2044283284
 31
0.0
  0
LINE
  5
110
330
1F
100
AcDbEntity
  8
0
  6
Continuous
 62
     7
370
    25
100
AcDbLine
 10
472.9715102041
 20
107.2044283284
 30
0.0
 11
472.9715102041
 21
441.2044283284
 31
0.0
  0
LINE
  5
111
330
1F
100
AcDbEntity
  8
0
  6
Continuous
 62
     7
370
    25
100
AcDbLine
 10
477.9715102041
 20
441.2044283284
 30
0.0
 11
472.9715102041
 21
441.2044283284
 31
0.0
  0
ARC
  5
112
330
1F
100
AcDbEntity
  8
0
  6
Continuous
 62
     7
370
    25
100
AcDbCircle
 10
446.4715102041
 20
441.2044283284
 30
0.0
 40
31.49999999999989
100
AcDbArc
 50
0.0
 51
90.0
  0
LINE
  5
113
330
1F
100
AcDbEntity
  8
0
  6
Continuous
 62
     7
370
    25
100
AcDbLine
 10
157.4715102041
 20
472.7044283284
 30
0.0
 11
446.4715102041
 21
472.7044283284
 31
0.0
  0
ARC
  5
114
330
1F
100
AcDbEntity
  8
0
  6
Continuous
 62
     7
370
    25
100
AcDbCircle
 10
157.4715102041
 20
441.2044283284
 30
0.0
 40
31.4999999999999
100
AcDbArc
 50
90.0
 51
180.0
  0
LINE
  5
115
330
1F
100
AcDbEntity
  8
0
  6
Continuous
 62
     7
370
    25
100
AcDbLine
 10
125.9715102041
 20
107.2044283284
 30
0.0
 11
125.9715102041
 21
441.2044283284
 31
0.0
  0
ARC
  5
116
330
1F
100
AcDbEntity
  8
0
  6
Continuous
 62
     7
370
    25
100
AcDbCircle
 10
157.4715102041
 20
107.2044283284
 30
0.0
 40
31.4999999999999
100
AcDbArc
 50
180.0
 51
270.0
  0
LINE
  5
117
330
1F
100
AcDbEntity
  8
0
  6
Continuous
 62
     7
370
    25
100
AcDbLine
 10
446.4715102041
 20
75.7044283284
 30
0.0
 11
157.4715102041
 21
75.7044283284
 31
0.0
  0
ARC
  5
118
330
1F
100
AcDbEntity
  8
0
  6
Continuous
 62
     7
370
    25
100
AcDbCircle
 10
446.4715102041
 20
107.2044283284
 30
0.0
 40
31.49999999999994
100
AcDbArc
 50
270.0
 51
0.0
  0
CIRCLE
  5
119
330
1F
100
AcDbEntity
  8
0
  6
Continuous
 62
     7
370
    25
100
AcDbCircle
 10
301.9715102041
 20
506.9344283284
 30
0.0
 40
17.50000000000006
  0
ARC
  5
11A
330
1F
100
AcDbEntity
  8
0
  6
Continuous
 62
     7
370
    25
100
AcDbCircle
 10
157.4715102041
 20
441.2044283284
 30
0.0
 40
26.5
100
AcDbArc
 50
90.0
 51
180.0
  0
LINE
  5
11B
330
1F
100
AcDbEntity
  8
0
  6
Continuous
 62
     7
370
    25
100
AcDbLine
 10
130.9715102041
 20
441.2044283284
 30
0.0
 11
125.9715102041
 21
441.2044283284
 31
0.0
  0
LINE
  5
11C
330
1F
100
AcDbEntity
  8
0
  6
Continuous
 62
     7
370
    25
100
AcDbLine
 10
157.4715102041
 20
467.7044283284
 30
0.0
 11
157.4715102041
 21
472.7044283284
 31
0.0
  0
ARC
  5
11D
330
1F
100
AcDbEntity
  8
0
  6
Continuous
 62
     7
370
    25
100
AcDbCircle
 10
446.4715102041
 20
441.2044283284
 30
0.0
 40
26.5
100
AcDbArc
 50
0.0
 51
90.0
  0
LINE
  5
11E
330
1F
100
AcDbEntity
  8
0
  6
Continuous
 62
     7
370
    25
100
AcDbLine
 10
446.4715102041
 20
472.7044283284
 30
0.0
 11
446.4715102041
 21
467.7044283284
 31
0.0
  0
LINE
  5
11F
330
1F
100
AcDbEntity
  8
0
  6
Continuous
 62
     7
370
    25
100
AcDbLine
 10
130.9715102041
 20
441.2044283284
 30
0.0
 11
130.9715102041
 21
107.2044283284
 31
0.0
  0
LINE
  5
120
330
1F
100
AcDbEntity
  8
0
  6
Continuous
 62
     7
370
    25
100
AcDbLine
 10
130.9715102041
 20
107.2044283284
 30
0.0
 11
125.9715102041
 21
107.2044283284
 31
0.0
  0
LINE
  5
121
330
1F
100
AcDbEntity
  8
0
  6
Continuous
 62
     7
370
    25
100
AcDbLine
 10
446.4715102041
 20
467.7044283284
 30
0.0
 11
157.4715102041
 21
467.7044283284
 31
0.0
  0
ARC
  5
122
330
1F
100
AcDbEntity
  8
0
  6
Continuous
 62
     7
370
    25
100
AcDbCircle
 10
157.4715102041
 20
107.2044283284
 30
0.0
 40
26.5
100
AcDbArc
 50
180.0
 51
270.0
  0
LINE
  5
123
330
1F
100
AcDbEntity
  8
0
  6
Continuous
 62
     7
370
    25
100
AcDbLine
 10
157.4715102041
 20
80.7044283284
 30
0.0
 11
157.4715102041
 21
75.7044283284
 31
0.0
  0
LINE
  5
124
330
1F
100
AcDbEntity
  8
0
  6
Continuous
 62
     7
370
    25
100
AcDbLine
 10
157.4715102041
 20
80.7044283284
 30
0.0
 11
446.4715102041
 21
80.7044283284
 31
0.0
  0
LINE
  5
125
330
1F
100
AcDbEntity
  8
0
  6
Continuous
 62
     7
370
    25
100
AcDbLine
 10
446.4715102041
 20
75.7044283284
 30
0.0
 11
446.4715102041
 21
80.7044283284
 31
0.0
  0
ARC
  5
126
330
1F
100
AcDbEntity
  8
0
  6
Continuous
 62
     7
370
    25
100
AcDbCircle
 10
446.4715102041
 20
107.2044283284
 30
0.0
 40
26.50000000000006
100
AcDbArc
 50
270.0
 51
0.0
  0
LINE
  5
127
330
1F
100
AcDbEntity
  8
0
  6
Continuous
 62
     8
370
    25
100
AcDbLine
 10
446.9715102041
 20
467.6997109273
 30
0.0
 11
446.9715102041
 21
466.6299308763
 31
0.0
  0
LINE
  5
128
330
1F
100
AcDbEntity
  8
0
  6
Continuous
 62
     8
370
    25
100
AcDbLine
 10
156.9715102041
 20
467.6997109273
 30
0.0
 11
156.9715102041
 21
466.6299308763
 31
0.0
  0
LINE
  5
129
330
1F
100
AcDbEntity
  8
0
  6
Continuous
 62
     8
370
    25
100
AcDbLine
 10
132.0460076561
 20
106.7044283284
 30
0.0
 11
130.9762276051
 21
106.7044283284
 31
0.0
  0
LINE
  5
12A
330
1F
100
AcDbEntity
  8
0
  6
Continuous
 62
     8
370
    25
100
AcDbLine
 10
132.0460076561
 20
441.7044283284
 30
0.0
 11
130.9762276051
 21
441.7044283284
 31
0.0
  0
LINE
  5
12B
330
1F
100
AcDbEntity
  8
0
  6
Continuous
 62
     8
370
    25
100
AcDbLine
 10
446.9715102041
 20
81.7789257804
 30
0.0
 11
446.9715102041
 21
80.7091457294
 31
0.0
  0
LINE
  5
12C
330
1F
100
AcDbEntity
  8
0
  6
Continuous
 62
     8
370
    25
100
AcDbLine
 10
156.9715102041
 20
81.7789257804
 30
0.0
 11
156.9715102041
 21
80.7091457294
 31
0.0
  0
LINE
  5
12D
330
1F
100
AcDbEntity
  8
0
  6
Continuous
 62
     8
370
    25
100
AcDbLine
 10
472.9667928031
 20
106.7044283284
 30
0.0
 11
471.897012752
 21
106.7044283284
 31
0.0
  0
LINE
  5
12E
330
1F
100
AcDbEntity
  8
0
  6
Continuous
 62
     8
370
    25
100
AcDbLine
 10
472.9667928031
 20
441.7044283284
 30
0.0
 11
471.897012752
 21
441.7044283284
 31
0.0
  0
ENDSEC
  0
SECTION
  2
OBJECTS
  0
DICTIONARY
  5
C
330
0
100
AcDbDictionary
281
     1
  3
ACAD_GROUP
350
D
  3
ACAD_LAYOUT
350
1A
  3
ACAD_MLINESTYLE
350
17
  3
ACAD_PLOTSETTINGS
350
19
  3
ACAD_PLOTSTYLENAME
350
E
  3
ACAD_SCALELIST
350
47
  3
DWGPROPS
350
12F
  0
DICTIONARY
  5
D
102
{ACAD_REACTORS
330
C
102
}
330
C
100
AcDbDictionary
281
     1
  0
DICTIONARY
  5
1A
102
{ACAD_REACTORS
330
C
102
}
330
C
100
AcDbDictionary
281
     1
  3
Layout1
350
1E
  3
Layout2
350
26
  3
Model
350
22
  0
DICTIONARY
  5
17
102
{ACAD_REACTORS
330
C
102
}
330
C
100
AcDbDictionary
281
     1
  3
Standard
350
18
  0
DICTIONARY
  5
19
102
{ACAD_REACTORS
330
C
102
}
330
C
100
AcDbDictionary
281
     1
  0
ACDBDICTIONARYWDFLT
  5
E
102
{ACAD_REACTORS
330
C
102
}
330
C
100
AcDbDictionary
281
     1
  3
Normal
350
F
100
AcDbDictionaryWithDefault
340
F
  0
DICTIONARY
  5
47
102
{ACAD_REACTORS
330
C
102
}
330
C
100
AcDbDictionary
281
     1
  3
A0
350
48
  3
A1
350
49
  3
A2
350
4A
  3
A3
350
4B
  3
A4
350
4C
  3
A5
350
4D
  3
A6
350
4E
  3
A7
350
4F
  3
A8
350
50
  3
A9
350
51
  3
B0
350
52
  3
B1
350
53
  3
B2
350
54
  3
B3
350
55
  3
B4
350
56
  3
B5
350
57
  3
B6
350
58
  3
B7
350
59
  3
B8
350
5A
  3
B9
350
5B
  3
C0
350
5C
  3
C1
350
5D
  3
C2
350
5E
  3
C3
350
5F
  3
C4
350
60
  3
C5
350
61
  3
C6
350
62
  3
C7
350
63
  3
C8
350
64
  3
C9
350
65
  3
D0
350
66
  3
D1
350
67
  3
D2
350
68
  0
XRECORD
  5
12F
102
{ACAD_REACTORS
330
C
102
}
330
C
100
AcDbXrecord
280
     1
  1
DWGPROPS COOKIE
  2

  3

  4

  6

  7

  8
KalleMourujärvi
  9

300
=
301
=
302
=
303
=
304
=
305
=
306
=
307
=
308
=
309
=
 40
0.0
 41
2460130.434002627
 42
2460130.434002951
  1

 90
        0
  0
LAYOUT
  5
1E
102
{ACAD_REACTORS
330
1A
102
}
330
1A
100
AcDbPlotSettings
  1

  2
none_device
  4

  6

 40
0.0
 41
0.0
 42
0.0
 43
0.0
 44
0.0
 45
0.0
 46
0.0
 47
0.0
 48
0.0
 49
0.0
140
0.0
141
0.0
142
1.0
143
1.0
 70
   688
 72
     1
 73
     0
 74
     5
  7

 75
    16
147
1.0
148
0.0
149
0.0
100
AcDbLayout
  1
Layout1
 70
     1
 71
     1
 10
0.0
 20
0.0
 11
420.0
 21
297.0
 12
0.0
 22
0.0
 32
0.0
 14
1.0000000000E+20
 24
1.0000000000E+20
 34
1.0000000000E+20
 15
-1.0000000000E+20
 25
-1.0000000000E+20
 35
-1.0000000000E+20
146
0.0
 13
0.0
 23
0.0
 33
0.0
 16
1.0
 26
0.0
 36
0.0
 17
0.0
 27
1.0
 37
0.0
 76
     0
330
1B
  0
LAYOUT
  5
26
102
{ACAD_REACTORS
330
1A
102
}
330
1A
100
AcDbPlotSettings
  1

  2
none_device
  4

  6

 40
0.0
 41
0.0
 42
0.0
 43
0.0
 44
0.0
 45
0.0
 46
0.0
 47
0.0
 48
0.0
 49
0.0
140
0.0
141
0.0
142
1.0
143
1.0
 70
   688
 72
     1
 73
     0
 74
     5
  7

 75
    16
147
1.0
148
0.0
149
0.0
100
AcDbLayout
  1
Layout2
 70
     1
 71
     2
 10
0.0
 20
0.0
 11
0.0
 21
0.0
 12
0.0
 22
0.0
 32
0.0
 14
0.0
 24
0.0
 34
0.0
 15
0.0
 25
0.0
 35
0.0
146
0.0
 13
0.0
 23
0.0
 33
0.0
 16
1.0
 26
0.0
 36
0.0
 17
0.0
 27
1.0
 37
0.0
 76
     0
330
23
  0
LAYOUT
  5
22
102
{ACAD_REACTORS
330
1A
102
}
330
1A
100
AcDbPlotSettings
  1

  2
none_device
  4
Letter_(8.50_x_11.00_Inches)
  6

 40
6.35
 41
6.35
 42
6.35000508
 43
6.35000508
 44
215.9
 45
279.4
 46
0.0
 47
0.0
 48
0.0
 49
0.0
140
0.0
141
0.0
142
1.0
143
1.0
 70
  1712
 72
     1
 73
     0
 74
     0
  7

 75
     0
147
1.0
148
0.0
149
0.0
100
AcDbLayout
  1
Model
 70
     1
 71
     0
 10
0.0
 20
0.0
 11
600.0
 21
600.0
 12
0.0
 22
0.0
 32
0.0
 14
0.0
 24
0.0
 34
0.0
 15
600.0
 25
600.0
 35
0.0
146
0.0
 13
0.0
 23
0.0
 33
0.0
 16
1.0
 26
0.0
 36
0.0
 17
0.0
 27
1.0
 37
0.0
 76
     0
330
1F
331
29
  0
MLINESTYLE
  5
18
102
{ACAD_REACTORS
330
17
102
}
330
17
100
AcDbMlineStyle
  2
Standard
 70
     0
  3

 62
   256
 51
90.0
 52
90.0
 71
     2
 49
0.5
 62
   256
  6
BYLAYER
 49
-0.5
 62
   256
  6
BYLAYER
  0
ACDBPLACEHOLDER
  5
F
102
{ACAD_REACTORS
330
E
102
}
330
E
  0
SCALE
  5
48
102
{ACAD_REACTORS
330
47
102
}
330
47
100
AcDbScale
 70
     0
300
1:1
140
1.0
141
1.0
290
     1
  0
SCALE
  5
49
102
{ACAD_REACTORS
330
47
102
}
330
47
100
AcDbScale
 70
     0
300
1:2
140
1.0
141
2.0
290
     0
  0
SCALE
  5
4A
102
{ACAD_REACTORS
330
47
102
}
330
47
100
AcDbScale
 70
     0
300
1:4
140
1.0
141
4.0
290
     0
  0
SCALE
  5
4B
102
{ACAD_REACTORS
330
47
102
}
330
47
100
AcDbScale
 70
     0
300
1:5
140
1.0
141
5.0
290
     0
  0
SCALE
  5
4C
102
{ACAD_REACTORS
330
47
102
}
330
47
100
AcDbScale
 70
     0
300
1:8
140
1.0
141
8.0
290
     0
  0
SCALE
  5
4D
102
{ACAD_REACTORS
330
47
102
}
330
47
100
AcDbScale
 70
     0
300
1:10
140
1.0
141
10.0
290
     0
  0
SCALE
  5
4E
102
{ACAD_REACTORS
330
47
102
}
330
47
100
AcDbScale
 70
     0
300
1:16
140
1.0
141
16.0
290
     0
  0
SCALE
  5
4F
102
{ACAD_REACTORS
330
47
102
}
330
47
100
AcDbScale
 70
     0
300
1:20
140
1.0
141
20.0
290
     0
  0
SCALE
  5
50
102
{ACAD_REACTORS
330
47
102
}
330
47
100
AcDbScale
 70
     0
300
1:30
140
1.0
141
30.0
290
     0
  0
SCALE
  5
51
102
{ACAD_REACTORS
330
47
102
}
330
47
100
AcDbScale
 70
     0
300
1:40
140
1.0
141
40.0
290
     0
  0
SCALE
  5
52
102
{ACAD_REACTORS
330
47
102
}
330
47
100
AcDbScale
 70
     0
300
1:50
140
1.0
141
50.0
290
     0
  0
SCALE
  5
53
102
{ACAD_REACTORS
330
47
102
}
330
47
100
AcDbScale
 70
     0
300
1:100
140
1.0
141
100.0
290
     0
  0
SCALE
  5
54
102
{ACAD_REACTORS
330
47
102
}
330
47
100
AcDbScale
 70
     0
300
2:1
140
2.0
141
1.0
290
     0
  0
SCALE
  5
55
102
{ACAD_REACTORS
330
47
102
}
330
47
100
AcDbScale
 70
     0
300
4:1
140
4.0
141
1.0
290
     0
  0
SCALE
  5
56
102
{ACAD_REACTORS
330
47
102
}
330
47
100
AcDbScale
 70
     0
300
8:1
140
8.0
141
1.0
290
     0
  0
SCALE
  5
57
102
{ACAD_REACTORS
330
47
102
}
330
47
100
AcDbScale
 70
     0
300
10:1
140
10.0
141
1.0
290
     0
  0
SCALE
  5
58
102
{ACAD_REACTORS
330
47
102
}
330
47
100
AcDbScale
 70
     0
300
100:1
140
100.0
141
1.0
290
     0
  0
SCALE
  5
59
102
{ACAD_REACTORS
330
47
102
}
330
47
100
AcDbScale
 70
     0
300
1/128" = 1'-0"
140
0.0078125
141
12.0
290
     0
  0
SCALE
  5
5A
102
{ACAD_REACTORS
330
47
102
}
330
47
100
AcDbScale
 70
     0
300
1/64" = 1'-0"
140
0.015625
141
12.0
290
     0
  0
SCALE
  5
5B
102
{ACAD_REACTORS
330
47
102
}
330
47
100
AcDbScale
 70
     0
300
1/32" = 1'-0"
140
0.03125
141
12.0
290
     0
  0
SCALE
  5
5C
102
{ACAD_REACTORS
330
47
102
}
330
47
100
AcDbScale
 70
     0
300
1/16" = 1'-0"
140
0.0625
141
12.0
290
     0
  0
SCALE
  5
5D
102
{ACAD_REACTORS
330
47
102
}
330
47
100
AcDbScale
 70
     0
300
3/32" = 1'-0"
140
0.09375
141
12.0
290
     0
  0
SCALE
  5
5E
102
{ACAD_REACTORS
330
47
102
}
330
47
100
AcDbScale
 70
     0
300
1/8" = 1'-0"
140
0.125
141
12.0
290
     0
  0
SCALE
  5
5F
102
{ACAD_REACTORS
330
47
102
}
330
47
100
AcDbScale
 70
     0
300
3/16" = 1'-0"
140
0.1875
141
12.0
290
     0
  0
SCALE
  5
60
102
{ACAD_REACTORS
330
47
102
}
330
47
100
AcDbScale
 70
     0
300
1/4" = 1'-0"
140
0.25
141
12.0
290
     0
  0
SCALE
  5
61
102
{ACAD_REACTORS
330
47
102
}
330
47
100
AcDbScale
 70
     0
300
3/8" = 1'-0"
140
0.375
141
12.0
290
     0
  0
SCALE
  5
62
102
{ACAD_REACTORS
330
47
102
}
330
47
100
AcDbScale
 70
     0
300
1/2" = 1'-0"
140
0.5
141
12.0
290
     0
  0
SCALE
  5
63
102
{ACAD_REACTORS
330
47
102
}
330
47
100
AcDbScale
 70
     0
300
3/4" = 1'-0"
140
0.75
141
12.0
290
     0
  0
SCALE
  5
64
102
{ACAD_REACTORS
330
47
102
}
330
47
100
AcDbScale
 70
     0
300
1" = 1'-0"
140
1.0
141
12.0
290
     0
  0
SCALE
  5
65
102
{ACAD_REACTORS
330
47
102
}
330
47
100
AcDbScale
 70
     0
300
1-1/2" = 1'-0"
140
1.5
141
12.0
290
     0
  0
SCALE
  5
66
102
{ACAD_REACTORS
330
47
102
}
330
47
100
AcDbScale
 70
     0
300
3" = 1'-0"
140
3.0
141
12.0
290
     0
  0
SCALE
  5
67
102
{ACAD_REACTORS
330
47
102
}
330
47
100
AcDbScale
 70
     0
300
6" = 1'-0"
140
6.0
141
12.0
290
     0
  0
SCALE
  5
68
102
{ACAD_REACTORS
330
47
102
}
330
47
100
AcDbScale
 70
     0
300
1'-0" = 1'-0"
140
12.0
141
12.0
290
     0
  0
ENDSEC
  0
EOF
