  0
SECTION
  2
HEADER
  9
$ACADVER
  1
AC1015
  9
$ACADMAINTVER
 70
     6
  9
$DWGCODEPAGE
  3
ANSI_1252
  9
$INSBASE
 10
0.0
 20
0.0
 30
0.0
  9
$EXTMIN
 10
0.0
 20
0.0
 30
0.0
  9
$EXTMAX
 10
550.0
 20
600.0
 30
0.0
  9
$LIMMIN
 10
0.0
 20
0.0
  9
$LIMMAX
 10
550.0
 20
600.0
  9
$ORTHOMODE
 70
     0
  9
$REGENMODE
 70
     1
  9
$FILLMODE
 70
     1
  9
$QTEXTMODE
 70
     0
  9
$MIRRTEXT
 70
     1
  9
$LTSCALE
 40
1.0
  9
$ATTMODE
 70
     1
  9
$TEXTSIZE
 40
3.5
  9
$TRACEWID
 40
1.0
  9
$TEXTSTYLE
  7
Standard
  9
$CLAYER
  8
0
  9
$CELTYPE
  6
ByLayer
  9
$CECOLOR
 62
   256
  9
$CELTSCALE
 40
1.0
  9
$DISPSILH
 70
     0
  9
$DIMSCALE
 40
1.0
  9
$DIMASZ
 40
3.302
  9
$DIMEXO
 40
1.0
  9
$DIMDLI
 40
3.75
  9
$DIMRND
 40
0.0
  9
$DIMDLE
 40
0.0
  9
$DIMEXE
 40
1.0
  9
$DIMTP
 40
0.0
  9
$DIMTM
 40
0.0
  9
$DIMTXT
 40
3.5
  9
$DIMCEN
 40
2.5
  9
$DIMTSZ
 40
0.0
  9
$DIMTOL
 70
     0
  9
$DIMLIM
 70
     0
  9
$DIMTIH
 70
     1
  9
$DIMTOH
 70
     1
  9
$DIMSE1
 70
     0
  9
$DIMSE2
 70
     0
  9
$DIMTAD
 70
     1
  9
$DIMZIN
 70
     1
  9
$DIMBLK
  1

  9
$DIMASO
 70
     1
  9
$DIMSHO
 70
     1
  9
$DIMPOST
  1

  9
$DIMAPOST
  1

  9
$DIMALT
 70
     0
  9
$DIMALTD
 70
     3
  9
$DIMALTF
 40
0.0393700787
  9
$DIMLFAC
 40
1.0
  9
$DIMTOFL
 70
     1
  9
$DIMTVP
 40
0.0
  9
$DIMTIX
 70
     0
  9
$DIMSOXD
 70
     0
  9
$DIMSAH
 70
     0
  9
$DIMBLK1
  1

  9
$DIMBLK2
  1

  9
$DIMSTYLE
  2
ISO-25
  9
$DIMCLRD
 70
     0
  9
$DIMCLRE
 70
     0
  9
$DIMCLRT
 70
     0
  9
$DIMTFAC
 40
1.0
  9
$DIMGAP
 40
1.524
  9
$DIMJUST
 70
     0
  9
$DIMSD1
 70
     0
  9
$DIMSD2
 70
     0
  9
$DIMTOLJ
 70
     0
  9
$DIMTZIN
 70
     1
  9
$DIMALTZ
 70
     0
  9
$DIMALTTZ
 70
     0
  9
$DIMUPT
 70
     0
  9
$DIMDEC
 70
     2
  9
$DIMTDEC
 70
     2
  9
$DIMALTU
 70
     2
  9
$DIMALTTD
 70
     3
  9
$DIMTXSTY
  7
Standard
  9
$DIMAUNIT
 70
     0
  9
$DIMADEC
 70
     2
  9
$DIMALTRND
 40
0.0
  9
$DIMAZIN
 70
     0
  9
$DIMDSEP
 70
    44
  9
$DIMATFIT
 70
     3
  9
$DIMFRAC
 70
     0
  9
$DIMLDRBLK
  1

  9
$DIMLUNIT
 70
     2
  9
$DIMLWD
 70
    -2
  9
$DIMLWE
 70
    -2
  9
$DIMTMOVE
 70
     0
  9
$LUNITS
 70
     2
  9
$LUPREC
 70
     1
  9
$SKETCHINC
 40
1.0
  9
$FILLETRAD
 40
10.0
  9
$AUNITS
 70
     0
  9
$AUPREC
 70
     1
  9
$MENU
  1
.
  9
$ELEVATION
 40
0.0
  9
$PELEVATION
 40
0.0
  9
$THICKNESS
 40
0.0
  9
$LIMCHECK
 70
     0
  9
$CHAMFERA
 40
0.0
  9
$CHAMFERB
 40
0.0
  9
$CHAMFERC
 40
0.0
  9
$CHAMFERD
 40
0.0
  9
$SKPOLY
 70
     0
  9
$TDCREATE
 40
2460130.560273241
  9
$TDUCREATE
 40
2460130.435273241
  9
$TDUPDATE
 40
2460130.560273565
  9
$TDUUPDATE
 40
2460130.435273565
  9
$TDINDWG
 40
0.0000000116
  9
$TDUSRTIMER
 40
0.0000000116
  9
$USRTIMER
 70
     1
  9
$ANGBASE
 50
0.0
  9
$ANGDIR
 70
     0
  9
$PDMODE
 70
     0
  9
$PDSIZE
 40
-1.0
  9
$PLINEWID
 40
0.0
  9
$SPLFRAME
 70
     0
  9
$SPLINETYPE
 70
     6
  9
$SPLINESEGS
 70
     8
  9
$HANDSEED
  5
127
  9
$SURFTAB1
 70
     6
  9
$SURFTAB2
 70
     6
  9
$SURFTYPE
 70
     6
  9
$SURFU
 70
     6
  9
$SURFV
 70
     6
  9
$UCSBASE
  2

  9
$UCSNAME
  2

  9
$UCSORG
 10
0.0
 20
0.0
 30
0.0
  9
$UCSXDIR
 10
1.0
 20
0.0
 30
0.0
  9
$UCSYDIR
 10
0.0
 20
1.0
 30
0.0
  9
$UCSORTHOREF
  2

  9
$UCSORTHOVIEW
 70
     0
  9
$UCSORGTOP
 10
0.0
 20
0.0
 30
0.0
  9
$UCSORGBOTTOM
 10
0.0
 20
0.0
 30
0.0
  9
$UCSORGLEFT
 10
0.0
 20
0.0
 30
0.0
  9
$UCSORGRIGHT
 10
0.0
 20
0.0
 30
0.0
  9
$UCSORGFRONT
 10
0.0
 20
0.0
 30
0.0
  9
$UCSORGBACK
 10
0.0
 20
0.0
 30
0.0
  9
$PUCSBASE
  2

  9
$PUCSNAME
  2

  9
$PUCSORG
 10
0.0
 20
0.0
 30
0.0
  9
$PUCSXDIR
 10
1.0
 20
0.0
 30
0.0
  9
$PUCSYDIR
 10
0.0
 20
1.0
 30
0.0
  9
$PUCSORTHOREF
  2

  9
$PUCSORTHOVIEW
 70
     0
  9
$PUCSORGTOP
 10
0.0
 20
0.0
 30
0.0
  9
$PUCSORGBOTTOM
 10
0.0
 20
0.0
 30
0.0
  9
$PUCSORGLEFT
 10
0.0
 20
0.0
 30
0.0
  9
$PUCSORGRIGHT
 10
0.0
 20
0.0
 30
0.0
  9
$PUCSORGFRONT
 10
0.0
 20
0.0
 30
0.0
  9
$PUCSORGBACK
 10
0.0
 20
0.0
 30
0.0
  9
$USERI1
 70
     0
  9
$USERI2
 70
     0
  9
$USERI3
 70
     0
  9
$USERI4
 70
     0
  9
$USERI5
 70
     0
  9
$USERR1
 40
0.0
  9
$USERR2
 40
0.0
  9
$USERR3
 40
0.0
  9
$USERR4
 40
0.0
  9
$USERR5
 40
0.0
  9
$WORLDVIEW
 70
     1
  9
$SHADEDGE
 70
     3
  9
$SHADEDIF
 70
    70
  9
$TILEMODE
 70
     1
  9
$MAXACTVP
 70
    64
  9
$PINSBASE
 10
0.0
 20
0.0
 30
0.0
  9
$PLIMCHECK
 70
     0
  9
$PEXTMIN
 10
1.0000000000E+20
 20
1.0000000000E+20
 30
1.0000000000E+20
  9
$PEXTMAX
 10
-1.0000000000E+20
 20
-1.0000000000E+20
 30
-1.0000000000E+20
  9
$PLIMMIN
 10
0.0
 20
0.0
  9
$PLIMMAX
 10
420.0
 20
297.0
  9
$UNITMODE
 70
     0
  9
$VISRETAIN
 70
     1
  9
$PLINEGEN
 70
     0
  9
$PSLTSCALE
 70
     1
  9
$TREEDEPTH
 70
  3020
  9
$CMLSTYLE
  2
Standard
  9
$CMLJUST
 70
     0
  9
$CMLSCALE
 40
20.0
  9
$PROXYGRAPHICS
 70
     1
  9
$MEASUREMENT
 70
     1
  9
$CELWEIGHT
370
    -1
  9
$ENDCAPS
280
     0
  9
$JOINSTYLE
280
     0
  9
$LWDISPLAY
290
     1
  9
$INSUNITS
 70
     4
  9
$HYPERLINKBASE
  1

  9
$STYLESHEET
  1

  9
$XEDIT
290
     1
  9
$CEPSNTYPE
380
     0
  9
$PSTYLEMODE
290
     1
  9
$FINGERPRINTGUID
  2
{141681e9-cd1a-444c-9508-18042159e85d}
  9
$VERSIONGUID
  2
{FAEB1C32-E019-11D5-929B-00C0DF256EC4}
  9
$EXTNAMES
290
     1
  9
$PSVPSCALE
 40
0.0
  9
$OLESTARTUP
290
     0
  0
ENDSEC
  0
SECTION
  2
CLASSES
  0
CLASS
  1
ACDBDICTIONARYWDFLT
  2
AcDbDictionaryWithDefault
  3
ObjectDBX Classes
 90
        0
280
     0
281
     0
  0
CLASS
  1
VISUALSTYLE
  2
AcDbVisualStyle
  3
ObjectDBX Classes
 90
     4095
280
     0
281
     0
  0
CLASS
  1
MATERIAL
  2
AcDbMaterial
  3
ObjectDBX Classes
 90
     1153
280
     0
281
     0
  0
CLASS
  1
SCALE
  2
AcDbScale
  3
ObjectDBX Classes
 90
     1153
280
     0
281
     0
  0
CLASS
  1
TABLESTYLE
  2
AcDbTableStyle
  3
ObjectDBX Classes
 90
     4095
280
     0
281
     0
  0
CLASS
  1
MLEADERSTYLE
  2
AcDbMLeaderStyle
  3
ACDB_MLEADERSTYLE_CLASS
 90
     4095
280
     0
281
     0
  0
CLASS
  1
SUN
  2
AcDbSun
  3
SCENEOE
 90
     1153
280
     0
281
     0
  0
CLASS
  1
ACDBPLACEHOLDER
  2
AcDbPlaceHolder
  3
ObjectDBX Classes
 90
        0
280
     0
281
     0
  0
CLASS
  1
LAYOUT
  2
AcDbLayout
  3
ObjectDBX Classes
 90
        0
280
     0
281
     0
  0
ENDSEC
  0
SECTION
  2
TABLES
  0
TABLE
  2
VPORT
  5
8
330
0
100
AcDbSymbolTable
 70
     1
  0
VPORT
  5
29
330
8
100
AcDbSymbolTableRecord
100
AcDbViewportTableRecord
  2
*Active
 70
     0
 10
0.0
 20
0.0
 11
1.0
 21
1.0
 12
275.0
 22
300.0
 13
0.0
 23
0.0
 14
10.0
 24
10.0
 15
10.0
 25
10.0
 16
0.0
 26
0.0
 36
1.0
 17
0.0
 27
0.0
 37
0.0
 40
600.0
 41
0.9166666667
 42
50.0
 43
0.0
 44
0.0
 50
0.0
 51
0.0
 71
     0
 72
  2000
 73
     1
 74
     3
 75
     0
 76
     0
 77
     0
 78
     0
281
     0
 65
     1
110
0.0
120
0.0
130
0.0
111
1.0
121
0.0
131
0.0
112
0.0
122
1.0
132
0.0
 79
     0
146
0.0
  0
ENDTAB
  0
TABLE
  2
LTYPE
  5
5
330
0
100
AcDbSymbolTable
 70
     6
  0
LTYPE
  5
14
330
5
100
AcDbSymbolTableRecord
100
AcDbLinetypeTableRecord
  2
ByBlock
 70
     0
  3

 72
    65
 73
     0
 40
0.0
  0
LTYPE
  5
15
330
5
100
AcDbSymbolTableRecord
100
AcDbLinetypeTableRecord
  2
ByLayer
 70
     0
  3

 72
    65
 73
     0
 40
0.0
  0
LTYPE
  5
16
330
5
100
AcDbSymbolTableRecord
100
AcDbLinetypeTableRecord
  2
Continuous
 70
     0
  3
Solid line
 72
    65
 73
     0
 40
0.0
  0
LTYPE
  5
6E
330
5
100
AcDbSymbolTableRecord
100
AcDbLinetypeTableRecord
  2
HIDDEN
 70
     0
  3
Hidden __ __ __ __ __ __ __ __ __ __ __ __ __ __
 72
    65
 73
     2
 40
1.905
 49
1.27
 74
     0
 49
-0.635
 74
     0
  0
LTYPE
  5
6F
330
5
100
AcDbSymbolTableRecord
100
AcDbLinetypeTableRecord
  2
PHANTOM
 70
     0
  3
Phantom ______  __  __  ______  __  __  ______
 72
    65
 73
     6
 40
12.7
 49
6.35
 74
     0
 49
-1.27
 74
     0
 49
1.27
 74
     0
 49
-1.27
 74
     0
 49
1.27
 74
     0
 49
-1.27
 74
     0
  0
LTYPE
  5
70
330
5
100
AcDbSymbolTableRecord
100
AcDbLinetypeTableRecord
  2
CENTER
 70
     0
  3
Center ____ _ ____ _ ____ _ ____ _ ____ _ ____
 72
    65
 73
     4
 40
10.16
 49
6.35
 74
     0
 49
-1.27
 74
     0
 49
1.27
 74
     0
 49
-1.27
 74
     0
  0
LTYPE
  5
71
330
5
100
AcDbSymbolTableRecord
100
AcDbLinetypeTableRecord
  2
CENTERX2
 70
     0
  3
Center (2x) ________  __  ________  __  _____
 72
    65
 73
     4
 40
20.32
 49
12.7
 74
     0
 49
-2.54
 74
     0
 49
2.54
 74
     0
 49
-2.54
 74
     0
  0
LTYPE
  5
72
330
5
100
AcDbSymbolTableRecord
100
AcDbLinetypeTableRecord
  2
DOT2
 70
     0
  3
Dot (.5x) ........................................
 72
    65
 73
     2
 40
0.635
 49
0.0
 74
     0
 49
-0.635
 74
     0
  0
ENDTAB
  0
TABLE
  2
LAYER
  5
2
330
0
100
AcDbSymbolTable
 70
     1
  0
LAYER
  5
10
330
2
100
AcDbSymbolTableRecord
100
AcDbLayerTableRecord
  2
0
 70
     0
 62
     7
  6
Continuous
370
    -3
390
F
  0
ENDTAB
  0
TABLE
  2
STYLE
  5
3
330
0
100
AcDbSymbolTable
 70
     1
  0
STYLE
  5
11
330
3
100
AcDbSymbolTableRecord
100
AcDbTextStyleTableRecord
  2
Standard
 70
     0
 40
0.0
 41
1.0
 50
0.0
 71
     0
 42
3.5
  3
txt
  4

  0
ENDTAB
  0
TABLE
  2
VIEW
  5
6
330
0
100
AcDbSymbolTable
 70
     0
  0
ENDTAB
  0
TABLE
  2
UCS
  5
7
330
0
100
AcDbSymbolTable
 70
     0
  0
ENDTAB
  0
TABLE
  2
APPID
  5
9
330
0
100
AcDbSymbolTable
 70
     1
  0
APPID
  5
12
330
9
100
AcDbSymbolTableRecord
100
AcDbRegAppTableRecord
  2
ACAD
 70
     0
  0
ENDTAB
  0
TABLE
  2
DIMSTYLE
  5
A
330
0
100
AcDbSymbolTable
 70
     1
100
AcDbDimStyleTable
  0
DIMSTYLE
105
27
330
A
100
AcDbSymbolTableRecord
100
AcDbDimStyleTableRecord
  2
ISO-25
 70
     0
 41
2.5
 42
0.625
 43
3.75
 44
1.25
 73
     0
 74
     0
 77
     1
 78
     8
140
2.5
141
2.5
143
0.0393700787
147
0.625
171
     3
172
     1
178
     0
271
     2
272
     2
274
     3
278
    44
283
     0
284
     8
340
11
  0
ENDTAB
  0
TABLE
  2
BLOCK_RECORD
  5
1
330
0
100
AcDbSymbolTable
 70
     1
  0
BLOCK_RECORD
  5
1F
330
1
100
AcDbSymbolTableRecord
100
AcDbBlockTableRecord
  2
*Model_Space
340
22
  0
BLOCK_RECORD
  5
1B
330
1
100
AcDbSymbolTableRecord
100
AcDbBlockTableRecord
  2
*Paper_Space
340
1E
  0
BLOCK_RECORD
  5
23
330
1
100
AcDbSymbolTableRecord
100
AcDbBlockTableRecord
  2
*Paper_Space0
340
26
  0
ENDTAB
  0
ENDSEC
  0
SECTION
  2
BLOCKS
  0
BLOCK
  5
20
330
1F
100
AcDbEntity
  8
0
100
AcDbBlockBegin
  2
*Model_Space
 70
     0
 10
0.0
 20
0.0
 30
0.0
  3
*Model_Space
  1

  0
ENDBLK
  5
21
330
1F
100
AcDbEntity
  8
0
100
AcDbBlockEnd
  0
BLOCK
  5
1C
330
1B
100
AcDbEntity
 67
     1
  8
0
100
AcDbBlockBegin
  2
*Paper_Space
 70
     0
 10
0.0
 20
0.0
 30
0.0
  3
*Paper_Space
  1

  0
ENDBLK
  5
1D
330
1B
100
AcDbEntity
 67
     1
  8
0
100
AcDbBlockEnd
  0
BLOCK
  5
24
330
23
100
AcDbEntity
  8
0
100
AcDbBlockBegin
  2
*Paper_Space0
 70
     0
 10
0.0
 20
0.0
 30
0.0
  3
*Paper_Space0
  1

  0
ENDBLK
  5
25
330
23
100
AcDbEntity
  8
0
100
AcDbBlockEnd
  0
ENDSEC
  0
SECTION
  2
ENTITIES
  0
ARC
  5
73
330
1F
100
AcDbEntity
  8
0
  6
Continuous
 62
     7
370
    25
100
AcDbCircle
 10
448.80608
 20
436.11872
 30
0.0
 40
26.42344685007225
100
AcDbArc
 50
0.0
 51
90.0
  0
LINE
  5
74
330
1F
100
AcDbEntity
  8
0
  6
Continuous
 62
     7
370
    25
100
AcDbLine
 10
98.80608
 20
462.5421668501
 30
0.0
 11
448.80608
 21
462.5421668501
 31
0.0
  0
ARC
  5
75
330
1F
100
AcDbEntity
  8
0
  6
Continuous
 62
     7
370
    25
100
AcDbCircle
 10
98.80608
 20
436.11872
 30
0.0
 40
26.42344685007225
100
AcDbArc
 50
90.0
 51
180.0
  0
LINE
  5
76
330
1F
100
AcDbEntity
  8
0
  6
Continuous
 62
     7
370
    25
100
AcDbLine
 10
72.3826331499
 20
101.11872
 30
0.0
 11
72.3826331499
 21
436.11872
 31
0.0
  0
ARC
  5
77
330
1F
100
AcDbEntity
  8
0
  6
Continuous
 62
     7
370
    25
100
AcDbCircle
 10
98.80608
 20
101.11872
 30
0.0
 40
26.42344685007237
100
AcDbArc
 50
180.0
 51
270.0
  0
LINE
  5
78
330
1F
100
AcDbEntity
  8
0
  6
Continuous
 62
     7
370
    25
100
AcDbLine
 10
448.80608
 20
74.6952731499
 30
0.0
 11
98.80608
 21
74.6952731499
 31
0.0
  0
ARC
  5
79
330
1F
100
AcDbEntity
  8
0
  6
Continuous
 62
     7
370
    25
100
AcDbCircle
 10
448.80608
 20
101.11872
 30
0.0
 40
26.42344685007225
100
AcDbArc
 50
270.0
 51
0.0
  0
LINE
  5
7A
330
1F
100
AcDbEntity
  8
0
  6
Continuous
 62
     7
370
    25
100
AcDbLine
 10
475.2295268501
 20
436.11872
 30
0.0
 11
475.2295268501
 21
101.11872
 31
0.0
  0
LINE
  5
7B
330
1F
100
AcDbEntity
  8
0
  6
Continuous
 62
     7
370
    25
100
AcDbLine
 10
475.2295268501
 20
436.11872
 30
0.0
 11
473.7315825479
 21
436.11872
 31
0.0
  0
ARC
  5
7C
330
1F
100
AcDbEntity
  8
0
  6
Continuous
 62
     7
370
    25
100
AcDbCircle
 10
448.80608
 20
436.11872
 30
0.0
 40
24.92550254794037
100
AcDbArc
 50
0.0
 51
90.0
  0
LINE
  5
7D
330
1F
100
AcDbEntity
  8
0
  6
Continuous
 62
     7
370
    25
100
AcDbLine
 10
448.80608
 20
462.5421668501
 30
0.0
 11
448.80608
 21
461.0442225479
 31
0.0
  0
ARC
  5
7E
330
1F
100
AcDbEntity
  8
0
  6
Continuous
 62
     7
370
    25
100
AcDbCircle
 10
98.80608
 20
436.11872
 30
0.0
 40
24.92550254794041
100
AcDbArc
 50
90.0
 51
180.0
  0
LINE
  5
7F
330
1F
100
AcDbEntity
  8
0
  6
Continuous
 62
     7
370
    25
100
AcDbLine
 10
73.8805774521
 20
436.11872
 30
0.0
 11
72.3826331499
 21
436.11872
 31
0.0
  0
LINE
  5
80
330
1F
100
AcDbEntity
  8
0
  6
Continuous
 62
     7
370
    25
100
AcDbLine
 10
98.80608
 20
462.5421668501
 30
0.0
 11
98.80608
 21
461.0442225479
 31
0.0
  0
LINE
  5
81
330
1F
100
AcDbEntity
  8
0
  6
Continuous
 62
     7
370
    25
100
AcDbLine
 10
73.8805774521
 20
436.11872
 30
0.0
 11
73.8805774521
 21
101.11872
 31
0.0
  0
LINE
  5
82
330
1F
100
AcDbEntity
  8
0
  6
Continuous
 62
     7
370
    25
100
AcDbLine
 10
73.8805774521
 20
101.11872
 30
0.0
 11
72.3826331499
 21
101.11872
 31
0.0
  0
LINE
  5
83
330
1F
100
AcDbEntity
  8
0
  6
Continuous
 62
     7
370
    25
100
AcDbLine
 10
448.80608
 20
461.0442225479
 30
0.0
 11
98.80608
 21
461.0442225479
 31
0.0
  0
ARC
  5
84
330
1F
100
AcDbEntity
  8
0
  6
Continuous
 62
     7
370
    25
100
AcDbCircle
 10
98.80608
 20
101.11872
 30
0.0
 40
24.92550254794045
100
AcDbArc
 50
180.0
 51
270.0
  0
LINE
  5
85
330
1F
100
AcDbEntity
  8
0
  6
Continuous
 62
     7
370
    25
100
AcDbLine
 10
98.80608
 20
76.1932174521
 30
0.0
 11
98.80608
 21
74.6952731499
 31
0.0
  0
LINE
  5
86
330
1F
100
AcDbEntity
  8
0
  6
Continuous
 62
     7
370
    25
100
AcDbLine
 10
98.80608
 20
76.1932174521
 30
0.0
 11
448.80608
 21
76.1932174521
 31
0.0
  0
LINE
  5
87
330
1F
100
AcDbEntity
  8
0
  6
Continuous
 62
     7
370
    25
100
AcDbLine
 10
448.80608
 20
76.1932174521
 30
0.0
 11
448.80608
 21
74.6952731499
 31
0.0
  0
ARC
  5
88
330
1F
100
AcDbEntity
  8
0
  6
Continuous
 62
     7
370
    25
100
AcDbCircle
 10
448.80608
 20
101.11872
 30
0.0
 40
24.92550254794045
100
AcDbArc
 50
270.0
 51
0.0
  0
LINE
  5
89
330
1F
100
AcDbEntity
  8
0
  6
Continuous
 62
     7
370
    25
100
AcDbLine
 10
475.2295268501
 20
101.11872
 30
0.0
 11
473.7315825479
 21
101.11872
 31
0.0
  0
LINE
  5
8A
330
1F
100
AcDbEntity
  8
0
  6
Continuous
 62
     7
370
    25
100
AcDbLine
 10
473.7315825479
 20
101.11872
 30
0.0
 11
473.7315825479
 21
436.11872
 31
0.0
  0
SPLINE
  5
8B
330
1F
100
AcDbEntity
  8
0
  6
Continuous
 62
     7
370
    25
100
AcDbSpline
210
0.0
220
0.0
230
1.0
 70
     8
 71
     3
 72
    15
 73
    11
 74
     0
 42
0.00000001
 43
0.00000001
 40
0.0
 40
0.0
 40
0.0
 40
0.0
 40
0.1277272151590587
 40
0.250000621465077
 40
0.375816912057558
 40
0.5000000007394547
 40
0.6241812754042348
 40
0.7499993797227504
 40
0.8722718023273434
 40
1.0
 40
1.0
 40
1.0
 40
1.0
 10
448.8060800000005
 20
453.2895280904117
 30
0.0
 10
449.9526900735125
 20
453.2202226826809
 30
0.0
 10
452.1969512562146
 20
453.0845711304098
 30
0.0
 10
455.4382046367499
 20
452.0510048767557
 30
0.0
 10
458.4010021252728
 20
450.471812459911
 30
0.0
 10
461.0103140407508
 20
448.3229769888961
 30
0.0
 10
463.1591630444983
 20
445.7136561603035
 30
0.0
 10
464.7383558079048
 20
442.7508680018552
 30
0.0
 10
465.7719292149561
 20
439.5096001911026
 30
0.0
 10
465.9075816819115
 20
437.2653389359986
 30
0.0
 10
465.9768880904109
 20
436.1187200000013
 30
0.0
  0
LINE
  5
8C
330
1F
100
AcDbEntity
  8
0
  6
Continuous
 62
     7
370
    25
100
AcDbLine
 10
448.80608
 20
461.0442225479
 30
0.0
 11
448.80608
 21
453.2895280904
 31
0.0
  0
LINE
  5
8D
330
1F
100
AcDbEntity
  8
0
  6
Continuous
 62
     7
370
    25
100
AcDbLine
 10
473.7315825479
 20
436.11872
 30
0.0
 11
465.9768880904
 21
436.11872
 31
0.0
  0
SPLINE
  5
8E
330
1F
100
AcDbEntity
  8
0
  6
Continuous
 62
     7
370
    25
100
AcDbSpline
210
0.0
220
0.0
230
1.0
 70
     8
 71
     3
 72
    15
 73
    11
 74
     0
 42
0.00000001
 43
0.00000001
 40
0.0
 40
0.0
 40
0.0
 40
0.0
 40
0.1277272144880653
 40
0.2500006214653422
 40
0.3758169114548374
 40
0.5000000007398295
 40
0.6241812747845865
 40
0.7499993797230136
 40
0.8722718016374948
 40
0.9999999999999999
 40
0.9999999999999999
 40
0.9999999999999999
 40
0.9999999999999999
 10
81.6352719095901
 20
436.1187200000013
 30
0.0
 10
81.70457731664085
 20
437.2653300674621
 30
0.0
 10
81.84022886829348
 20
439.5095912501125
 30
0.0
 10
82.87379511875906
 20
442.7508446262511
 30
0.0
 10
84.4529875369707
 20
445.7136421205827
 30
0.0
 10
86.60182300337524
 20
448.3229540329993
 30
0.0
 10
89.21114383487568
 20
450.471803041292
 30
0.0
 10
92.17393198735222
 20
452.0509958032925
 30
0.0
 10
95.41519980262484
 20
453.0845692136218
 30
0.0
 10
97.65946105778193
 20
453.2202216812129
 30
0.0
 10
98.80608000000049
 20
453.2895280904116
 30
0.0
  0
LINE
  5
8F
330
1F
100
AcDbEntity
  8
0
  6
Continuous
 62
     7
370
    25
100
AcDbLine
 10
73.8805774521
 20
436.11872
 30
0.0
 11
81.6352719096
 21
436.11872
 31
0.0
  0
LINE
  5
90
330
1F
100
AcDbEntity
  8
0
  6
Continuous
 62
     7
370
    25
100
AcDbLine
 10
98.80608
 20
461.0442225479
 30
0.0
 11
98.80608
 21
453.2895280904
 31
0.0
  0
SPLINE
  5
91
330
1F
100
AcDbEntity
  8
0
  6
Continuous
 62
     7
370
    25
100
AcDbSpline
210
0.0
220
0.0
230
1.0
 70
     8
 71
     3
 72
    15
 73
    11
 74
     0
 42
0.00000001
 43
0.00000001
 40
0.0
 40
0.0
 40
0.0
 40
0.0
 40
0.1400004363815188
 40
0.2800378251198818
 40
0.4201886180936855
 40
0.5603763158178567
 40
0.6702566704409854
 40
0.7801372573132599
 40
0.8900685730425959
 40
1.0
 40
1.0
 40
1.0
 40
1.0
 10
465.964168820341
 20
436.1148429884017
 30
0.0
 10
465.9436503327964
 20
420.4729693762196
 30
0.0
 10
465.9026079419637
 20
389.1850935640427
 30
0.0
 10
465.8917855802969
 20
342.222008907997
 30
0.0
 10
465.9198357382049
 20
295.2421407210443
 30
0.0
 10
465.9834672513164
 20
251.6462916632813
 30
0.0
 10
466.0698693701977
 20
211.451499586957
 30
0.0
 10
466.1707591142821
 20
174.6549615685373
 30
0.0
 10
466.2905623444144
 20
137.8730372069733
 30
0.0
 10
466.3870046038039
 20
113.3701632009749
 30
0.0
 10
466.4352257578935
 20
101.1187200000012
 30
0.0
  0
LINE
  5
92
330
1F
100
AcDbEntity
  8
0
  6
Continuous
 62
     7
370
    25
100
AcDbLine
 10
465.9768880904
 20
436.11872
 30
0.0
 11
465.9641688203
 21
436.1148429884
 31
0.0
  0
LINE
  5
93
330
1F
100
AcDbEntity
  8
0
  6
Continuous
 62
     7
370
    25
100
AcDbLine
 10
473.7315825479
 20
101.11872
 30
0.0
 11
466.4352257579
 21
101.11872
 31
0.0
  0
LINE
  5
94
330
1F
100
AcDbEntity
  8
0
  6
Continuous
 62
     7
370
    25
100
AcDbLine
 10
81.6479911796
 20
436.1148430146
 30
0.0
 11
81.6352719096
 21
436.11872
 31
0.0
  0
SPLINE
  5
95
330
1F
100
AcDbEntity
  8
0
  6
Continuous
 62
     7
370
    25
100
AcDbSpline
210
0.0
220
0.0
230
1.0
 70
     8
 71
     3
 72
    15
 73
    11
 74
     0
 42
0.00000001
 43
0.00000001
 40
0.0
 40
0.0
 40
0.0
 40
0.0
 40
0.124786798963904
 40
0.2495734025087468
 40
0.3744332667834014
 40
0.4992926949074609
 40
0.6244156841646328
 40
0.7495382725319825
 40
0.8747689280987477
 40
1.0
 40
1.0
 40
1.0
 40
1.0
 10
81.17693424210734
 20
101.1187200000011
 30
0.0
 10
81.23139186040714
 20
115.0261822618526
 30
0.0
 10
81.34030701172476
 20
142.8410850061428
 30
0.0
 10
81.4715894481097
 20
184.6139681765201
 30
0.0
 10
81.57823889654244
 20
226.4200083312994
 30
0.0
 10
81.65629875787297
 20
268.2871249171138
 30
0.0
 10
81.70439759355943
 20
310.2003103698699
 30
0.0
 10
81.7198425846706
 20
352.1637891077778
 30
0.0
 10
81.70400526316693
 20
394.1403309390965
 30
0.0
 10
81.66666256149321
 20
422.1233234843635
 30
0.0
 10
81.64799117961954
 20
436.1148430146119
 30
0.0
  0
LINE
  5
96
330
1F
100
AcDbEntity
  8
0
  6
Continuous
 62
     7
370
    25
100
AcDbLine
 10
73.8805774521
 20
101.11872
 30
0.0
 11
81.1769342421
 21
101.11872
 31
0.0
  0
LINE
  5
97
330
1F
100
AcDbEntity
  8
0
  6
Continuous
 62
     7
370
    25
100
AcDbLine
 10
98.8081469327
 20
83.4985918426
 30
0.0
 11
98.80608
 21
83.4895742421
 31
0.0
  0
SPLINE
  5
98
330
1F
100
AcDbEntity
  8
0
  6
Continuous
 62
     7
370
    25
100
AcDbSpline
210
0.0
220
0.0
230
1.0
 70
     8
 71
     3
 72
    14
 73
    10
 74
     0
 42
0.00000001
 43
0.00000001
 40
0.0
 40
0.0
 40
0.0
 40
0.0
 40
0.1427477635401107
 40
0.2855033727887372
 40
0.4282496237593008
 40
0.5713184191744887
 40
0.7143969006257627
 40
0.8574667056505875
 40
1.0
 40
1.0
 40
1.0
 40
1.0
 10
448.8040130673424
 20
83.49859184258746
 30
0.0
 10
432.1628400043223
 20
83.54262112192468
 30
0.0
 10
398.8795792454362
 20
83.63068210053825
 30
0.0
 10
348.9141243256914
 20
83.71274110041793
 30
0.0
 10
298.8947702411521
 20
83.75624925062775
 30
0.0
 10
248.829936550929
 20
83.75602698422402
 30
0.0
 10
198.7350976670984
 20
83.71275332120453
 30
0.0
 10
148.7191211060566
 20
83.63073424376677
 30
0.0
 10
115.4242900062456
 20
83.54258411243288
 30
0.0
 10
98.8081469326547
 20
83.49859184258746
 30
0.0
  0
LINE
  5
99
330
1F
100
AcDbEntity
  8
0
  6
Continuous
 62
     7
370
    25
100
AcDbLine
 10
448.80608
 20
83.4895742421
 30
0.0
 11
448.8040130673
 21
83.4985918426
 31
0.0
  0
LINE
  5
9A
330
1F
100
AcDbEntity
  8
0
  6
Continuous
 62
     7
370
    25
100
AcDbLine
 10
448.80608
 20
76.1932174521
 30
0.0
 11
448.80608
 21
83.4895742421
 31
0.0
  0
LINE
  5
9B
330
1F
100
AcDbEntity
  8
0
  6
Continuous
 62
     7
370
    25
100
AcDbLine
 10
98.80608
 20
76.1932174521
 30
0.0
 11
98.80608
 21
83.4895742421
 31
0.0
  0
SPLINE
  5
9C
330
1F
100
AcDbEntity
  8
0
  6
Continuous
 62
     7
370
    25
100
AcDbSpline
210
0.0
220
0.0
230
1.0
 70
     8
 71
     3
 72
    15
 73
    11
 74
     0
 42
0.00000001
 43
0.00000001
 40
0.0
 40
0.0
 40
0.0
 40
0.0
 40
0.1277272276677288
 40
0.2500006214602885
 40
0.3758169348150611
 40
0.5000000007319622
 40
0.6241812975144804
 40
0.749999379718043
 40
0.8722718141150951
 40
1.0
 40
1.0
 40
1.0
 40
1.0
 10
98.80608000000049
 20
83.48957424210812
 30
0.0
 10
97.62886352911174
 20
83.56072962121719
 30
0.0
 10
95.3246966361991
 20
83.70000211089933
 30
0.0
 10
91.99692480546881
 20
84.76115727792688
 30
0.0
 10
88.95504195328272
 20
86.38250283221505
 30
0.0
 10
86.27607997692502
 20
88.58869699959993
 30
0.0
 10
84.06987225944759
 20
91.26766790063323
 30
0.0
 10
82.44852635840252
 20
94.3095414104782
 30
0.0
 10
81.38736402883582
 20
97.63732768984545
 30
0.0
 10
81.24809062328916
 20
99.94149465507095
 30
0.0
 10
81.1769342421074
 20
101.1187200000012
 30
0.0
  0
SPLINE
  5
9D
330
1F
100
AcDbEntity
  8
0
  6
Continuous
 62
     7
370
    25
100
AcDbSpline
210
0.0
220
0.0
230
1.0
 70
     8
 71
     3
 72
    15
 73
    11
 74
     0
 42
0.00000001
 43
0.00000001
 40
0.0
 40
0.0
 40
0.0
 40
0.0
 40
0.1277272283326722
 40
0.2500006214601121
 40
0.3758169354124252
 40
0.500000000731778
 40
0.6241812975162003
 40
0.7499993797179475
 40
0.8722718141171226
 40
1.0
 40
1.0
 40
1.0
 40
1.0
 10
466.4352257578935
 20
101.1187200000012
 30
0.0
 10
466.3640703780928
 20
99.94150352295628
 30
0.0
 10
466.2247978877818
 20
97.63733662999141
 30
0.0
 10
465.1636427175076
 20
94.30956479478769
 30
0.0
 10
463.5422971646207
 20
91.26768194851297
 30
0.0
 10
461.3361029961187
 20
88.588719973418
 30
0.0
 10
458.657132099352
 20
86.38251225943094
 30
0.0
 10
455.6152585894906
 20
84.76116635839104
 30
0.0
 10
452.2874723101369
 20
83.70000402883181
 30
0.0
 10
449.9833053449115
 20
83.56073062328772
 30
0.0
 10
448.8060800000005
 20
83.48957424210823
 30
0.0
  0
LINE
  5
9E
330
1F
100
AcDbEntity
  8
0
  6
Continuous
 62
     7
370
    25
100
AcDbLine
 10
249.55608
 20
459.3955323394
 30
0.0
 11
249.55608
 21
458.244141302
 31
0.0
  0
ARC
  5
9F
330
1F
100
AcDbEntity
  8
0
  6
Continuous
 62
     7
370
    25
100
AcDbCircle
 10
250.3067647631
 20
463.0078879653
 30
0.0
 40
4.822531481000288
100
AcDbArc
 50
261.0448095014
 51
272.9633983003
  0
LINE
  5
A0
330
1F
100
AcDbEntity
  8
0
  6
Continuous
 62
     7
370
    25
100
AcDbLine
 10
250.55608
 20
458.1918053458
 30
0.0
 11
297.05608
 21
458.1918053458
 31
0.0
  0
ARC
  5
A1
330
1F
100
AcDbEntity
  8
0
  6
Continuous
 62
     7
370
    25
100
AcDbCircle
 10
297.3053952369
 20
463.0078879653
 30
0.0
 40
4.822531481014502
100
AcDbArc
 50
267.0366016998
 51
278.9551904986
  0
LINE
  5
A2
330
1F
100
AcDbEntity
  8
0
  6
Continuous
 62
     7
370
    25
100
AcDbLine
 10
298.05608
 20
458.244141302
 30
0.0
 11
298.05608
 21
459.3955323394
 31
0.0
  0
ARC
  5
A3
330
1F
100
AcDbEntity
  8
0
  6
Continuous
 62
     7
370
    25
100
AcDbCircle
 10
297.3053952369
 20
454.6317856761
 30
0.0
 40
4.822531481004257
100
AcDbArc
 50
81.0448095014
 51
92.9633983002
  0
LINE
  5
A4
330
1F
100
AcDbEntity
  8
0
  6
Continuous
 62
     7
370
    25
100
AcDbLine
 10
297.05608
 20
459.4478682956
 30
0.0
 11
250.55608
 21
459.4478682956
 31
0.0
  0
ARC
  5
A5
330
1F
100
AcDbEntity
  8
0
  6
Continuous
 62
     7
370
    25
100
AcDbCircle
 10
250.3067647631
 20
454.6317856761
 30
0.0
 40
4.82253148100278
100
AcDbArc
 50
87.0366016998
 51
98.9551904986
  0
SPLINE
  5
A6
330
1F
100
AcDbEntity
  8
0
  6
Continuous
 62
     7
370
    25
100
AcDbSpline
210
0.0
220
0.0
230
1.0
 70
     8
 71
     3
 72
    15
 73
    11
 74
     0
 42
0.00000001
 43
0.00000001
 40
0.0
 40
0.0
 40
0.0
 40
0.0
 40
0.1366918975466711
 40
0.2733829199233769
 40
0.4102156772962544
 40
0.5470446163326573
 40
0.6602418527899317
 40
0.773440961014893
 40
0.8867203157131229
 40
1.0
 40
1.0
 40
1.0
 40
1.0
 10
98.80608000000049
 20
453.2895280904116
 30
0.0
 10
114.7392221036574
 20
453.2422240178864
 30
0.0
 10
146.6054042990182
 20
453.1476161757002
 30
0.0
 10
194.4620290829463
 20
453.0483113493785
 30
0.0
 10
242.3572299528742
 20
452.9857878758639
 30
0.0
 10
287.5261254452789
 20
452.9762208663229
 30
0.0
 10
329.9278979461252
 20
453.0143204793755
 30
0.0
 10
369.5648811473866
 20
453.0809162198186
 30
0.0
 10
409.195172017944
 20
453.1706896661611
 30
0.0
 10
435.6024312005883
 20
453.2499152439101
 30
0.0
 10
448.8060800000005
 20
453.2895280904116
 30
0.0
  0
LINE
  5
A7
330
1F
100
AcDbEntity
  8
0
  6
Continuous
 62
     7
370
    25
100
AcDbLine
 10
297.05608
 20
458.1918053458
 30
0.0
 11
297.05608
 21
458.9907089736
 31
0.0
  0
ARC
  5
A8
330
1F
100
AcDbEntity
  8
0
  6
Continuous
 62
     7
370
    25
100
AcDbCircle
 10
297.3053952369
 20
463.8067915931
 30
0.0
 40
4.822531481018872
100
AcDbArc
 50
267.0366016998
 51
278.9551904985
  0
LINE
  5
A9
330
1F
100
AcDbEntity
  8
0
  6
Continuous
 62
     7
370
    25
100
AcDbLine
 10
250.55608
 20
458.1918053458
 30
0.0
 11
250.55608
 21
458.9907089736
 31
0.0
  0
ARC
  5
AA
330
1F
100
AcDbEntity
  8
0
  6
Continuous
 62
     7
370
    25
100
AcDbCircle
 10
250.3067647631
 20
463.8067915931
 30
0.0
 40
4.822531481004835
100
AcDbArc
 50
261.0448095014
 51
272.9633983002
  0
LINE
  5
AB
330
1F
100
AcDbEntity
  8
0
  6
Continuous
 62
     7
370
    25
100
AcDbLine
 10
250.55608
 20
458.9907089736
 30
0.0
 11
297.05608
 21
458.9907089736
 31
0.0
  0
LINE
  5
AC
330
1F
100
AcDbEntity
  8
0
  6
Continuous
 62
     7
370
    25
100
AcDbLine
 10
81.1769342421
 20
101.11872
 30
0.0
 11
81.2142866846
 21
101.0866771884
 31
0.0
  0
SPLINE
  5
AD
330
1F
100
AcDbEntity
  8
0
  6
Continuous
 62
     7
370
    25
100
AcDbSpline
210
0.0
220
0.0
230
1.0
 70
     8
 71
     3
 72
    20
 73
    16
 74
     0
 42
0.00000001
 43
0.00000001
 40
0.0
 40
0.0
 40
0.0
 40
0.0
 40
0.1238919600005798
 40
0.2498681434631593
 40
0.3327189248945753
 40
0.4158479371667606
 40
0.5003172045298678
 40
0.5610732351903714
 40
0.6245083158154235
 40
0.6852665893870155
 40
0.7501918228547226
 40
0.8087873499023257
 40
0.8744868432483343
 40
0.926154029147923
 40
1.0
 40
1.0
 40
1.0
 40
1.0
 10
81.6479911796195
 20
436.1148430146132
 30
0.0
 10
81.81244202068098
 20
436.103396081632
 30
0.0
 10
82.14411024472697
 20
436.0803096449307
 30
0.0
 10
83.5508646124146
 20
435.729229168173
 30
0.0
 10
85.23712372075839
 20
435.2625470096885
 30
0.0
 10
87.00641105748183
 20
434.7479466403537
 30
0.0
 10
88.87607896495828
 20
434.1852498851169
 30
0.0
 10
90.76198813289597
 20
433.6046929872533
 30
0.0
 10
92.55371762165413
 20
433.0448682284729
 30
0.0
 10
94.49189768995316
 20
432.4310165359898
 30
0.0
 10
96.47047030571274
 20
431.7983701372989
 30
0.0
 10
98.57536902979344
 20
431.1190239702439
 30
0.0
 10
100.589177070937
 20
430.465988272837
 30
0.0
 10
102.816616629354
 20
429.7391468572366
 30
0.0
 10
104.3022995555803
 20
429.2539055724204
 30
0.0
 10
105.1764047163852
 20
428.9684126830522
 30
0.0
  0
SPLINE
  5
AE
330
1F
100
AcDbEntity
  8
0
  6
Continuous
 62
     7
370
    25
100
AcDbSpline
210
0.0
220
0.0
230
1.0
 70
     8
 71
     3
 72
    14
 73
    10
 74
     0
 42
0.00000001
 43
0.00000001
 40
0.0
 40
0.0
 40
0.0
 40
0.0
 40
0.130538681052144
 40
0.2855450735092704
 40
0.440551764070824
 40
0.5957333840455692
 40
0.7509159442679728
 40
0.8754578831624334
 40
1.0
 40
1.0
 40
1.0
 40
1.0
 10
105.1764047163852
 20
428.9684126830522
 30
0.0
 10
105.1813893443009
 20
414.9333038050198
 30
0.0
 10
105.1922929012629
 20
384.2323945880226
 30
0.0
 10
105.193547929706
 20
336.8507973897384
 30
0.0
 10
105.1862588503451
 20
286.8249971160527
 30
0.0
 10
105.1551746494425
 20
236.7987864188714
 30
0.0
 10
105.0888810581743
 20
190.0765748144719
 30
0.0
 10
104.9932275827396
 20
146.6739651200625
 30
0.0
 10
104.9105954943052
 20
119.9572627027387
 30
0.0
 10
104.8692794205721
 20
106.5989019510069
 30
0.0
  0
SPLINE
  5
AF
330
1F
100
AcDbEntity
  8
0
  6
Continuous
 62
     7
370
    25
100
AcDbSpline
210
0.0
220
0.0
230
1.0
 70
     8
 71
     3
 72
    17
 73
    13
 74
     0
 42
0.00000001
 43
0.00000001
 40
0.0
 40
0.0
 40
0.0
 40
0.0
 40
0.1266162836058793
 40
0.2500884703055952
 40
0.3750000705476592
 40
0.5003513362776644
 40
0.624490827786339
 40
0.75008819739795
 40
0.8087128132756749
 40
0.8744281464957986
 40
0.9261277671239687
 40
1.0
 40
1.0
 40
1.0
 40
1.0
 10
81.21428668462808
 20
101.0866771884145
 30
0.0
 10
81.41661897566141
 20
101.0273676915642
 30
0.0
 10
81.81625930403693
 20
100.9102214531854
 30
0.0
 10
83.46644379009874
 20
101.0764861709743
 30
0.0
 10
85.79028239614786
 20
101.4833169557623
 30
0.0
 10
88.78411552525515
 20
102.1418980452457
 30
0.0
 10
92.31108946912029
 20
103.0181289489664
 30
0.0
 10
95.55249796698548
 20
103.8909858971798
 30
0.0
 10
98.31551990429956
 20
104.6684414883576
 30
0.0
 10
100.3164588504577
 20
105.2447484654026
 30
0.0
 10
102.52810359871
 20
105.8952348101257
 30
0.0
 10
104.002129691266
 20
106.3382701927944
 30
0.0
 10
104.8692794205722
 20
106.598901951007
 30
0.0
  0
SPLINE
  5
B0
330
1F
100
AcDbEntity
  8
0
  6
Continuous
 62
     7
370
    25
100
AcDbSpline
210
0.0
220
0.0
230
1.0
 70
     8
 71
     3
 72
    20
 73
    16
 74
     0
 42
0.00000001
 43
0.00000001
 40
0.0
 40
0.0
 40
0.0
 40
0.0
 40
0.1265636594548469
 40
0.2499829629111616
 40
0.3327638616203961
 40
0.4158857241727359
 40
0.5003332294284666
 40
0.5611090712417993
 40
0.6245380711181842
 40
0.6853005982887632
 40
0.7501986628187062
 40
0.808796134291633
 40
0.8744834833273776
 40
0.9260963211903247
 40
1.0
 40
1.0
 40
1.0
 40
1.0
 10
98.80814693265475
 20
83.49859184258746
 30
0.0
 10
98.78480751626981
 20
83.66448784433456
 30
0.0
 10
98.73870852951764
 20
83.99215831649465
 30
0.0
 10
98.97697184561451
 20
85.3696976013959
 30
0.0
 10
99.3307605003965
 20
86.99915625124544
 30
0.0
 10
99.74661532872383
 20
88.72558942934583
 30
0.0
 10
100.2170664045608
 20
90.5533525679132
 30
0.0
 10
100.7130103806573
 20
92.39990340625137
 30
0.0
 10
101.198358061232
 20
94.15691259434644
 30
0.0
 10
101.7371090904701
 20
96.05982563690819
 30
0.0
 10
102.2985016683086
 20
98.00532686878527
 30
0.0
 10
102.9071563296126
 20
100.0779229346294
 30
0.0
 10
103.4974569189428
 20
102.0634441521048
 30
0.0
 10
104.159557911219
 20
104.2631582530864
 30
0.0
 10
104.6062617741162
 20
105.7332922688212
 30
0.0
 10
104.8692794205721
 20
106.598901951007
 30
0.0
  0
SPLINE
  5
B1
330
1F
100
AcDbEntity
  8
0
  6
Continuous
 62
     7
370
    25
100
AcDbSpline
210
0.0
220
0.0
230
1.0
 70
     8
 71
     3
 72
    14
 73
    10
 74
     0
 42
0.00000001
 43
0.00000001
 40
0.0
 40
0.0
 40
0.0
 40
0.0
 40
0.1267700191743647
 40
0.2721478071983585
 40
0.4175339142062409
 40
0.5629107601800596
 40
0.7086036766050685
 40
0.854305714557277
 40
0.9999999999999999
 40
0.9999999999999999
 40
0.9999999999999999
 40
0.9999999999999999
 10
104.8692794205721
 20
106.598901951007
 30
0.0
 10
119.1364404488094
 20
106.6255982183374
 30
0.0
 10
149.764948782788
 20
106.6829093291323
 30
0.0
 10
196.7904967440417
 20
106.7328536422938
 30
0.0
 10
245.9277597122727
 20
106.7587407179518
 30
0.0
 10
295.1085023223521
 20
106.7594407817312
 30
0.0
 10
344.3184917064526
 20
106.7373531432906
 30
0.0
 10
393.5495944743291
 20
106.6895347059086
 30
0.0
 10
426.345409385249
 20
106.6291123334679
 30
0.0
 10
442.7428805794287
 20
106.598901951007
 30
0.0
  0
SPLINE
  5
B2
330
1F
100
AcDbEntity
  8
0
  6
Continuous
 62
     7
370
    25
100
AcDbSpline
210
0.0
220
0.0
230
1.0
 70
     8
 71
     3
 72
    17
 73
    13
 74
     0
 42
0.00000001
 43
0.00000001
 40
0.0
 40
0.0
 40
0.0
 40
0.0
 40
0.126619095965441
 40
0.2500924586643491
 40
0.3750040151227875
 40
0.5003544613468
 40
0.6244928536890866
 40
0.7500892113057142
 40
0.8087123699602028
 40
0.8744284701874957
 40
0.9261190108075731
 40
1.0
 40
1.0
 40
1.0
 40
1.0
 10
448.8040130673424
 20
83.49859184258757
 30
0.0
 10
448.8272856130655
 20
83.66472069744214
 30
0.0
 10
448.8732525198333
 20
83.99285109079946
 30
0.0
 10
448.6058377379606
 20
85.54117507933856
 30
0.0
 10
448.1066604028514
 20
87.77188298801386
 30
0.0
 10
447.3671797157436
 20
90.6839887654921
 30
0.0
 10
446.4237917879641
 20
94.14298751295924
 30
0.0
 10
445.5085632151154
 20
97.3413678895788
 30
0.0
 10
444.7050461186113
 20
100.0778366134055
 30
0.0
 10
444.1145066492687
 20
102.0640830317756
 30
0.0
 10
443.4524196976017
 20
104.2637979710677
 30
0.0
 10
443.005707302214
 20
105.7339352272685
 30
0.0
 10
442.7428805794287
 20
106.598901951007
 30
0.0
  0
SPLINE
  5
B3
330
1F
100
AcDbEntity
  8
0
  6
Continuous
 62
     7
370
    25
100
AcDbSpline
210
0.0
220
0.0
230
1.0
 70
     8
 71
     3
 72
    19
 73
    15
 74
     0
 42
0.00000001
 43
0.00000001
 40
0.0
 40
0.0
 40
0.0
 40
0.0
 40
0.06091763798751
 40
0.1075781157532517
 40
0.1526959205540147
 40
0.2035613434400747
 40
0.2498889345086518
 40
0.3354981931962932
 40
0.4181289150024504
 40
0.4997520450948372
 40
0.6250774110533416
 40
0.749963202362495
 40
0.873409877541794
 40
1.0
 40
1.0
 40
1.0
 40
1.0
 10
442.7428805794287
 20
106.598901951007
 30
0.0
 10
443.458170765045
 20
106.3836935531421
 30
0.0
 10
444.7213446655363
 20
106.0036441175204
 30
0.0
 10
446.4938228719379
 20
105.4800921236606
 30
0.0
 10
448.12963878703
 20
105.0037879533383
 30
0.0
 10
449.7339337235266
 20
104.5450996827029
 30
0.0
 10
451.7484869699769
 20
103.9797364632342
 30
0.0
 10
454.0282579066238
 20
103.3597839854723
 30
0.0
 10
456.5156526407955
 20
102.7147845819953
 30
0.0
 10
459.1670872209066
 20
102.0673559042161
 30
0.0
 10
461.8221267627356
 20
101.4832495551935
 30
0.0
 10
464.1456507746623
 20
101.0765038720401
 30
0.0
 10
465.7959174604009
 20
100.9102169181736
 30
0.0
 10
466.1955466591264
 20
101.0273661672777
 30
0.0
 10
466.3978733153729
 20
101.0866771884158
 30
0.0
  0
SPLINE
  5
B4
330
1F
100
AcDbEntity
  8
0
  6
Continuous
 62
     7
370
    25
100
AcDbSpline
210
0.0
220
0.0
230
1.0
 70
     8
 71
     3
 72
    15
 73
    11
 74
     0
 42
0.00000001
 43
0.00000001
 40
0.0
 40
0.0
 40
0.0
 40
0.0
 40
0.1092517087232983
 40
0.2185033176017701
 40
0.3277992252600977
 40
0.4370949363359763
 40
0.5777367629432166
 40
0.7184108879342247
 40
0.8591877680134554
 40
1.0
 40
1.0
 40
1.0
 40
1.0
 10
442.7428805794287
 20
106.598901951007
 30
0.0
 10
442.706335602014
 20
118.3168820338156
 30
0.0
 10
442.633245680583
 20
141.7528314904043
 30
0.0
 10
442.5510289159688
 20
176.941150545971
 30
0.0
 10
442.4898139373573
 20
212.1523930827054
 30
0.0
 10
442.4463424191546
 20
250.7543037539963
 30
0.0
 10
442.4247501674394
 20
292.7470739577578
 30
0.0
 10
442.4202084576985
 20
338.1382965660417
 30
0.0
 10
442.4197055691982
 20
383.5526073378053
 30
0.0
 10
442.430404931062
 20
413.8285439109052
 30
0.0
 10
442.4357552836158
 20
428.9684126830522
 30
0.0
  0
SPLINE
  5
B5
330
1F
100
AcDbEntity
  8
0
  6
Continuous
 62
     7
370
    25
100
AcDbSpline
210
0.0
220
0.0
230
1.0
 70
     8
 71
     3
 72
    19
 73
    15
 74
     0
 42
0.00000001
 43
0.00000001
 40
0.0
 40
0.0
 40
0.0
 40
0.0
 40
0.060887150276952
 40
0.1075563772633448
 40
0.1527021865234761
 40
0.2035752014047581
 40
0.2498967934772919
 40
0.3355369131302522
 40
0.4181676040491428
 40
0.4997675726101882
 40
0.6250964989721156
 40
0.7500719731428099
 40
0.8734795134526295
 40
1.0
 40
1.0
 40
1.0
 40
1.0
 10
442.4357552836157
 20
428.9684126830522
 30
0.0
 10
443.1563808510081
 20
429.2038142327449
 30
0.0
 10
444.4293567587245
 20
429.619648078999
 30
0.0
 10
446.2147721291942
 20
430.2023548351775
 30
0.0
 10
447.8622127502165
 20
430.738303909663
 30
0.0
 10
449.4768024285502
 20
431.2611520497631
 30
0.0
 10
451.5028615485352
 20
431.9144491738608
 30
0.0
 10
453.7931469008641
 20
432.6458333726522
 30
0.0
 10
456.2872631678555
 20
433.4306901201405
 30
0.0
 10
458.9389648702569
 20
434.2491393680305
 30
0.0
 10
461.5826587735277
 20
435.0392305635509
 30
0.0
 10
463.8701161383342
 20
435.6809675127098
 30
0.0
 10
465.4591363130956
 20
436.0789758207334
 30
0.0
 10
465.7944325715216
 20
436.102788401007
 30
0.0
 10
465.964168820341
 20
436.1148429884017
 30
0.0
  0
LINE
  5
B6
330
1F
100
AcDbEntity
  8
0
  6
Continuous
 62
     7
370
    25
100
AcDbLine
 10
466.3978733154
 20
101.0866771884
 30
0.0
 11
466.4352257579
 21
101.11872
 31
0.0
  0
SPLINE
  5
B7
330
1F
100
AcDbEntity
  8
0
  6
Continuous
 62
     7
370
    25
100
AcDbSpline
210
0.0
220
0.0
230
1.0
 70
     8
 71
     3
 72
    15
 73
    11
 74
     0
 42
0.00000001
 43
0.00000001
 40
0.0
 40
0.0
 40
0.0
 40
0.0
 40
0.1250345603200246
 40
0.2500398914115254
 40
0.3750250805445638
 40
0.5000000004212124
 40
0.6249749202877994
 40
0.7499601093833896
 40
0.8749654402860935
 40
0.9999999999999999
 40
0.9999999999999999
 40
0.9999999999999999
 40
0.9999999999999999
 10
98.8081469326547
 20
83.49859184258757
 30
0.0
 10
97.66039561453063
 20
83.56810169197138
 30
0.0
 10
95.36516128718434
 20
83.70710514147761
 30
0.0
 10
92.05362787582163
 20
84.75913231103193
 30
0.0
 10
88.99978734115346
 20
86.38719168680076
 30
0.0
 10
86.32141329072098
 20
88.5905786480653
 30
0.0
 10
84.11643890708167
 20
91.26893724649577
 30
0.0
 10
82.4852486160876
 20
94.3243709152859
 30
0.0
 10
81.42876053305301
 20
97.63893150697788
 30
0.0
 10
81.28578353861096
 20
99.93733906926505
 30
0.0
 10
81.21428668462814
 20
101.0866771884145
 30
0.0
  0
SPLINE
  5
B8
330
1F
100
AcDbEntity
  8
0
  6
Continuous
 62
     7
370
    25
100
AcDbSpline
210
0.0
220
0.0
230
1.0
 70
     8
 71
     3
 72
    15
 73
    11
 74
     0
 42
0.00000001
 43
0.00000001
 40
0.0
 40
0.0
 40
0.0
 40
0.0
 40
0.1250345613511684
 40
0.2500398906185328
 40
0.3750250796996374
 40
0.4999999995595761
 40
0.6249749194428682
 40
0.7499601085903925
 40
0.8749654413172301
 40
1.0
 40
1.0
 40
1.0
 40
1.0
 10
448.8040130673448
 20
83.49859184258757
 30
0.0
 10
449.9517643949883
 20
83.5681016929971
 30
0.0
 10
452.2469987151636
 20
83.70710514296742
 30
0.0
 10
455.5585321181271
 20
84.75913231033738
 30
0.0
 10
458.6123726395326
 20
86.38719167392762
 30
0.0
 10
461.2907466925047
 20
88.59057863129615
 30
0.0
 10
463.4957210800297
 20
91.26893722717688
 30
0.0
 10
465.1269113832084
 20
94.32437090922751
 30
0.0
 10
466.1833994684398
 20
97.6389315093279
 30
0.0
 10
466.3263764624316
 20
99.93733907879788
 30
0.0
 10
466.3978733153729
 20
101.0866771884159
 30
0.0
  0
LINE
  5
B9
330
1F
100
AcDbEntity
  8
0
  6
Continuous
 62
     7
370
    25
100
AcDbLine
 10
98.7740473861
 20
453.2368854822
 30
0.0
 11
98.80608
 21
453.2895280904
 31
0.0
  0
LINE
  5
BA
330
1F
100
AcDbEntity
  8
0
  6
Continuous
 62
     7
370
    25
100
AcDbLine
 10
448.8381125877
 20
453.2368854821
 30
0.0
 11
448.80608
 21
453.2895280904
 31
0.0
  0
SPLINE
  5
BB
330
1F
100
AcDbEntity
  8
0
  6
Continuous
 62
     7
370
    25
100
AcDbSpline
210
0.0
220
0.0
230
1.0
 70
     8
 71
     3
 72
    19
 73
    15
 74
     0
 42
0.00000001
 43
0.00000001
 40
0.0
 40
0.0
 40
0.0
 40
0.0
 40
0.0608996912117067
 40
0.107565341913299
 40
0.1527019747678857
 40
0.2035749477058401
 40
0.2498997942566273
 40
0.3355398313614925
 40
0.4181724959524216
 40
0.4997764757391175
 40
0.6251078145529225
 40
0.7500835747419855
 40
0.8760828359566342
 40
1.0
 40
1.0
 40
1.0
 40
1.0
 10
442.4357552836155
 20
428.9684126830522
 30
0.0
 10
442.6688542861733
 20
429.6912610589326
 30
0.0
 10
443.0805702310473
 20
430.9680069858168
 30
0.0
 10
443.6518375088001
 20
432.7641937179615
 30
0.0
 10
444.1739794084173
 20
434.4246484774279
 30
0.0
 10
444.6795567044746
 20
436.0558585120459
 30
0.0
 10
445.3063467990181
 20
438.1077968469937
 30
0.0
 10
445.9997258632387
 20
440.4354532783751
 30
0.0
 10
446.7306275708698
 20
442.9829345903375
 30
0.0
 10
447.4762851294637
 20
445.7069706861736
 30
0.0
 10
448.1690154016218
 20
448.4476647363032
 30
0.0
 10
448.6895069765129
 20
450.8771267913602
 30
0.0
 10
448.9469997416694
 20
452.5957832869299
 30
0.0
 10
448.8742061536859
 20
453.0243749743527
 30
0.0
 10
448.8381125877101
 20
453.236885482148
 30
0.0
  0
SPLINE
  5
BC
330
1F
100
AcDbEntity
  8
0
  6
Continuous
 62
     7
370
    25
100
AcDbSpline
210
0.0
220
0.0
230
1.0
 70
     8
 71
     3
 72
    15
 73
    11
 74
     0
 42
0.00000001
 43
0.00000001
 40
0.0
 40
0.0
 40
0.0
 40
0.0
 40
0.1126172601883328
 40
0.2252341933575137
 40
0.3379162108340202
 40
0.4505966466880155
 40
0.5878661913652037
 40
0.7251389957543473
 40
0.8625690457730376
 40
1.0
 40
1.0
 40
1.0
 40
1.0
 10
442.4357552836155
 20
428.9684126830522
 30
0.0
 10
429.7863551599904
 20
428.9442762643101
 30
0.0
 10
404.4875916441974
 20
428.8960034969131
 30
0.0
 10
366.5065602928483
 20
428.868404840746
 30
0.0
 10
328.5037904373041
 20
428.8913730302523
 30
0.0
 10
287.7142223169442
 20
428.9453963291469
 30
0.0
 10
244.1511435909899
 20
428.9232915959158
 30
0.0
 10
197.8182411882315
 20
428.8668609433877
 30
0.0
 10
151.4876343534105
 20
428.8826746998687
 30
0.0
 10
120.6135151175164
 20
428.9398332926463
 30
0.0
 10
105.1764047163852
 20
428.9684126830522
 30
0.0
  0
SPLINE
  5
BD
330
1F
100
AcDbEntity
  8
0
  6
Continuous
 62
     7
370
    25
100
AcDbSpline
210
0.0
220
0.0
230
1.0
 70
     8
 71
     3
 72
    19
 73
    15
 74
     0
 42
0.00000001
 43
0.00000001
 40
0.0
 40
0.0
 40
0.0
 40
0.0
 40
0.0609030040794675
 40
0.1075675297788093
 40
0.1527025322486863
 40
0.2035757928182569
 40
0.249899714305281
 40
0.3355407252805444
 40
0.4181734194525959
 40
0.4997763169969323
 40
0.6251076162756424
 40
0.7500833378325074
 40
0.8734876168708438
 40
1.0
 40
1.0
 40
1.0
 40
1.0
 10
105.1764047163852
 20
428.9684126830523
 30
0.0
 10
104.9432932529078
 20
429.6913006989353
 30
0.0
 10
104.5315693212499
 20
430.968073156231
 30
0.0
 10
103.9602995218331
 20
432.7642656673909
 30
0.0
 10
103.4381672555942
 20
434.4246916040352
 30
0.0
 10
102.9325976178892
 20
436.0558755753051
 30
0.0
 10
102.3058066974706
 20
438.1078179628653
 30
0.0
 10
101.6124273419333
 20
440.4354749876996
 30
0.0
 10
100.8815249970163
 20
442.9829552741197
 30
0.0
 10
100.1358815005521
 20
445.7069759564745
 30
0.0
 10
99.44308787907345
 20
448.447684725792
 30
0.0
 10
98.92644792227858
 20
450.8603006345774
 30
0.0
 10
98.66528472112648
 20
452.5865577335586
 30
0.0
 10
98.73749382013445
 20
453.0183196878876
 30
0.0
 10
98.77404738611071
 20
453.2368854822324
 30
0.0
  0
SPLINE
  5
BE
330
1F
100
AcDbEntity
  8
0
  6
Continuous
 62
     7
370
    25
100
AcDbSpline
210
0.0
220
0.0
230
1.0
 70
     8
 71
     3
 72
    15
 73
    11
 74
     0
 42
0.00000001
 43
0.00000001
 40
0.0
 40
0.0
 40
0.0
 40
0.0
 40
0.1250394476639786
 40
0.2500455276998775
 40
0.3750286222876958
 40
0.5000000004164478
 40
0.6249713785386309
 40
0.7499544730936275
 40
0.8749605534571734
 40
1.0
 40
1.0
 40
1.0
 40
1.0
 10
81.6479911796195
 20
436.1148430146174
 30
0.0
 10
81.71609571477414
 20
437.2315378954814
 30
0.0
 10
81.85228661092455
 20
439.4646296595763
 30
0.0
 10
82.87748684183069
 20
442.6865258430333
 30
0.0
 10
84.46317884577118
 20
445.6577791016018
 30
0.0
 10
86.60865435848473
 20
448.2639202386582
 30
0.0
 10
89.21627030972859
 20
450.4097566037167
 30
0.0
 10
92.1908162841308
 20
451.9976725589933
 30
0.0
 10
95.41758313735296
 20
453.0267469480681
 30
0.0
 10
97.6551264436211
 20
453.1668330731273
 30
0.0
 10
98.77404738611075
 20
453.2368854822324
 30
0.0
  0
SPLINE
  5
BF
330
1F
100
AcDbEntity
  8
0
  6
Continuous
 62
     7
370
    25
100
AcDbSpline
210
0.0
220
0.0
230
1.0
 70
     8
 71
     3
 72
    15
 73
    11
 74
     0
 42
0.00000001
 43
0.00000001
 40
0.0
 40
0.0
 40
0.0
 40
0.0
 40
0.1250394486909993
 40
0.2500455269100709
 40
0.375028621446185
 40
0.4999999995583152
 40
0.6249713776971427
 40
0.7499544723038479
 40
0.8749605544842181
 40
1.0
 40
1.0
 40
1.0
 40
1.0
 10
465.964168820341
 20
436.1148429884017
 30
0.0
 10
465.8960642840841
 20
437.2315378801944
 30
0.0
 10
465.7598733872784
 20
439.4646296407484
 30
0.0
 10
464.7346731569285
 20
442.686525820984
 30
0.0
 10
463.1489811623774
 20
445.6577790712334
 30
0.0
 10
461.0035056501652
 20
448.2639202147265
 30
0.0
 10
458.3958896974123
 20
450.4097565868233
 30
0.0
 10
455.4213437056113
 20
451.9976725563325
 30
0.0
 10
452.1945768393127
 20
453.0267469491097
 30
0.0
 10
449.9570335226653
 20
453.1668330739495
 30
0.0
 10
448.8381125877101
 20
453.236885482148
 30
0.0
  0
CIRCLE
  5
C0
330
1F
100
AcDbEntity
  8
0
  6
Continuous
 62
     7
370
    25
100
AcDbCircle
 10
273.80608
 20
351.11872
 30
0.0
 40
70.0
  0
CIRCLE
  5
C1
330
1F
100
AcDbEntity
  8
0
  6
Continuous
 62
     7
370
    25
100
AcDbCircle
 10
273.80608
 20
351.11872
 30
0.0
 40
58.94765075494615
  0
CIRCLE
  5
C2
330
1F
100
AcDbEntity
  8
0
  6
Continuous
 62
     7
370
    25
100
AcDbCircle
 10
273.80608
 20
351.11872
 30
0.0
 40
57.49999999999989
  0
CIRCLE
  5
C3
330
1F
100
AcDbEntity
  8
0
  6
Continuous
 62
     7
370
    25
100
AcDbCircle
 10
273.80608
 20
351.11872
 30
0.0
 40
56.58715574274748
  0
CIRCLE
  5
C4
330
1F
100
AcDbEntity
  8
0
  6
Continuous
 62
     7
370
    25
100
AcDbCircle
 10
273.80608
 20
351.11872
 30
0.0
 40
45.04349479983892
  0
CIRCLE
  5
C5
330
1F
100
AcDbEntity
  8
0
  6
Continuous
 62
     7
370
    25
100
AcDbCircle
 10
273.80608
 20
351.11872
 30
0.0
 40
44.95633905709133
  0
LINE
  5
C6
330
1F
100
AcDbEntity
  8
0
  6
Continuous
 62
     7
370
    25
100
AcDbLine
 10
55.80608
 20
519.11872
 30
0.0
 11
56.5722055893
 21
519.11872
 31
0.0
  0
ARC
  5
C7
330
1F
100
AcDbEntity
  8
0
  6
Continuous
 62
     7
370
    25
100
AcDbCircle
 10
78.80608
 20
519.11872
 30
0.0
 40
23.00000000000001
100
AcDbArc
 50
90.0
 51
180.0
  0
LINE
  5
C8
330
1F
100
AcDbEntity
  8
0
  6
Continuous
 62
     7
370
    25
100
AcDbLine
 10
78.80608
 20
542.11872
 30
0.0
 11
78.80608
 21
541.3525944107
 31
0.0
  0
ARC
  5
C9
330
1F
100
AcDbEntity
  8
0
  6
Continuous
 62
     7
370
    25
100
AcDbCircle
 10
78.80608
 20
519.11872
 30
0.0
 40
22.23387441067958
100
AcDbArc
 50
90.0
 51
180.0
  0
LINE
  5
CA
330
1F
100
AcDbEntity
  8
0
  6
Continuous
 62
     7
370
    25
100
AcDbLine
 10
491.80608
 20
81.11872
 30
0.0
 11
491.0399544107
 21
81.11872
 31
0.0
  0
ARC
  5
CB
330
1F
100
AcDbEntity
  8
0
  6
Continuous
 62
     7
370
    25
100
AcDbCircle
 10
468.80608
 20
81.11872
 30
0.0
 40
23.00000000000003
100
AcDbArc
 50
270.0
 51
0.0
  0
LINE
  5
CC
330
1F
100
AcDbEntity
  8
0
  6
Continuous
 62
     7
370
    25
100
AcDbLine
 10
468.80608
 20
58.11872
 30
0.0
 11
468.80608
 21
58.8848455893
 31
0.0
  0
ARC
  5
CD
330
1F
100
AcDbEntity
  8
0
  6
Continuous
 62
     7
370
    25
100
AcDbCircle
 10
468.80608
 20
81.11872
 30
0.0
 40
22.23387441067962
100
AcDbArc
 50
270.0
 51
0.0
  0
LINE
  5
CE
330
1F
100
AcDbEntity
  8
0
  6
Continuous
 62
     7
370
    25
100
AcDbLine
 10
491.80608
 20
519.11872
 30
0.0
 11
491.0399544107
 21
519.11872
 31
0.0
  0
LINE
  5
CF
330
1F
100
AcDbEntity
  8
0
  6
Continuous
 62
     7
370
    25
100
AcDbLine
 10
491.80608
 20
300.11872
 30
0.0
 11
491.80608
 21
519.11872
 31
0.0
  0
LINE
  5
D0
330
1F
100
AcDbEntity
  8
0
  6
Continuous
 62
     7
370
    25
100
AcDbLine
 10
491.80608
 20
300.11872
 30
0.0
 11
491.0399544107
 21
300.11872
 31
0.0
  0
LINE
  5
D1
330
1F
100
AcDbEntity
  8
0
  6
Continuous
 62
     7
370
    25
100
AcDbLine
 10
491.0399544107
 20
300.11872
 30
0.0
 11
491.0399544107
 21
519.11872
 31
0.0
  0
ARC
  5
D2
330
1F
100
AcDbEntity
  8
0
  6
Continuous
 62
     7
370
    25
100
AcDbCircle
 10
47.80608
 20
550.11872
 30
0.0
 40
10.00000000000001
100
AcDbArc
 50
90.0
 51
180.0
  0
LINE
  5
D3
330
1F
100
AcDbEntity
  8
0
  6
Continuous
 62
     7
370
    25
100
AcDbLine
 10
499.80608
 20
560.11872
 30
0.0
 11
47.80608
 21
560.11872
 31
0.0
  0
ARC
  5
D4
330
1F
100
AcDbEntity
  8
0
  6
Continuous
 62
     7
370
    25
100
AcDbCircle
 10
499.80608
 20
550.11872
 30
0.0
 40
10.0
100
AcDbArc
 50
0.0
 51
90.0
  0
LINE
  5
D5
330
1F
100
AcDbEntity
  8
0
  6
Continuous
 62
     7
370
    25
100
AcDbLine
 10
509.80608
 20
50.11872
 30
0.0
 11
509.80608
 21
550.11872
 31
0.0
  0
ARC
  5
D6
330
1F
100
AcDbEntity
  8
0
  6
Continuous
 62
     7
370
    25
100
AcDbCircle
 10
499.80608
 20
50.11872
 30
0.0
 40
10.00000000000001
100
AcDbArc
 50
270.0
 51
0.0
  0
ARC
  5
D7
330
1F
100
AcDbEntity
  8
0
  6
Continuous
 62
     7
370
    25
100
AcDbCircle
 10
47.80608
 20
50.11872
 30
0.0
 40
10.00000000000001
100
AcDbArc
 50
180.0
 51
270.0
  0
ARC
  5
D8
330
1F
100
AcDbEntity
  8
0
  6
Continuous
 62
     7
370
    25
100
AcDbCircle
 10
468.80608
 20
519.11872
 30
0.0
 40
23.0
100
AcDbArc
 50
0.0
 51
90.0
  0
LINE
  5
D9
330
1F
100
AcDbEntity
  8
0
  6
Continuous
 62
     7
370
    25
100
AcDbLine
 10
468.80608
 20
542.11872
 30
0.0
 11
78.80608
 21
542.11872
 31
0.0
  0
LINE
  5
DA
330
1F
100
AcDbEntity
  8
0
  6
Continuous
 62
     7
370
    25
100
AcDbLine
 10
55.80608
 20
519.11872
 30
0.0
 11
55.80608
 21
81.11872
 31
0.0
  0
ARC
  5
DB
330
1F
100
AcDbEntity
  8
0
  6
Continuous
 62
     7
370
    25
100
AcDbCircle
 10
78.80608
 20
81.11872
 30
0.0
 40
23.00000000000003
100
AcDbArc
 50
180.0
 51
270.0
  0
LINE
  5
DC
330
1F
100
AcDbEntity
  8
0
  6
Continuous
 62
     7
370
    25
100
AcDbLine
 10
78.80608
 20
58.11872
 30
0.0
 11
468.80608
 21
58.11872
 31
0.0
  0
LINE
  5
DD
330
1F
100
AcDbEntity
  8
0
  6
Continuous
 62
     7
370
    25
100
AcDbLine
 10
491.80608
 20
81.11872
 30
0.0
 11
491.80608
 21
300.11872
 31
0.0
  0
LINE
  5
DE
330
1F
100
AcDbEntity
  8
0
  6
Continuous
 62
     7
370
    25
100
AcDbLine
 10
47.80608
 20
40.11872
 30
0.0
 11
499.80608
 21
40.11872
 31
0.0
  0
LINE
  5
DF
330
1F
100
AcDbEntity
  8
0
  6
Continuous
 62
     7
370
    25
100
AcDbLine
 10
37.80608
 20
550.11872
 30
0.0
 11
37.80608
 21
50.11872
 31
0.0
  0
LINE
  5
E0
330
1F
100
AcDbEntity
  8
0
  6
Continuous
 62
     7
370
    25
100
AcDbLine
 10
55.80608
 20
81.11872
 30
0.0
 11
56.5722055893
 21
81.11872
 31
0.0
  0
LINE
  5
E1
330
1F
100
AcDbEntity
  8
0
  6
Continuous
 62
     7
370
    25
100
AcDbLine
 10
56.5722055893
 20
519.11872
 30
0.0
 11
56.5722055893
 21
81.11872
 31
0.0
  0
LINE
  5
E2
330
1F
100
AcDbEntity
  8
0
  6
Continuous
 62
     7
370
    25
100
AcDbLine
 10
491.0399544107
 20
81.11872
 30
0.0
 11
491.0399544107
 21
300.11872
 31
0.0
  0
LINE
  5
E3
330
1F
100
AcDbEntity
  8
0
  6
Continuous
 62
     7
370
    25
100
AcDbLine
 10
468.80608
 20
542.11872
 30
0.0
 11
468.80608
 21
541.3525944107
 31
0.0
  0
ARC
  5
E4
330
1F
100
AcDbEntity
  8
0
  6
Continuous
 62
     7
370
    25
100
AcDbCircle
 10
468.80608
 20
519.11872
 30
0.0
 40
22.23387441067962
100
AcDbArc
 50
0.0
 51
90.0
  0
LINE
  5
E5
330
1F
100
AcDbEntity
  8
0
  6
Continuous
 62
     7
370
    25
100
AcDbLine
 10
468.80608
 20
541.3525944107
 30
0.0
 11
78.80608
 21
541.3525944107
 31
0.0
  0
LINE
  5
E6
330
1F
100
AcDbEntity
  8
0
  6
Continuous
 62
     7
370
    25
100
AcDbLine
 10
78.80608
 20
58.11872
 30
0.0
 11
78.80608
 21
58.8848455893
 31
0.0
  0
LINE
  5
E7
330
1F
100
AcDbEntity
  8
0
  6
Continuous
 62
     7
370
    25
100
AcDbLine
 10
78.80608
 20
58.8848455893
 30
0.0
 11
468.80608
 21
58.8848455893
 31
0.0
  0
ARC
  5
E8
330
1F
100
AcDbEntity
  8
0
  6
Continuous
 62
     7
370
    25
100
AcDbCircle
 10
78.80608
 20
81.11872
 30
0.0
 40
22.23387441067959
100
AcDbArc
 50
180.0
 51
270.0
  0
LINE
  5
E9
330
1F
100
AcDbEntity
  8
0
  6
Continuous
 62
     7
370
    25
100
AcDbLine
 10
468.80608
 20
541.3525944107
 30
0.0
 11
468.80608
 21
540.3949849831
 31
0.0
  0
LINE
  5
EA
330
1F
100
AcDbEntity
  8
0
  6
Continuous
 62
     7
370
    25
100
AcDbLine
 10
491.0399544107
 20
519.11872
 30
0.0
 11
490.0823449831
 21
519.11872
 31
0.0
  0
ARC
  5
EB
330
1F
100
AcDbEntity
  8
0
  6
Continuous
 62
     7
370
    25
100
AcDbCircle
 10
468.80608
 20
519.11872
 30
0.0
 40
21.2762649830733
100
AcDbArc
 50
0.0
 51
90.0
  0
LINE
  5
EC
330
1F
100
AcDbEntity
  8
0
  6
Continuous
 62
     7
370
    25
100
AcDbLine
 10
56.5722055893
 20
81.11872
 30
0.0
 11
57.5298150169
 21
81.11872
 31
0.0
  0
LINE
  5
ED
330
1F
100
AcDbEntity
  8
0
  6
Continuous
 62
     7
370
    25
100
AcDbLine
 10
56.5722055893
 20
519.11872
 30
0.0
 11
57.5298150169
 21
519.11872
 31
0.0
  0
LINE
  5
EE
330
1F
100
AcDbEntity
  8
0
  6
Continuous
 62
     7
370
    25
100
AcDbLine
 10
57.5298150169
 20
519.11872
 30
0.0
 11
57.5298150169
 21
81.11872
 31
0.0
  0
LINE
  5
EF
330
1F
100
AcDbEntity
  8
0
  6
Continuous
 62
     7
370
    25
100
AcDbLine
 10
78.80608
 20
541.3525944107
 30
0.0
 11
78.80608
 21
540.3949849831
 31
0.0
  0
ARC
  5
F0
330
1F
100
AcDbEntity
  8
0
  6
Continuous
 62
     7
370
    25
100
AcDbCircle
 10
78.80608
 20
519.11872
 30
0.0
 40
21.27626498307333
100
AcDbArc
 50
90.0
 51
180.0
  0
LINE
  5
F1
330
1F
100
AcDbEntity
  8
0
  6
Continuous
 62
     7
370
    25
100
AcDbLine
 10
468.80608
 20
58.8848455893
 30
0.0
 11
468.80608
 21
59.8424550169
 31
0.0
  0
LINE
  5
F2
330
1F
100
AcDbEntity
  8
0
  6
Continuous
 62
     7
370
    25
100
AcDbLine
 10
78.80608
 20
58.8848455893
 30
0.0
 11
78.80608
 21
59.8424550169
 31
0.0
  0
LINE
  5
F3
330
1F
100
AcDbEntity
  8
0
  6
Continuous
 62
     7
370
    25
100
AcDbLine
 10
78.80608
 20
59.8424550169
 30
0.0
 11
468.80608
 21
59.8424550169
 31
0.0
  0
LINE
  5
F4
330
1F
100
AcDbEntity
  8
0
  6
Continuous
 62
     7
370
    25
100
AcDbLine
 10
491.0399544107
 20
81.11872
 30
0.0
 11
490.0823449831
 21
81.11872
 31
0.0
  0
LINE
  5
F5
330
1F
100
AcDbEntity
  8
0
  6
Continuous
 62
     7
370
    25
100
AcDbLine
 10
490.0823449831
 20
81.11872
 30
0.0
 11
490.0823449831
 21
300.11872
 31
0.0
  0
LINE
  5
F6
330
1F
100
AcDbEntity
  8
0
  6
Continuous
 62
     7
370
    25
100
AcDbLine
 10
491.0399544107
 20
300.11872
 30
0.0
 11
490.0823449831
 21
300.11872
 31
0.0
  0
LINE
  5
F7
330
1F
100
AcDbEntity
  8
0
  6
Continuous
 62
     7
370
    25
100
AcDbLine
 10
468.80608
 20
540.3949849831
 30
0.0
 11
78.80608
 21
540.3949849831
 31
0.0
  0
ARC
  5
F8
330
1F
100
AcDbEntity
  8
0
  6
Continuous
 62
     7
370
    25
100
AcDbCircle
 10
468.80608
 20
81.11872
 30
0.0
 40
21.27626498307336
100
AcDbArc
 50
270.0
 51
0.0
  0
LINE
  5
F9
330
1F
100
AcDbEntity
  8
0
  6
Continuous
 62
     7
370
    25
100
AcDbLine
 10
490.0823449831
 20
300.11872
 30
0.0
 11
490.0823449831
 21
519.11872
 31
0.0
  0
ARC
  5
FA
330
1F
100
AcDbEntity
  8
0
  6
Continuous
 62
     7
370
    25
100
AcDbCircle
 10
78.80608
 20
81.11872
 30
0.0
 40
21.27626498307334
100
AcDbArc
 50
180.0
 51
270.0
  0
LINE
  5
FB
330
1F
100
AcDbEntity
  8
0
  6
Continuous
 62
     7
370
    25
100
AcDbLine
 10
57.5298150169
 20
519.11872
 30
0.0
 11
62.8926941422
 21
519.11872
 31
0.0
  0
LINE
  5
FC
330
1F
100
AcDbEntity
  8
0
  6
Continuous
 62
     7
370
    25
100
AcDbLine
 10
78.80608
 20
540.3949849831
 30
0.0
 11
78.80608
 21
535.0321058578
 31
0.0
  0
ARC
  5
FD
330
1F
100
AcDbEntity
  8
0
  6
Continuous
 62
     7
370
    25
100
AcDbCircle
 10
78.80608
 20
519.11872
 30
0.0
 40
15.91338585783025
100
AcDbArc
 50
90.0
 51
180.0
  0
LINE
  5
FE
330
1F
100
AcDbEntity
  8
0
  6
Continuous
 62
     7
370
    25
100
AcDbLine
 10
490.0823449831
 20
81.11872
 30
0.0
 11
484.7194658578
 21
81.11872
 31
0.0
  0
LINE
  5
FF
330
1F
100
AcDbEntity
  8
0
  6
Continuous
 62
     7
370
    25
100
AcDbLine
 10
484.7194658578
 20
81.11872
 30
0.0
 11
484.7194658578
 21
300.11872
 31
0.0
  0
LINE
  5
100
330
1F
100
AcDbEntity
  8
0
  6
Continuous
 62
     7
370
    25
100
AcDbLine
 10
490.0823449831
 20
300.11872
 30
0.0
 11
484.7194658578
 21
300.11872
 31
0.0
  0
LINE
  5
101
330
1F
100
AcDbEntity
  8
0
  6
Continuous
 62
     7
370
    25
100
AcDbLine
 10
468.80608
 20
540.3949849831
 30
0.0
 11
468.80608
 21
535.0321058578
 31
0.0
  0
LINE
  5
102
330
1F
100
AcDbEntity
  8
0
  6
Continuous
 62
     7
370
    25
100
AcDbLine
 10
490.0823449831
 20
519.11872
 30
0.0
 11
484.7194658578
 21
519.11872
 31
0.0
  0
ARC
  5
103
330
1F
100
AcDbEntity
  8
0
  6
Continuous
 62
     7
370
    25
100
AcDbCircle
 10
468.80608
 20
519.11872
 30
0.0
 40
15.91338585783024
100
AcDbArc
 50
0.0
 51
90.0
  0
LINE
  5
104
330
1F
100
AcDbEntity
  8
0
  6
Continuous
 62
     7
370
    25
100
AcDbLine
 10
468.80608
 20
535.0321058578
 30
0.0
 11
78.80608
 21
535.0321058578
 31
0.0
  0
LINE
  5
105
330
1F
100
AcDbEntity
  8
0
  6
Continuous
 62
     7
370
    25
100
AcDbLine
 10
468.80608
 20
59.8424550169
 30
0.0
 11
468.80608
 21
65.2053341422
 31
0.0
  0
ARC
  5
106
330
1F
100
AcDbEntity
  8
0
  6
Continuous
 62
     7
370
    25
100
AcDbCircle
 10
468.80608
 20
81.11872
 30
0.0
 40
15.91338585783032
100
AcDbArc
 50
270.0
 51
0.0
  0
LINE
  5
107
330
1F
100
AcDbEntity
  8
0
  6
Continuous
 62
     7
370
    25
100
AcDbLine
 10
57.5298150169
 20
81.11872
 30
0.0
 11
62.8926941422
 21
81.11872
 31
0.0
  0
LINE
  5
108
330
1F
100
AcDbEntity
  8
0
  6
Continuous
 62
     7
370
    25
100
AcDbLine
 10
62.8926941422
 20
519.11872
 30
0.0
 11
62.8926941422
 21
81.11872
 31
0.0
  0
LINE
  5
109
330
1F
100
AcDbEntity
  8
0
  6
Continuous
 62
     7
370
    25
100
AcDbLine
 10
484.7194658578
 20
300.11872
 30
0.0
 11
484.7194658578
 21
519.11872
 31
0.0
  0
LINE
  5
10A
330
1F
100
AcDbEntity
  8
0
  6
Continuous
 62
     7
370
    25
100
AcDbLine
 10
78.80608
 20
59.8424550169
 30
0.0
 11
78.80608
 21
65.2053341422
 31
0.0
  0
ARC
  5
10B
330
1F
100
AcDbEntity
  8
0
  6
Continuous
 62
     7
370
    25
100
AcDbCircle
 10
78.80608
 20
81.11872
 30
0.0
 40
15.91338585783032
100
AcDbArc
 50
180.0
 51
270.0
  0
LINE
  5
10C
330
1F
100
AcDbEntity
  8
0
  6
Continuous
 62
     7
370
    25
100
AcDbLine
 10
78.80608
 20
65.2053341422
 30
0.0
 11
468.80608
 21
65.2053341422
 31
0.0
  0
LINE
  5
10D
330
1F
100
AcDbEntity
  8
0
  6
Continuous
 62
     7
370
    25
100
AcDbLine
 10
479.80608
 20
435.61872
 30
0.0
 11
479.80608
 21
101.61872
 31
0.0
  0
ARC
  5
10E
330
1F
100
AcDbEntity
  8
0
  6
Continuous
 62
     7
370
    25
100
AcDbCircle
 10
448.30608
 20
435.61872
 30
0.0
 40
31.50000000000011
100
AcDbArc
 50
0.0
 51
90.0
  0
LINE
  5
10F
330
1F
100
AcDbEntity
  8
0
  6
Continuous
 62
     7
370
    25
100
AcDbLine
 10
99.30608
 20
467.11872
 30
0.0
 11
448.30608
 21
467.11872
 31
0.0
  0
ARC
  5
110
330
1F
100
AcDbEntity
  8
0
  6
Continuous
 62
     7
370
    25
100
AcDbCircle
 10
99.30608
 20
435.61872
 30
0.0
 40
31.50000000000014
100
AcDbArc
 50
90.0
 51
180.0
  0
LINE
  5
111
330
1F
100
AcDbEntity
  8
0
  6
Continuous
 62
     7
370
    25
100
AcDbLine
 10
67.80608
 20
101.61872
 30
0.0
 11
67.80608
 21
435.61872
 31
0.0
  0
ARC
  5
112
330
1F
100
AcDbEntity
  8
0
  6
Continuous
 62
     7
370
    25
100
AcDbCircle
 10
99.30608
 20
101.61872
 30
0.0
 40
31.50000000000009
100
AcDbArc
 50
180.0
 51
270.0
  0
LINE
  5
113
330
1F
100
AcDbEntity
  8
0
  6
Continuous
 62
     7
370
    25
100
AcDbLine
 10
448.30608
 20
70.11872
 30
0.0
 11
99.30608
 21
70.11872
 31
0.0
  0
ARC
  5
114
330
1F
100
AcDbEntity
  8
0
  6
Continuous
 62
     7
370
    25
100
AcDbCircle
 10
448.30608
 20
101.61872
 30
0.0
 40
31.50000000000009
100
AcDbArc
 50
270.0
 51
0.0
  0
CIRCLE
  5
115
330
1F
100
AcDbEntity
  8
0
  6
Continuous
 62
     7
370
    25
100
AcDbCircle
 10
273.80608
 20
504.11872
 30
0.0
 40
17.50000000000006
  0
LINE
  5
116
330
1F
100
AcDbEntity
  8
0
  6
Continuous
 62
     7
370
    25
100
AcDbLine
 10
479.80608
 20
101.61872
 30
0.0
 11
474.80608
 21
101.61872
 31
0.0
  0
LINE
  5
117
330
1F
100
AcDbEntity
  8
0
  6
Continuous
 62
     7
370
    25
100
AcDbLine
 10
474.80608
 20
101.61872
 30
0.0
 11
474.80608
 21
435.61872
 31
0.0
  0
LINE
  5
118
330
1F
100
AcDbEntity
  8
0
  6
Continuous
 62
     7
370
    25
100
AcDbLine
 10
479.80608
 20
435.61872
 30
0.0
 11
474.80608
 21
435.61872
 31
0.0
  0
LINE
  5
119
330
1F
100
AcDbEntity
  8
0
  6
Continuous
 62
     7
370
    25
100
AcDbLine
 10
448.30608
 20
462.11872
 30
0.0
 11
99.30608
 21
462.11872
 31
0.0
  0
LINE
  5
11A
330
1F
100
AcDbEntity
  8
0
  6
Continuous
 62
     7
370
    25
100
AcDbLine
 10
99.30608
 20
462.11872
 30
0.0
 11
99.30608
 21
467.11872
 31
0.0
  0
LINE
  5
11B
330
1F
100
AcDbEntity
  8
0
  6
Continuous
 62
     7
370
    25
100
AcDbLine
 10
448.30608
 20
467.11872
 30
0.0
 11
448.30608
 21
462.11872
 31
0.0
  0
ARC
  5
11C
330
1F
100
AcDbEntity
  8
0
  6
Continuous
 62
     7
370
    25
100
AcDbCircle
 10
99.30608
 20
435.61872
 30
0.0
 40
26.50000000000003
100
AcDbArc
 50
90.0
 51
180.0
  0
LINE
  5
11D
330
1F
100
AcDbEntity
  8
0
  6
Continuous
 62
     7
370
    25
100
AcDbLine
 10
72.80608
 20
435.61872
 30
0.0
 11
67.80608
 21
435.61872
 31
0.0
  0
ARC
  5
11E
330
1F
100
AcDbEntity
  8
0
  6
Continuous
 62
     7
370
    25
100
AcDbCircle
 10
448.30608
 20
435.61872
 30
0.0
 40
26.5
100
AcDbArc
 50
0.0
 51
90.0
  0
LINE
  5
11F
330
1F
100
AcDbEntity
  8
0
  6
Continuous
 62
     7
370
    25
100
AcDbLine
 10
72.80608
 20
435.61872
 30
0.0
 11
72.80608
 21
101.61872
 31
0.0
  0
LINE
  5
120
330
1F
100
AcDbEntity
  8
0
  6
Continuous
 62
     7
370
    25
100
AcDbLine
 10
72.80608
 20
101.61872
 30
0.0
 11
67.80608
 21
101.61872
 31
0.0
  0
LINE
  5
121
330
1F
100
AcDbEntity
  8
0
  6
Continuous
 62
     7
370
    25
100
AcDbLine
 10
448.30608
 20
70.11872
 30
0.0
 11
448.30608
 21
75.11872
 31
0.0
  0
ARC
  5
122
330
1F
100
AcDbEntity
  8
0
  6
Continuous
 62
     7
370
    25
100
AcDbCircle
 10
448.30608
 20
101.61872
 30
0.0
 40
26.49999999999997
100
AcDbArc
 50
270.0
 51
0.0
  0
ARC
  5
123
330
1F
100
AcDbEntity
  8
0
  6
Continuous
 62
     7
370
    25
100
AcDbCircle
 10
99.30608
 20
101.61872
 30
0.0
 40
26.49999999999997
100
AcDbArc
 50
180.0
 51
270.0
  0
LINE
  5
124
330
1F
100
AcDbEntity
  8
0
  6
Continuous
 62
     7
370
    25
100
AcDbLine
 10
99.30608
 20
75.11872
 30
0.0
 11
99.30608
 21
70.11872
 31
0.0
  0
LINE
  5
125
330
1F
100
AcDbEntity
  8
0
  6
Continuous
 62
     7
370
    25
100
AcDbLine
 10
99.30608
 20
75.11872
 30
0.0
 11
448.30608
 21
75.11872
 31
0.0
  0
ENDSEC
  0
SECTION
  2
OBJECTS
  0
DICTIONARY
  5
C
330
0
100
AcDbDictionary
281
     1
  3
ACAD_GROUP
350
D
  3
ACAD_LAYOUT
350
1A
  3
ACAD_MLINESTYLE
350
17
  3
ACAD_PLOTSETTINGS
350
19
  3
ACAD_PLOTSTYLENAME
350
E
  3
ACAD_SCALELIST
350
47
  3
DWGPROPS
350
126
  0
DICTIONARY
  5
D
102
{ACAD_REACTORS
330
C
102
}
330
C
100
AcDbDictionary
281
     1
  0
DICTIONARY
  5
1A
102
{ACAD_REACTORS
330
C
102
}
330
C
100
AcDbDictionary
281
     1
  3
Layout1
350
1E
  3
Layout2
350
26
  3
Model
350
22
  0
DICTIONARY
  5
17
102
{ACAD_REACTORS
330
C
102
}
330
C
100
AcDbDictionary
281
     1
  3
Standard
350
18
  0
DICTIONARY
  5
19
102
{ACAD_REACTORS
330
C
102
}
330
C
100
AcDbDictionary
281
     1
  0
ACDBDICTIONARYWDFLT
  5
E
102
{ACAD_REACTORS
330
C
102
}
330
C
100
AcDbDictionary
281
     1
  3
Normal
350
F
100
AcDbDictionaryWithDefault
340
F
  0
DICTIONARY
  5
47
102
{ACAD_REACTORS
330
C
102
}
330
C
100
AcDbDictionary
281
     1
  3
A0
350
48
  3
A1
350
49
  3
A2
350
4A
  3
A3
350
4B
  3
A4
350
4C
  3
A5
350
4D
  3
A6
350
4E
  3
A7
350
4F
  3
A8
350
50
  3
A9
350
51
  3
B0
350
52
  3
B1
350
53
  3
B2
350
54
  3
B3
350
55
  3
B4
350
56
  3
B5
350
57
  3
B6
350
58
  3
B7
350
59
  3
B8
350
5A
  3
B9
350
5B
  3
C0
350
5C
  3
C1
350
5D
  3
C2
350
5E
  3
C3
350
5F
  3
C4
350
60
  3
C5
350
61
  3
C6
350
62
  3
C7
350
63
  3
C8
350
64
  3
C9
350
65
  3
D0
350
66
  3
D1
350
67
  3
D2
350
68
  0
XRECORD
  5
126
102
{ACAD_REACTORS
330
C
102
}
330
C
100
AcDbXrecord
280
     1
  1
DWGPROPS COOKIE
  2

  3

  4

  6

  7

  8
KalleMourujärvi
  9

300
=
301
=
302
=
303
=
304
=
305
=
306
=
307
=
308
=
309
=
 40
0.0
 41
2460130.435273241
 42
2460130.435273565
  1

 90
        0
  0
LAYOUT
  5
1E
102
{ACAD_REACTORS
330
1A
102
}
330
1A
100
AcDbPlotSettings
  1

  2
none_device
  4

  6

 40
0.0
 41
0.0
 42
0.0
 43
0.0
 44
0.0
 45
0.0
 46
0.0
 47
0.0
 48
0.0
 49
0.0
140
0.0
141
0.0
142
1.0
143
1.0
 70
   688
 72
     1
 73
     0
 74
     5
  7

 75
    16
147
1.0
148
0.0
149
0.0
100
AcDbLayout
  1
Layout1
 70
     1
 71
     1
 10
0.0
 20
0.0
 11
420.0
 21
297.0
 12
0.0
 22
0.0
 32
0.0
 14
1.0000000000E+20
 24
1.0000000000E+20
 34
1.0000000000E+20
 15
-1.0000000000E+20
 25
-1.0000000000E+20
 35
-1.0000000000E+20
146
0.0
 13
0.0
 23
0.0
 33
0.0
 16
1.0
 26
0.0
 36
0.0
 17
0.0
 27
1.0
 37
0.0
 76
     0
330
1B
  0
LAYOUT
  5
26
102
{ACAD_REACTORS
330
1A
102
}
330
1A
100
AcDbPlotSettings
  1

  2
none_device
  4

  6

 40
0.0
 41
0.0
 42
0.0
 43
0.0
 44
0.0
 45
0.0
 46
0.0
 47
0.0
 48
0.0
 49
0.0
140
0.0
141
0.0
142
1.0
143
1.0
 70
   688
 72
     1
 73
     0
 74
     5
  7

 75
    16
147
1.0
148
0.0
149
0.0
100
AcDbLayout
  1
Layout2
 70
     1
 71
     2
 10
0.0
 20
0.0
 11
0.0
 21
0.0
 12
0.0
 22
0.0
 32
0.0
 14
0.0
 24
0.0
 34
0.0
 15
0.0
 25
0.0
 35
0.0
146
0.0
 13
0.0
 23
0.0
 33
0.0
 16
1.0
 26
0.0
 36
0.0
 17
0.0
 27
1.0
 37
0.0
 76
     0
330
23
  0
LAYOUT
  5
22
102
{ACAD_REACTORS
330
1A
102
}
330
1A
100
AcDbPlotSettings
  1

  2
none_device
  4
Letter_(8.50_x_11.00_Inches)
  6

 40
6.35
 41
6.35
 42
6.35000508
 43
6.35000508
 44
215.9
 45
279.4
 46
0.0
 47
0.0
 48
0.0
 49
0.0
140
0.0
141
0.0
142
1.0
143
1.0
 70
  1712
 72
     1
 73
     0
 74
     0
  7

 75
     0
147
1.0
148
0.0
149
0.0
100
AcDbLayout
  1
Model
 70
     1
 71
     0
 10
0.0
 20
0.0
 11
550.0
 21
600.0
 12
0.0
 22
0.0
 32
0.0
 14
0.0
 24
0.0
 34
0.0
 15
550.0
 25
600.0
 35
0.0
146
0.0
 13
0.0
 23
0.0
 33
0.0
 16
1.0
 26
0.0
 36
0.0
 17
0.0
 27
1.0
 37
0.0
 76
     0
330
1F
331
29
  0
MLINESTYLE
  5
18
102
{ACAD_REACTORS
330
17
102
}
330
17
100
AcDbMlineStyle
  2
Standard
 70
     0
  3

 62
   256
 51
90.0
 52
90.0
 71
     2
 49
0.5
 62
   256
  6
BYLAYER
 49
-0.5
 62
   256
  6
BYLAYER
  0
ACDBPLACEHOLDER
  5
F
102
{ACAD_REACTORS
330
E
102
}
330
E
  0
SCALE
  5
48
102
{ACAD_REACTORS
330
47
102
}
330
47
100
AcDbScale
 70
     0
300
1:1
140
1.0
141
1.0
290
     1
  0
SCALE
  5
49
102
{ACAD_REACTORS
330
47
102
}
330
47
100
AcDbScale
 70
     0
300
1:2
140
1.0
141
2.0
290
     0
  0
SCALE
  5
4A
102
{ACAD_REACTORS
330
47
102
}
330
47
100
AcDbScale
 70
     0
300
1:4
140
1.0
141
4.0
290
     0
  0
SCALE
  5
4B
102
{ACAD_REACTORS
330
47
102
}
330
47
100
AcDbScale
 70
     0
300
1:5
140
1.0
141
5.0
290
     0
  0
SCALE
  5
4C
102
{ACAD_REACTORS
330
47
102
}
330
47
100
AcDbScale
 70
     0
300
1:8
140
1.0
141
8.0
290
     0
  0
SCALE
  5
4D
102
{ACAD_REACTORS
330
47
102
}
330
47
100
AcDbScale
 70
     0
300
1:10
140
1.0
141
10.0
290
     0
  0
SCALE
  5
4E
102
{ACAD_REACTORS
330
47
102
}
330
47
100
AcDbScale
 70
     0
300
1:16
140
1.0
141
16.0
290
     0
  0
SCALE
  5
4F
102
{ACAD_REACTORS
330
47
102
}
330
47
100
AcDbScale
 70
     0
300
1:20
140
1.0
141
20.0
290
     0
  0
SCALE
  5
50
102
{ACAD_REACTORS
330
47
102
}
330
47
100
AcDbScale
 70
     0
300
1:30
140
1.0
141
30.0
290
     0
  0
SCALE
  5
51
102
{ACAD_REACTORS
330
47
102
}
330
47
100
AcDbScale
 70
     0
300
1:40
140
1.0
141
40.0
290
     0
  0
SCALE
  5
52
102
{ACAD_REACTORS
330
47
102
}
330
47
100
AcDbScale
 70
     0
300
1:50
140
1.0
141
50.0
290
     0
  0
SCALE
  5
53
102
{ACAD_REACTORS
330
47
102
}
330
47
100
AcDbScale
 70
     0
300
1:100
140
1.0
141
100.0
290
     0
  0
SCALE
  5
54
102
{ACAD_REACTORS
330
47
102
}
330
47
100
AcDbScale
 70
     0
300
2:1
140
2.0
141
1.0
290
     0
  0
SCALE
  5
55
102
{ACAD_REACTORS
330
47
102
}
330
47
100
AcDbScale
 70
     0
300
4:1
140
4.0
141
1.0
290
     0
  0
SCALE
  5
56
102
{ACAD_REACTORS
330
47
102
}
330
47
100
AcDbScale
 70
     0
300
8:1
140
8.0
141
1.0
290
     0
  0
SCALE
  5
57
102
{ACAD_REACTORS
330
47
102
}
330
47
100
AcDbScale
 70
     0
300
10:1
140
10.0
141
1.0
290
     0
  0
SCALE
  5
58
102
{ACAD_REACTORS
330
47
102
}
330
47
100
AcDbScale
 70
     0
300
100:1
140
100.0
141
1.0
290
     0
  0
SCALE
  5
59
102
{ACAD_REACTORS
330
47
102
}
330
47
100
AcDbScale
 70
     0
300
1/128" = 1'-0"
140
0.0078125
141
12.0
290
     0
  0
SCALE
  5
5A
102
{ACAD_REACTORS
330
47
102
}
330
47
100
AcDbScale
 70
     0
300
1/64" = 1'-0"
140
0.015625
141
12.0
290
     0
  0
SCALE
  5
5B
102
{ACAD_REACTORS
330
47
102
}
330
47
100
AcDbScale
 70
     0
300
1/32" = 1'-0"
140
0.03125
141
12.0
290
     0
  0
SCALE
  5
5C
102
{ACAD_REACTORS
330
47
102
}
330
47
100
AcDbScale
 70
     0
300
1/16" = 1'-0"
140
0.0625
141
12.0
290
     0
  0
SCALE
  5
5D
102
{ACAD_REACTORS
330
47
102
}
330
47
100
AcDbScale
 70
     0
300
3/32" = 1'-0"
140
0.09375
141
12.0
290
     0
  0
SCALE
  5
5E
102
{ACAD_REACTORS
330
47
102
}
330
47
100
AcDbScale
 70
     0
300
1/8" = 1'-0"
140
0.125
141
12.0
290
     0
  0
SCALE
  5
5F
102
{ACAD_REACTORS
330
47
102
}
330
47
100
AcDbScale
 70
     0
300
3/16" = 1'-0"
140
0.1875
141
12.0
290
     0
  0
SCALE
  5
60
102
{ACAD_REACTORS
330
47
102
}
330
47
100
AcDbScale
 70
     0
300
1/4" = 1'-0"
140
0.25
141
12.0
290
     0
  0
SCALE
  5
61
102
{ACAD_REACTORS
330
47
102
}
330
47
100
AcDbScale
 70
     0
300
3/8" = 1'-0"
140
0.375
141
12.0
290
     0
  0
SCALE
  5
62
102
{ACAD_REACTORS
330
47
102
}
330
47
100
AcDbScale
 70
     0
300
1/2" = 1'-0"
140
0.5
141
12.0
290
     0
  0
SCALE
  5
63
102
{ACAD_REACTORS
330
47
102
}
330
47
100
AcDbScale
 70
     0
300
3/4" = 1'-0"
140
0.75
141
12.0
290
     0
  0
SCALE
  5
64
102
{ACAD_REACTORS
330
47
102
}
330
47
100
AcDbScale
 70
     0
300
1" = 1'-0"
140
1.0
141
12.0
290
     0
  0
SCALE
  5
65
102
{ACAD_REACTORS
330
47
102
}
330
47
100
AcDbScale
 70
     0
300
1-1/2" = 1'-0"
140
1.5
141
12.0
290
     0
  0
SCALE
  5
66
102
{ACAD_REACTORS
330
47
102
}
330
47
100
AcDbScale
 70
     0
300
3" = 1'-0"
140
3.0
141
12.0
290
     0
  0
SCALE
  5
67
102
{ACAD_REACTORS
330
47
102
}
330
47
100
AcDbScale
 70
     0
300
6" = 1'-0"
140
6.0
141
12.0
290
     0
  0
SCALE
  5
68
102
{ACAD_REACTORS
330
47
102
}
330
47
100
AcDbScale
 70
     0
300
1'-0" = 1'-0"
140
12.0
141
12.0
290
     0
  0
ENDSEC
  0
EOF
