  0
SECTION
  2
HEADER
  9
$ACADVER
  1
AC1015
  9
$ACADMAINTVER
 70
     6
  9
$DWGCODEPAGE
  3
ANSI_1252
  9
$INSBASE
 10
0.0
 20
0.0
 30
0.0
  9
$EXTMIN
 10
0.0
 20
0.0
 30
0.0
  9
$EXTMAX
 10
800.0
 20
650.0
 30
0.0
  9
$LIMMIN
 10
0.0
 20
0.0
  9
$LIMMAX
 10
800.0
 20
650.0
  9
$ORTHOMODE
 70
     0
  9
$REGENMODE
 70
     1
  9
$FILLMODE
 70
     1
  9
$QTEXTMODE
 70
     0
  9
$MIRRTEXT
 70
     1
  9
$LTSCALE
 40
1.0
  9
$ATTMODE
 70
     1
  9
$TEXTSIZE
 40
3.5
  9
$TRACEWID
 40
1.0
  9
$TEXTSTYLE
  7
Standard
  9
$CLAYER
  8
0
  9
$CELTYPE
  6
ByLayer
  9
$CECOLOR
 62
   256
  9
$CELTSCALE
 40
1.0
  9
$DISPSILH
 70
     0
  9
$DIMSCALE
 40
1.0
  9
$DIMASZ
 40
3.302
  9
$DIMEXO
 40
1.0
  9
$DIMDLI
 40
3.75
  9
$DIMRND
 40
0.0
  9
$DIMDLE
 40
0.0
  9
$DIMEXE
 40
1.0
  9
$DIMTP
 40
0.0
  9
$DIMTM
 40
0.0
  9
$DIMTXT
 40
3.5
  9
$DIMCEN
 40
2.5
  9
$DIMTSZ
 40
0.0
  9
$DIMTOL
 70
     0
  9
$DIMLIM
 70
     0
  9
$DIMTIH
 70
     1
  9
$DIMTOH
 70
     1
  9
$DIMSE1
 70
     0
  9
$DIMSE2
 70
     0
  9
$DIMTAD
 70
     1
  9
$DIMZIN
 70
     1
  9
$DIMBLK
  1

  9
$DIMASO
 70
     1
  9
$DIMSHO
 70
     1
  9
$DIMPOST
  1

  9
$DIMAPOST
  1

  9
$DIMALT
 70
     0
  9
$DIMALTD
 70
     3
  9
$DIMALTF
 40
0.0393700787
  9
$DIMLFAC
 40
1.0
  9
$DIMTOFL
 70
     1
  9
$DIMTVP
 40
0.0
  9
$DIMTIX
 70
     0
  9
$DIMSOXD
 70
     0
  9
$DIMSAH
 70
     0
  9
$DIMBLK1
  1

  9
$DIMBLK2
  1

  9
$DIMSTYLE
  2
ISO-25
  9
$DIMCLRD
 70
     0
  9
$DIMCLRE
 70
     0
  9
$DIMCLRT
 70
     0
  9
$DIMTFAC
 40
1.0
  9
$DIMGAP
 40
1.524
  9
$DIMJUST
 70
     0
  9
$DIMSD1
 70
     0
  9
$DIMSD2
 70
     0
  9
$DIMTOLJ
 70
     0
  9
$DIMTZIN
 70
     1
  9
$DIMALTZ
 70
     0
  9
$DIMALTTZ
 70
     0
  9
$DIMUPT
 70
     0
  9
$DIMDEC
 70
     2
  9
$DIMTDEC
 70
     2
  9
$DIMALTU
 70
     2
  9
$DIMALTTD
 70
     3
  9
$DIMTXSTY
  7
Standard
  9
$DIMAUNIT
 70
     0
  9
$DIMADEC
 70
     2
  9
$DIMALTRND
 40
0.0
  9
$DIMAZIN
 70
     0
  9
$DIMDSEP
 70
    44
  9
$DIMATFIT
 70
     3
  9
$DIMFRAC
 70
     0
  9
$DIMLDRBLK
  1

  9
$DIMLUNIT
 70
     2
  9
$DIMLWD
 70
    -2
  9
$DIMLWE
 70
    -2
  9
$DIMTMOVE
 70
     0
  9
$LUNITS
 70
     2
  9
$LUPREC
 70
     1
  9
$SKETCHINC
 40
1.0
  9
$FILLETRAD
 40
10.0
  9
$AUNITS
 70
     0
  9
$AUPREC
 70
     1
  9
$MENU
  1
.
  9
$ELEVATION
 40
0.0
  9
$PELEVATION
 40
0.0
  9
$THICKNESS
 40
0.0
  9
$LIMCHECK
 70
     0
  9
$CHAMFERA
 40
0.0
  9
$CHAMFERB
 40
0.0
  9
$CHAMFERC
 40
0.0
  9
$CHAMFERD
 40
0.0
  9
$SKPOLY
 70
     0
  9
$TDCREATE
 40
2460130.552223843
  9
$TDUCREATE
 40
2460130.427223843
  9
$TDUPDATE
 40
2460130.552224213
  9
$TDUUPDATE
 40
2460130.427224213
  9
$TDINDWG
 40
0.0000000116
  9
$TDUSRTIMER
 40
0.0000000116
  9
$USRTIMER
 70
     1
  9
$ANGBASE
 50
0.0
  9
$ANGDIR
 70
     0
  9
$PDMODE
 70
     0
  9
$PDSIZE
 40
-1.0
  9
$PLINEWID
 40
0.0
  9
$SPLFRAME
 70
     0
  9
$SPLINETYPE
 70
     6
  9
$SPLINESEGS
 70
     8
  9
$HANDSEED
  5
179
  9
$SURFTAB1
 70
     6
  9
$SURFTAB2
 70
     6
  9
$SURFTYPE
 70
     6
  9
$SURFU
 70
     6
  9
$SURFV
 70
     6
  9
$UCSBASE
  2

  9
$UCSNAME
  2

  9
$UCSORG
 10
0.0
 20
0.0
 30
0.0
  9
$UCSXDIR
 10
1.0
 20
0.0
 30
0.0
  9
$UCSYDIR
 10
0.0
 20
1.0
 30
0.0
  9
$UCSORTHOREF
  2

  9
$UCSORTHOVIEW
 70
     0
  9
$UCSORGTOP
 10
0.0
 20
0.0
 30
0.0
  9
$UCSORGBOTTOM
 10
0.0
 20
0.0
 30
0.0
  9
$UCSORGLEFT
 10
0.0
 20
0.0
 30
0.0
  9
$UCSORGRIGHT
 10
0.0
 20
0.0
 30
0.0
  9
$UCSORGFRONT
 10
0.0
 20
0.0
 30
0.0
  9
$UCSORGBACK
 10
0.0
 20
0.0
 30
0.0
  9
$PUCSBASE
  2

  9
$PUCSNAME
  2

  9
$PUCSORG
 10
0.0
 20
0.0
 30
0.0
  9
$PUCSXDIR
 10
1.0
 20
0.0
 30
0.0
  9
$PUCSYDIR
 10
0.0
 20
1.0
 30
0.0
  9
$PUCSORTHOREF
  2

  9
$PUCSORTHOVIEW
 70
     0
  9
$PUCSORGTOP
 10
0.0
 20
0.0
 30
0.0
  9
$PUCSORGBOTTOM
 10
0.0
 20
0.0
 30
0.0
  9
$PUCSORGLEFT
 10
0.0
 20
0.0
 30
0.0
  9
$PUCSORGRIGHT
 10
0.0
 20
0.0
 30
0.0
  9
$PUCSORGFRONT
 10
0.0
 20
0.0
 30
0.0
  9
$PUCSORGBACK
 10
0.0
 20
0.0
 30
0.0
  9
$USERI1
 70
     0
  9
$USERI2
 70
     0
  9
$USERI3
 70
     0
  9
$USERI4
 70
     0
  9
$USERI5
 70
     0
  9
$USERR1
 40
0.0
  9
$USERR2
 40
0.0
  9
$USERR3
 40
0.0
  9
$USERR4
 40
0.0
  9
$USERR5
 40
0.0
  9
$WORLDVIEW
 70
     1
  9
$SHADEDGE
 70
     3
  9
$SHADEDIF
 70
    70
  9
$TILEMODE
 70
     1
  9
$MAXACTVP
 70
    64
  9
$PINSBASE
 10
0.0
 20
0.0
 30
0.0
  9
$PLIMCHECK
 70
     0
  9
$PEXTMIN
 10
1.0000000000E+20
 20
1.0000000000E+20
 30
1.0000000000E+20
  9
$PEXTMAX
 10
-1.0000000000E+20
 20
-1.0000000000E+20
 30
-1.0000000000E+20
  9
$PLIMMIN
 10
0.0
 20
0.0
  9
$PLIMMAX
 10
420.0
 20
297.0
  9
$UNITMODE
 70
     0
  9
$VISRETAIN
 70
     1
  9
$PLINEGEN
 70
     0
  9
$PSLTSCALE
 70
     1
  9
$TREEDEPTH
 70
  3020
  9
$CMLSTYLE
  2
Standard
  9
$CMLJUST
 70
     0
  9
$CMLSCALE
 40
20.0
  9
$PROXYGRAPHICS
 70
     1
  9
$MEASUREMENT
 70
     1
  9
$CELWEIGHT
370
    -1
  9
$ENDCAPS
280
     0
  9
$JOINSTYLE
280
     0
  9
$LWDISPLAY
290
     1
  9
$INSUNITS
 70
     4
  9
$HYPERLINKBASE
  1

  9
$STYLESHEET
  1

  9
$XEDIT
290
     1
  9
$CEPSNTYPE
380
     0
  9
$PSTYLEMODE
290
     1
  9
$FINGERPRINTGUID
  2
{754b6847-7049-4918-b55f-c9a30ddf3c1c}
  9
$VERSIONGUID
  2
{FAEB1C32-E019-11D5-929B-00C0DF256EC4}
  9
$EXTNAMES
290
     1
  9
$PSVPSCALE
 40
0.0
  9
$OLESTARTUP
290
     0
  0
ENDSEC
  0
SECTION
  2
CLASSES
  0
CLASS
  1
ACDBDICTIONARYWDFLT
  2
AcDbDictionaryWithDefault
  3
ObjectDBX Classes
 90
        0
280
     0
281
     0
  0
CLASS
  1
VISUALSTYLE
  2
AcDbVisualStyle
  3
ObjectDBX Classes
 90
     4095
280
     0
281
     0
  0
CLASS
  1
MATERIAL
  2
AcDbMaterial
  3
ObjectDBX Classes
 90
     1153
280
     0
281
     0
  0
CLASS
  1
SCALE
  2
AcDbScale
  3
ObjectDBX Classes
 90
     1153
280
     0
281
     0
  0
CLASS
  1
TABLESTYLE
  2
AcDbTableStyle
  3
ObjectDBX Classes
 90
     4095
280
     0
281
     0
  0
CLASS
  1
MLEADERSTYLE
  2
AcDbMLeaderStyle
  3
ACDB_MLEADERSTYLE_CLASS
 90
     4095
280
     0
281
     0
  0
CLASS
  1
SUN
  2
AcDbSun
  3
SCENEOE
 90
     1153
280
     0
281
     0
  0
CLASS
  1
ACDBPLACEHOLDER
  2
AcDbPlaceHolder
  3
ObjectDBX Classes
 90
        0
280
     0
281
     0
  0
CLASS
  1
LAYOUT
  2
AcDbLayout
  3
ObjectDBX Classes
 90
        0
280
     0
281
     0
  0
ENDSEC
  0
SECTION
  2
TABLES
  0
TABLE
  2
VPORT
  5
8
330
0
100
AcDbSymbolTable
 70
     1
  0
VPORT
  5
29
330
8
100
AcDbSymbolTableRecord
100
AcDbViewportTableRecord
  2
*Active
 70
     0
 10
0.0
 20
0.0
 11
1.0
 21
1.0
 12
400.0
 22
325.0
 13
0.0
 23
0.0
 14
10.0
 24
10.0
 15
10.0
 25
10.0
 16
0.0
 26
0.0
 36
1.0
 17
0.0
 27
0.0
 37
0.0
 40
650.0
 41
1.2307692308
 42
50.0
 43
0.0
 44
0.0
 50
0.0
 51
0.0
 71
     0
 72
  2000
 73
     1
 74
     3
 75
     0
 76
     0
 77
     0
 78
     0
281
     0
 65
     1
110
0.0
120
0.0
130
0.0
111
1.0
121
0.0
131
0.0
112
0.0
122
1.0
132
0.0
 79
     0
146
0.0
  0
ENDTAB
  0
TABLE
  2
LTYPE
  5
5
330
0
100
AcDbSymbolTable
 70
     6
  0
LTYPE
  5
14
330
5
100
AcDbSymbolTableRecord
100
AcDbLinetypeTableRecord
  2
ByBlock
 70
     0
  3

 72
    65
 73
     0
 40
0.0
  0
LTYPE
  5
15
330
5
100
AcDbSymbolTableRecord
100
AcDbLinetypeTableRecord
  2
ByLayer
 70
     0
  3

 72
    65
 73
     0
 40
0.0
  0
LTYPE
  5
16
330
5
100
AcDbSymbolTableRecord
100
AcDbLinetypeTableRecord
  2
Continuous
 70
     0
  3
Solid line
 72
    65
 73
     0
 40
0.0
  0
LTYPE
  5
6E
330
5
100
AcDbSymbolTableRecord
100
AcDbLinetypeTableRecord
  2
HIDDEN
 70
     0
  3
Hidden __ __ __ __ __ __ __ __ __ __ __ __ __ __
 72
    65
 73
     2
 40
1.905
 49
1.27
 74
     0
 49
-0.635
 74
     0
  0
LTYPE
  5
6F
330
5
100
AcDbSymbolTableRecord
100
AcDbLinetypeTableRecord
  2
PHANTOM
 70
     0
  3
Phantom ______  __  __  ______  __  __  ______
 72
    65
 73
     6
 40
12.7
 49
6.35
 74
     0
 49
-1.27
 74
     0
 49
1.27
 74
     0
 49
-1.27
 74
     0
 49
1.27
 74
     0
 49
-1.27
 74
     0
  0
LTYPE
  5
70
330
5
100
AcDbSymbolTableRecord
100
AcDbLinetypeTableRecord
  2
CENTER
 70
     0
  3
Center ____ _ ____ _ ____ _ ____ _ ____ _ ____
 72
    65
 73
     4
 40
10.16
 49
6.35
 74
     0
 49
-1.27
 74
     0
 49
1.27
 74
     0
 49
-1.27
 74
     0
  0
LTYPE
  5
71
330
5
100
AcDbSymbolTableRecord
100
AcDbLinetypeTableRecord
  2
CENTERX2
 70
     0
  3
Center (2x) ________  __  ________  __  _____
 72
    65
 73
     4
 40
20.32
 49
12.7
 74
     0
 49
-2.54
 74
     0
 49
2.54
 74
     0
 49
-2.54
 74
     0
  0
LTYPE
  5
72
330
5
100
AcDbSymbolTableRecord
100
AcDbLinetypeTableRecord
  2
DOT2
 70
     0
  3
Dot (.5x) ........................................
 72
    65
 73
     2
 40
0.635
 49
0.0
 74
     0
 49
-0.635
 74
     0
  0
ENDTAB
  0
TABLE
  2
LAYER
  5
2
330
0
100
AcDbSymbolTable
 70
     1
  0
LAYER
  5
10
330
2
100
AcDbSymbolTableRecord
100
AcDbLayerTableRecord
  2
0
 70
     0
 62
     7
  6
Continuous
370
    -3
390
F
  0
ENDTAB
  0
TABLE
  2
STYLE
  5
3
330
0
100
AcDbSymbolTable
 70
     1
  0
STYLE
  5
11
330
3
100
AcDbSymbolTableRecord
100
AcDbTextStyleTableRecord
  2
Standard
 70
     0
 40
0.0
 41
1.0
 50
0.0
 71
     0
 42
3.5
  3
txt
  4

  0
ENDTAB
  0
TABLE
  2
VIEW
  5
6
330
0
100
AcDbSymbolTable
 70
     0
  0
ENDTAB
  0
TABLE
  2
UCS
  5
7
330
0
100
AcDbSymbolTable
 70
     0
  0
ENDTAB
  0
TABLE
  2
APPID
  5
9
330
0
100
AcDbSymbolTable
 70
     1
  0
APPID
  5
12
330
9
100
AcDbSymbolTableRecord
100
AcDbRegAppTableRecord
  2
ACAD
 70
     0
  0
ENDTAB
  0
TABLE
  2
DIMSTYLE
  5
A
330
0
100
AcDbSymbolTable
 70
     1
100
AcDbDimStyleTable
  0
DIMSTYLE
105
27
330
A
100
AcDbSymbolTableRecord
100
AcDbDimStyleTableRecord
  2
ISO-25
 70
     0
 41
2.5
 42
0.625
 43
3.75
 44
1.25
 73
     0
 74
     0
 77
     1
 78
     8
140
2.5
141
2.5
143
0.0393700787
147
0.625
171
     3
172
     1
178
     0
271
     2
272
     2
274
     3
278
    44
283
     0
284
     8
340
11
  0
ENDTAB
  0
TABLE
  2
BLOCK_RECORD
  5
1
330
0
100
AcDbSymbolTable
 70
     1
  0
BLOCK_RECORD
  5
1F
330
1
100
AcDbSymbolTableRecord
100
AcDbBlockTableRecord
  2
*Model_Space
340
22
  0
BLOCK_RECORD
  5
1B
330
1
100
AcDbSymbolTableRecord
100
AcDbBlockTableRecord
  2
*Paper_Space
340
1E
  0
BLOCK_RECORD
  5
23
330
1
100
AcDbSymbolTableRecord
100
AcDbBlockTableRecord
  2
*Paper_Space0
340
26
  0
ENDTAB
  0
ENDSEC
  0
SECTION
  2
BLOCKS
  0
BLOCK
  5
20
330
1F
100
AcDbEntity
  8
0
100
AcDbBlockBegin
  2
*Model_Space
 70
     0
 10
0.0
 20
0.0
 30
0.0
  3
*Model_Space
  1

  0
ENDBLK
  5
21
330
1F
100
AcDbEntity
  8
0
100
AcDbBlockEnd
  0
BLOCK
  5
1C
330
1B
100
AcDbEntity
 67
     1
  8
0
100
AcDbBlockBegin
  2
*Paper_Space
 70
     0
 10
0.0
 20
0.0
 30
0.0
  3
*Paper_Space
  1

  0
ENDBLK
  5
1D
330
1B
100
AcDbEntity
 67
     1
  8
0
100
AcDbBlockEnd
  0
BLOCK
  5
24
330
23
100
AcDbEntity
  8
0
100
AcDbBlockBegin
  2
*Paper_Space0
 70
     0
 10
0.0
 20
0.0
 30
0.0
  3
*Paper_Space0
  1

  0
ENDBLK
  5
25
330
23
100
AcDbEntity
  8
0
100
AcDbBlockEnd
  0
ENDSEC
  0
SECTION
  2
ENTITIES
  0
SPLINE
  5
73
330
1F
100
AcDbEntity
  8
0
  6
Continuous
 62
     7
370
    25
100
AcDbSpline
210
0.0
220
0.0
230
1.0
 70
     8
 71
     3
 72
    15
 73
    11
 74
     0
 42
0.00000001
 43
0.00000001
 40
0.0
 40
0.0
 40
0.0
 40
0.0
 40
0.1027452653428877
 40
0.2127053012168802
 40
0.3295607231660724
 40
0.4528964375281228
 40
0.5822130050080869
 40
0.7169369287100583
 40
0.8564302879490749
 40
1.0
 40
1.0
 40
1.0
 40
1.0
 10
406.7138575247204
 20
479.9870324507733
 30
0.0
 10
406.7773501329023
 20
479.9995435785771
 30
0.0
 10
406.9087937989758
 20
480.0254443653353
 30
0.0
 10
407.1285761004898
 20
480.0756025200498
 30
0.0
 10
407.3569067533435
 20
480.1353594129176
 30
0.0
 10
407.5813769600726
 20
480.2052073153911
 30
0.0
 10
407.7864964704471
 20
480.2842309014645
 30
0.0
 10
407.9565712885571
 20
480.3716184646008
 30
0.0
 10
408.0841274411128
 20
480.4660184364903
 30
0.0
 10
408.1196964437348
 20
480.5322680872735
 30
0.0
 10
408.1377370572317
 20
480.5658699387728
 30
0.0
  0
SPLINE
  5
74
330
1F
100
AcDbEntity
  8
0
  6
Continuous
 62
     7
370
    25
100
AcDbSpline
210
0.0
220
0.0
230
1.0
 70
     8
 71
     3
 72
    15
 73
    11
 74
     0
 42
0.00000001
 43
0.00000001
 40
0.0
 40
0.0
 40
0.0
 40
0.0
 40
0.1435697120509248
 40
0.2830630712899397
 40
0.4177869949919086
 40
0.5471035624718752
 40
0.6704392768339283
 40
0.7872946987831203
 40
0.8972547346571158
 40
1.0
 40
1.0
 40
1.0
 40
1.0
 10
369.0899779922092
 20
480.5658699387728
 30
0.0
 10
369.108018605706
 20
480.5322680872735
 30
0.0
 10
369.1435876083281
 20
480.4660184364901
 30
0.0
 10
369.2711437608838
 20
480.3716184646008
 30
0.0
 10
369.4412185789937
 20
480.2842309014645
 30
0.0
 10
369.6463380893683
 20
480.2052073153913
 30
0.0
 10
369.8708082960974
 20
480.1353594129175
 30
0.0
 10
370.099138948951
 20
480.0756025200497
 30
0.0
 10
370.3189212504651
 20
480.0254443653353
 30
0.0
 10
370.4503649165386
 20
479.9995435785771
 30
0.0
 10
370.5138575247204
 20
479.9870324507733
 30
0.0
  0
LINE
  5
75
330
1F
100
AcDbEntity
  8
0
  6
Continuous
 62
     7
370
    25
100
AcDbLine
 10
370.5138575247
 20
479.9218609387
 30
0.0
 11
406.7138575247
 21
479.9218609387
 31
0.0
  0
SPLINE
  5
76
330
1F
100
AcDbEntity
  8
0
  6
Continuous
 62
     7
370
    25
100
AcDbSpline
210
0.0
220
0.0
230
1.0
 70
     8
 71
     3
 72
    10
 73
     6
 74
     0
 42
0.00000001
 43
0.00000001
 40
0.0
 40
0.0
 40
0.0
 40
0.0
 40
0.3274285650656145
 40
0.6639672068206675
 40
1.0
 40
1.0
 40
1.0
 40
1.0
 10
409.9128044166424
 20
481.4454887935939
 30
0.0
 10
410.0982452643645
 20
481.4430337827511
 30
0.0
 10
410.4742864984819
 20
481.4380554550609
 30
0.0
 10
410.9951276086513
 20
481.4237711939275
 30
0.0
 10
411.288276076996
 20
481.4104364952848
 30
0.0
 10
411.4347400710306
 20
481.4037741605524
 30
0.0
  0
SPLINE
  5
77
330
1F
100
AcDbEntity
  8
0
  6
Continuous
 62
     7
370
    25
100
AcDbSpline
210
0.0
220
0.0
230
1.0
 70
     8
 71
     3
 72
    10
 73
     6
 74
     0
 42
0.00000001
 43
0.00000001
 40
0.0
 40
0.0
 40
0.0
 40
0.0
 40
0.3284379545068257
 40
0.663837348017304
 40
1.0
 40
1.0
 40
1.0
 40
1.0
 10
366.2564277549647
 20
481.4230984384303
 30
0.0
 10
366.4228732758411
 20
481.4280911931332
 30
0.0
 10
366.7592922300205
 20
481.438182526963
 30
0.0
 10
367.3286746611425
 20
481.4469301981752
 30
0.0
 10
367.723227603267
 20
481.4480641096401
 30
0.0
 10
367.9207282873248
 20
481.4486317097416
 30
0.0
  0
LINE
  5
78
330
1F
100
AcDbEntity
  8
0
  6
Continuous
 62
     7
370
    25
100
AcDbLine
 10
367.9207282873
 20
481.43420409
 30
0.0
 11
409.3069867621
 21
481.43420409
 31
0.0
  0
ARC
  5
79
330
1F
100
AcDbEntity
  8
0
  6
Continuous
 62
     7
370
    25
100
AcDbCircle
 10
370.3891999063
 20
478.1955575253
 30
0.0
 40
2.411265740495145
100
AcDbArc
 50
87.0366016997
 51
98.9551904986
  0
ARC
  5
7A
330
1F
100
AcDbEntity
  8
0
  6
Continuous
 62
     7
370
    25
100
AcDbCircle
 10
406.8385151432
 20
478.1955575253
 30
0.0
 40
2.411265740498533
100
AcDbArc
 50
81.0448095014
 51
92.9633983003
  0
LINE
  5
7B
330
1F
100
AcDbEntity
  8
0
  6
Continuous
 62
     7
370
    25
100
AcDbLine
 10
406.7138575247
 20
480.6035988351
 30
0.0
 11
370.5138575247
 21
480.6035988351
 31
0.0
  0
LINE
  5
7C
330
1F
100
AcDbEntity
  8
0
  6
Continuous
 62
     7
370
    25
100
AcDbLine
 10
407.2138575247
 20
479.949399382
 30
0.0
 11
407.2138575247
 21
480.577430857
 31
0.0
  0
ARC
  5
7D
330
1F
100
AcDbEntity
  8
0
  6
Continuous
 62
     7
370
    25
100
AcDbCircle
 10
406.8385151432
 20
482.3312727137
 30
0.0
 40
2.411265740498349
100
AcDbArc
 50
267.0366016998
 51
278.9551904986
  0
LINE
  5
7E
330
1F
100
AcDbEntity
  8
0
  6
Continuous
 62
     7
370
    25
100
AcDbLine
 10
370.5138575247
 20
479.9232314039
 30
0.0
 11
406.7138575247
 21
479.9232314039
 31
0.0
  0
ARC
  5
7F
330
1F
100
AcDbEntity
  8
0
  6
Continuous
 62
     7
370
    25
100
AcDbCircle
 10
370.3891999063
 20
482.3312727137
 30
0.0
 40
2.411265740503898
100
AcDbArc
 50
261.0448095014
 51
272.9633983002
  0
LINE
  5
80
330
1F
100
AcDbEntity
  8
0
  6
Continuous
 62
     7
370
    25
100
AcDbLine
 10
370.0138575247
 20
480.577430857
 30
0.0
 11
370.0138575247
 21
479.949399382
 31
0.0
  0
LINE
  5
81
330
1F
100
AcDbEntity
  8
0
  6
Continuous
 62
     7
370
    25
100
AcDbLine
 10
408.2138575247
 20
481.43420409
 30
0.0
 11
408.2138575247
 21
480.9480289168
 31
0.0
  0
LWPOLYLINE
  5
82
330
1F
100
AcDbEntity
  8
0
  6
Continuous
 62
     7
370
    25
100
AcDbPolyline
 90
        4
 70
   128
 43
0.0
 10
408.2138575247
 20
480.9480289168
 10
408.1946428051
 20
480.7532059593
 10
408.1377370572
 20
480.5658699388
 10
408.1376605557
 20
480.5656855531
  0
LWPOLYLINE
  5
83
330
1F
100
AcDbEntity
  8
0
  6
Continuous
 62
     7
370
    25
100
AcDbPolyline
 90
        3
 70
   128
 43
0.0
 10
369.0899024583
 20
480.5660520947
 10
369.0330722443
 20
480.7532059593
 10
369.0138575247
 20
480.9480289168
  0
LINE
  5
84
330
1F
100
AcDbEntity
  8
0
  6
Continuous
 62
     7
370
    25
100
AcDbLine
 10
369.0138575247
 20
480.9480289168
 30
0.0
 11
369.0138575247
 21
481.43420409
 31
0.0
  0
LINE
  5
85
330
1F
100
AcDbEntity
  8
0
  6
Continuous
 62
     7
370
    25
100
AcDbLine
 10
363.1138575247
 20
481.6019978001
 30
0.0
 11
414.1138575247
 21
481.6019978001
 31
0.0
  0
LINE
  5
86
330
1F
100
AcDbEntity
  8
0
  6
Continuous
 62
     7
370
    25
100
AcDbLine
 10
361.1138575247
 20
480.1365910253
 30
0.0
 11
361.1138575247
 21
481.4973258876
 31
0.0
  0
ARC
  5
87
330
1F
100
AcDbEntity
  8
0
  6
Continuous
 62
     7
370
    25
100
AcDbCircle
 10
362.6152270509
 20
471.9698325611
 30
0.0
 40
9.645062962001541
100
AcDbArc
 50
87.0366016997
 51
98.9551904986
  0
ARC
  5
88
330
1F
100
AcDbEntity
  8
0
  6
Continuous
 62
     7
370
    25
100
AcDbCircle
 10
414.6124879986
 20
471.9698325611
 30
0.0
 40
9.645062962000805
100
AcDbArc
 50
81.0448095014
 51
92.9633983003
  0
LINE
  5
89
330
1F
100
AcDbEntity
  8
0
  6
Continuous
 62
     7
370
    25
100
AcDbLine
 10
416.1138575247
 20
481.4973258876
 30
0.0
 11
416.1138575247
 21
480.1365910253
 31
0.0
  0
ARC
  5
8A
330
1F
100
AcDbEntity
  8
0
  6
Continuous
 62
     7
370
    25
100
AcDbCircle
 10
414.6124879986
 20
489.6640843518
 30
0.0
 40
9.645062962009467
100
AcDbArc
 50
267.0366016998
 51
278.9551904986
  0
LINE
  5
8B
330
1F
100
AcDbEntity
  8
0
  6
Continuous
 62
     7
370
    25
100
AcDbLine
 10
414.1138575247
 20
480.0319191128
 30
0.0
 11
406.9323311984
 21
480.0319191128
 31
0.0
  0
LINE
  5
8C
330
1F
100
AcDbEntity
  8
0
  6
Continuous
 62
     7
370
    25
100
AcDbLine
 10
370.295383851
 20
480.0319191128
 30
0.0
 11
363.1138575247
 21
480.0319191128
 31
0.0
  0
ARC
  5
8D
330
1F
100
AcDbEntity
  8
0
  6
Continuous
 62
     7
370
    25
100
AcDbCircle
 10
362.6152270509
 20
489.6640843518
 30
0.0
 40
9.645062962010202
100
AcDbArc
 50
261.0448095014
 51
272.9633983002
  0
SPLINE
  5
8E
330
1F
100
AcDbEntity
  8
0
  6
Continuous
 62
     7
370
    25
100
AcDbSpline
210
0.0
220
0.0
230
1.0
 70
     8
 71
     3
 72
     9
 73
     5
 74
     0
 42
0.00000001
 43
0.00000001
 40
0.0
 40
0.0
 40
0.0
 40
0.0
 40
0.5594717333059724
 40
1.0
 40
1.0
 40
1.0
 40
1.0
 10
365.5946458414772
 20
480.2481078693702
 30
0.0
 10
365.2898995121928
 20
480.2682771975041
 30
0.0
 10
364.7451958012767
 20
480.3043278626823
 30
0.0
 10
364.6675090107831
 20
480.3498096191365
 30
0.0
 10
364.6332857836221
 20
480.3698456184736
 30
0.0
  0
SPLINE
  5
8F
330
1F
100
AcDbEntity
  8
0
  6
Continuous
 62
     7
370
    25
100
AcDbSpline
210
0.0
220
0.0
230
1.0
 70
     8
 71
     3
 72
     9
 73
     5
 74
     0
 42
0.00000001
 43
0.00000001
 40
0.0
 40
0.0
 40
0.0
 40
0.0
 40
0.5604800890566316
 40
1.0
 40
1.0
 40
1.0
 40
1.0
 10
367.9207282873248
 20
480.1977941714486
 30
0.0
 10
367.4317254410105
 20
480.200745997928
 30
0.0
 10
366.5592540439669
 20
480.206012601572
 30
0.0
 10
365.8891638318368
 20
480.2352551757651
 30
0.0
 10
365.5946458414772
 20
480.2481078693702
 30
0.0
  0
SPLINE
  5
90
330
1F
100
AcDbEntity
  8
0
  6
Continuous
 62
     7
370
    25
100
AcDbSpline
210
0.0
220
0.0
230
1.0
 70
     8
 71
     3
 72
     9
 73
     5
 74
     0
 42
0.00000001
 43
0.00000001
 40
0.0
 40
0.0
 40
0.0
 40
0.0
 40
0.5594717333059717
 40
1.0
 40
1.0
 40
1.0
 40
1.0
 10
411.6330692079636
 20
480.2481078693702
 30
0.0
 10
411.2476873484949
 20
480.2321586788156
 30
0.0
 10
410.5588556586586
 20
480.2036510892358
 30
0.0
 10
409.6898210652483
 20
480.1995852767679
 30
0.0
 10
409.3069867621161
 20
480.1977941714486
 30
0.0
  0
SPLINE
  5
91
330
1F
100
AcDbEntity
  8
0
  6
Continuous
 62
     7
370
    25
100
AcDbSpline
210
0.0
220
0.0
230
1.0
 70
     8
 71
     3
 72
     9
 73
     5
 74
     0
 42
0.00000001
 43
0.00000001
 40
0.0
 40
0.0
 40
0.0
 40
0.0
 40
0.5604800890566215
 40
1.0
 40
1.0
 40
1.0
 40
1.0
 10
412.5944292658189
 20
480.3698456184736
 30
0.0
 10
412.5380277649897
 20
480.3442531869062
 30
0.0
 10
412.4373970701081
 20
480.2985915620473
 30
0.0
 10
411.8786497710747
 20
480.2635217500264
 30
0.0
 10
411.6330692079637
 20
480.2481078693702
 30
0.0
  0
LINE
  5
92
330
1F
100
AcDbEntity
  8
0
  6
Continuous
 62
     7
370
    25
100
AcDbLine
 10
412.5944292658
 20
481.2640712944
 30
0.0
 11
412.5944292658
 21
480.3698456185
 31
0.0
  0
SPLINE
  5
93
330
1F
100
AcDbEntity
  8
0
  6
Continuous
 62
     7
370
    25
100
AcDbSpline
210
0.0
220
0.0
230
1.0
 70
     8
 71
     3
 72
     9
 73
     5
 74
     0
 42
0.00000001
 43
0.00000001
 40
0.0
 40
0.0
 40
0.0
 40
0.0
 40
0.5594717333059724
 40
1.0
 40
1.0
 40
1.0
 40
1.0
 10
411.6330692079636
 20
481.3858090434692
 30
0.0
 10
411.9378155372481
 20
481.3656397153352
 30
0.0
 10
412.4825192481642
 20
481.3295890501572
 30
0.0
 10
412.5602060386577
 20
481.2841072937028
 30
0.0
 10
412.5944292658189
 20
481.2640712943658
 30
0.0
  0
SPLINE
  5
94
330
1F
100
AcDbEntity
  8
0
  6
Continuous
 62
     7
370
    25
100
AcDbSpline
210
0.0
220
0.0
230
1.0
 70
     8
 71
     3
 72
     9
 73
     5
 74
     0
 42
0.00000001
 43
0.00000001
 40
0.0
 40
0.0
 40
0.0
 40
0.0
 40
0.5604800890566235
 40
1.0
 40
1.0
 40
1.0
 40
1.0
 10
409.3069867621161
 20
481.4361227413908
 30
0.0
 10
409.7959896084304
 20
481.4331709149114
 30
0.0
 10
410.6684610054739
 20
481.4279043112674
 30
0.0
 10
411.3385512176042
 20
481.3986617370742
 30
0.0
 10
411.6330692079636
 20
481.3858090434692
 30
0.0
  0
LINE
  5
95
330
1F
100
AcDbEntity
  8
0
  6
Continuous
 62
     7
370
    25
100
AcDbLine
 10
367.9207282873
 20
481.4361227414
 30
0.0
 11
409.3069867621
 21
481.4361227414
 31
0.0
  0
SPLINE
  5
96
330
1F
100
AcDbEntity
  8
0
  6
Continuous
 62
     7
370
    25
100
AcDbSpline
210
0.0
220
0.0
230
1.0
 70
     8
 71
     3
 72
     9
 73
     5
 74
     0
 42
0.00000001
 43
0.00000001
 40
0.0
 40
0.0
 40
0.0
 40
0.0
 40
0.5594717333059717
 40
1.0
 40
1.0
 40
1.0
 40
1.0
 10
365.5946458414772
 20
481.3858090434692
 30
0.0
 10
365.980027700946
 20
481.4017582340237
 30
0.0
 10
366.6688593907823
 20
481.4302658236037
 30
0.0
 10
367.5378939841926
 20
481.4343316360716
 30
0.0
 10
367.9207282873248
 20
481.4361227413908
 30
0.0
  0
SPLINE
  5
97
330
1F
100
AcDbEntity
  8
0
  6
Continuous
 62
     7
370
    25
100
AcDbSpline
210
0.0
220
0.0
230
1.0
 70
     8
 71
     3
 72
     9
 73
     5
 74
     0
 42
0.00000001
 43
0.00000001
 40
0.0
 40
0.0
 40
0.0
 40
0.0
 40
0.5604800890566215
 40
1.0
 40
1.0
 40
1.0
 40
1.0
 10
364.6332857836221
 20
481.2640712943658
 30
0.0
 10
364.6896872844511
 20
481.2896637259333
 30
0.0
 10
364.7903179793328
 20
481.3353253507921
 30
0.0
 10
365.3490652783662
 20
481.3703951628129
 30
0.0
 10
365.5946458414772
 20
481.3858090434691
 30
0.0
  0
LINE
  5
98
330
1F
100
AcDbEntity
  8
0
  6
Continuous
 62
     7
370
    25
100
AcDbLine
 10
364.6332857836
 20
480.3698456185
 30
0.0
 11
364.6332857836
 21
481.2640712944
 31
0.0
  0
LINE
  5
99
330
1F
100
AcDbEntity
  8
0
  6
Continuous
 62
     7
370
    25
100
AcDbLine
 10
361.1138575247
 20
482.0865173131
 30
0.0
 11
361.1138575247
 21
481.4973258876
 31
0.0
  0
LINE
  5
9A
330
1F
100
AcDbEntity
  8
0
  6
Continuous
 62
     7
370
    25
100
AcDbLine
 10
416.1138575247
 20
482.0865173131
 30
0.0
 11
416.1138575247
 21
481.4973258876
 31
0.0
  0
LINE
  5
9B
330
1F
100
AcDbEntity
  8
0
  6
Continuous
 62
     7
370
    25
100
AcDbLine
 10
166.6138857143
 20
582.9797346067
 30
0.0
 11
166.1314904504
 21
582.9797346067
 31
0.0
  0
LINE
  5
9C
330
1F
100
AcDbEntity
  8
0
  6
Continuous
 62
     7
370
    25
100
AcDbLine
 10
165.9568460366
 20
582.7050330612
 30
0.0
 11
166.1314904504
 21
582.9797346067
 31
0.0
  0
LINE
  5
9D
330
1F
100
AcDbEntity
  8
0
  6
Continuous
 62
     7
370
    25
100
AcDbLine
 10
166.6138857143
 20
582.9797346067
 30
0.0
 11
166.6138857143
 21
582.7050330612
 31
0.0
  0
ELLIPSE
  5
9E
330
1F
100
AcDbEntity
  8
0
  6
Continuous
 62
     7
370
    25
100
AcDbEllipse
 10
161.4752874274
 20
575.6559036394
 30
0.0
 11
7.313111706629059
 21
7.837202391757842
 31
0.0
210
0.0
220
0.0
230
1.0
 40
0.2453475563
 41
0.6503308592568101
 42
0.7267732739941662
  0
LINE
  5
9F
330
1F
100
AcDbEntity
  8
0
  6
Continuous
 62
     7
370
    25
100
AcDbLine
 10
143.0962809781
 20
582.9797346067
 30
0.0
 11
142.6138857143
 21
582.9797346067
 31
0.0
  0
LINE
  5
A0
330
1F
100
AcDbEntity
  8
0
  6
Continuous
 62
     7
370
    25
100
AcDbLine
 10
143.270925392
 20
582.7050330612
 30
0.0
 11
143.0962809781
 21
582.9797346067
 31
0.0
  0
LINE
  5
A1
330
1F
100
AcDbEntity
  8
0
  6
Continuous
 62
     7
370
    25
100
AcDbLine
 10
142.6138857143
 20
582.9797346067
 30
0.0
 11
142.6138857143
 21
582.7050330612
 31
0.0
  0
ELLIPSE
  5
A2
330
1F
100
AcDbEntity
  8
0
  6
Continuous
 62
     7
370
    25
100
AcDbEllipse
 10
147.7524840011
 20
575.6559036394
 30
0.0
 11
-7.313111706629144
 21
7.837202391757727
 31
0.0
210
0.0
220
0.0
230
1.0
 40
0.2453475563
 41
5.556412033185484
 42
5.632854447922835
  0
ELLIPSE
  5
A3
330
1F
100
AcDbEntity
  8
0
  6
Continuous
 62
     7
370
    25
100
AcDbEllipse
 10
615.7524840011
 20
69.754162483
 30
0.0
 11
7.313111706629116
 21
7.837202391757729
 31
0.0
210
0.0
220
0.0
230
1.0
 40
0.2453475563
 41
3.791923512846662
 42
3.868365927583135
  0
LINE
  5
A4
330
1F
100
AcDbEntity
  8
0
  6
Continuous
 62
     7
370
    25
100
AcDbLine
 10
611.270925392
 20
62.7050330612
 30
0.0
 11
611.0962809781
 21
62.4303315158
 31
0.0
  0
LINE
  5
A5
330
1F
100
AcDbEntity
  8
0
  6
Continuous
 62
     7
370
    25
100
AcDbLine
 10
610.6138857143
 20
62.4303315158
 30
0.0
 11
611.0962809781
 21
62.4303315158
 31
0.0
  0
LINE
  5
A6
330
1F
100
AcDbEntity
  8
0
  6
Continuous
 62
     7
370
    25
100
AcDbLine
 10
610.6138857143
 20
62.4303315158
 30
0.0
 11
610.6138857143
 21
62.7050330612
 31
0.0
  0
LINE
  5
A7
330
1F
100
AcDbEntity
  8
0
  6
Continuous
 62
     7
370
    25
100
AcDbLine
 10
634.1314904504
 20
62.4303315158
 30
0.0
 11
634.6138857143
 21
62.4303315158
 31
0.0
  0
LINE
  5
A8
330
1F
100
AcDbEntity
  8
0
  6
Continuous
 62
     7
370
    25
100
AcDbLine
 10
633.9568460366
 20
62.7050330612
 30
0.0
 11
634.1314904504
 21
62.4303315158
 31
0.0
  0
LINE
  5
A9
330
1F
100
AcDbEntity
  8
0
  6
Continuous
 62
     7
370
    25
100
AcDbLine
 10
634.6138857143
 20
62.4303315158
 30
0.0
 11
634.6138857143
 21
62.7050330612
 31
0.0
  0
ELLIPSE
  5
AA
330
1F
100
AcDbEntity
  8
0
  6
Continuous
 62
     7
370
    25
100
AcDbEllipse
 10
629.4752874274
 20
69.754162483
 30
0.0
 11
-7.31311170662923
 21
7.837202391757643
 31
0.0
210
0.0
220
0.0
230
1.0
 40
0.2453475563
 41
2.414819379596436
 42
2.491261794332969
  0
LINE
  5
AB
330
1F
100
AcDbEntity
  8
0
  6
Continuous
 62
     7
370
    25
100
AcDbLine
 10
400.6138857143
 20
582.9797346067
 30
0.0
 11
400.1314904504
 21
582.9797346067
 31
0.0
  0
LINE
  5
AC
330
1F
100
AcDbEntity
  8
0
  6
Continuous
 62
     7
370
    25
100
AcDbLine
 10
399.9568460366
 20
582.7050330612
 30
0.0
 11
400.1314904504
 21
582.9797346067
 31
0.0
  0
LINE
  5
AD
330
1F
100
AcDbEntity
  8
0
  6
Continuous
 62
     7
370
    25
100
AcDbLine
 10
400.6138857143
 20
582.9797346067
 30
0.0
 11
400.6138857143
 21
582.7050330612
 31
0.0
  0
ELLIPSE
  5
AE
330
1F
100
AcDbEntity
  8
0
  6
Continuous
 62
     7
370
    25
100
AcDbEllipse
 10
395.4752874274
 20
575.6559036394
 30
0.0
 11
7.313111706629059
 21
7.837202391757727
 31
0.0
210
0.0
220
0.0
230
1.0
 40
0.2453475563
 41
0.6503308592568212
 42
0.7267732739937929
  0
LINE
  5
AF
330
1F
100
AcDbEntity
  8
0
  6
Continuous
 62
     7
370
    25
100
AcDbLine
 10
377.0962809781
 20
582.9797346067
 30
0.0
 11
376.6138857143
 21
582.9797346067
 31
0.0
  0
LINE
  5
B0
330
1F
100
AcDbEntity
  8
0
  6
Continuous
 62
     7
370
    25
100
AcDbLine
 10
377.270925392
 20
582.7050330612
 30
0.0
 11
377.0962809781
 21
582.9797346067
 31
0.0
  0
LINE
  5
B1
330
1F
100
AcDbEntity
  8
0
  6
Continuous
 62
     7
370
    25
100
AcDbLine
 10
376.6138857143
 20
582.9797346067
 30
0.0
 11
376.6138857143
 21
582.7050330612
 31
0.0
  0
ELLIPSE
  5
B2
330
1F
100
AcDbEntity
  8
0
  6
Continuous
 62
     7
370
    25
100
AcDbEllipse
 10
381.7524840011
 20
575.6559036394
 30
0.0
 11
-7.31311170662917
 21
7.837202391757613
 31
0.0
210
0.0
220
0.0
230
1.0
 40
0.2453475563
 41
5.556412033185852
 42
5.632854447922811
  0
LINE
  5
B3
330
1F
100
AcDbEntity
  8
0
  6
Continuous
 62
     7
370
    25
100
AcDbLine
 10
634.6138857143
 20
582.9797346067
 30
0.0
 11
634.1314904504
 21
582.9797346067
 31
0.0
  0
LINE
  5
B4
330
1F
100
AcDbEntity
  8
0
  6
Continuous
 62
     7
370
    25
100
AcDbLine
 10
633.9568460366
 20
582.7050330612
 30
0.0
 11
634.1314904504
 21
582.9797346067
 31
0.0
  0
LINE
  5
B5
330
1F
100
AcDbEntity
  8
0
  6
Continuous
 62
     7
370
    25
100
AcDbLine
 10
634.6138857143
 20
582.9797346067
 30
0.0
 11
634.6138857143
 21
582.7050330612
 31
0.0
  0
ELLIPSE
  5
B6
330
1F
100
AcDbEntity
  8
0
  6
Continuous
 62
     7
370
    25
100
AcDbEllipse
 10
629.4752874274
 20
575.6559036394
 30
0.0
 11
7.313111706629001
 21
7.837202391757841
 31
0.0
210
0.0
220
0.0
230
1.0
 40
0.2453475563
 41
0.6503308592567902
 42
0.7267732739933593
  0
LINE
  5
B7
330
1F
100
AcDbEntity
  8
0
  6
Continuous
 62
     7
370
    25
100
AcDbLine
 10
611.0962809781
 20
582.9797346067
 30
0.0
 11
610.6138857143
 21
582.9797346067
 31
0.0
  0
LINE
  5
B8
330
1F
100
AcDbEntity
  8
0
  6
Continuous
 62
     7
370
    25
100
AcDbLine
 10
611.270925392
 20
582.7050330612
 30
0.0
 11
611.0962809781
 21
582.9797346067
 31
0.0
  0
LINE
  5
B9
330
1F
100
AcDbEntity
  8
0
  6
Continuous
 62
     7
370
    25
100
AcDbLine
 10
610.6138857143
 20
582.9797346067
 30
0.0
 11
610.6138857143
 21
582.7050330612
 31
0.0
  0
ELLIPSE
  5
BA
330
1F
100
AcDbEntity
  8
0
  6
Continuous
 62
     7
370
    25
100
AcDbEllipse
 10
615.7524840011
 20
575.6559036394
 30
0.0
 11
-7.313111706629229
 21
7.837202391757729
 31
0.0
210
0.0
220
0.0
230
1.0
 40
0.2453475563
 41
5.5564120331863
 42
5.632854447922843
  0
LINE
  5
BB
330
1F
100
AcDbEntity
  8
0
  6
Continuous
 62
     7
370
    25
100
AcDbLine
 10
142.6138857143
 20
62.4303315158
 30
0.0
 11
143.0962809781
 21
62.4303315158
 31
0.0
  0
LINE
  5
BC
330
1F
100
AcDbEntity
  8
0
  6
Continuous
 62
     7
370
    25
100
AcDbLine
 10
143.270925392
 20
62.7050330612
 30
0.0
 11
143.0962809781
 21
62.4303315158
 31
0.0
  0
LINE
  5
BD
330
1F
100
AcDbEntity
  8
0
  6
Continuous
 62
     7
370
    25
100
AcDbLine
 10
142.6138857143
 20
62.4303315158
 30
0.0
 11
142.6138857143
 21
62.7050330612
 31
0.0
  0
ELLIPSE
  5
BE
330
1F
100
AcDbEntity
  8
0
  6
Continuous
 62
     7
370
    25
100
AcDbEllipse
 10
147.7524840011
 20
69.754162483
 30
0.0
 11
7.313111706629088
 21
7.837202391757729
 31
0.0
210
0.0
220
0.0
230
1.0
 40
0.2453475563
 41
3.791923512846664
 42
3.868365927583186
  0
LINE
  5
BF
330
1F
100
AcDbEntity
  8
0
  6
Continuous
 62
     7
370
    25
100
AcDbLine
 10
166.1314904504
 20
62.4303315158
 30
0.0
 11
166.6138857143
 21
62.4303315158
 31
0.0
  0
LINE
  5
C0
330
1F
100
AcDbEntity
  8
0
  6
Continuous
 62
     7
370
    25
100
AcDbLine
 10
165.9568460366
 20
62.7050330612
 30
0.0
 11
166.1314904504
 21
62.4303315158
 31
0.0
  0
LINE
  5
C1
330
1F
100
AcDbEntity
  8
0
  6
Continuous
 62
     7
370
    25
100
AcDbLine
 10
166.6138857143
 20
62.4303315158
 30
0.0
 11
166.6138857143
 21
62.7050330612
 31
0.0
  0
ELLIPSE
  5
C2
330
1F
100
AcDbEntity
  8
0
  6
Continuous
 62
     7
370
    25
100
AcDbEllipse
 10
161.4752874274
 20
69.754162483
 30
0.0
 11
-7.313111706629143
 21
7.837202391757643
 31
0.0
210
0.0
220
0.0
230
1.0
 40
0.2453475563
 41
2.414819379596452
 42
2.491261794332991
  0
LINE
  5
C3
330
1F
100
AcDbEntity
  8
0
  6
Continuous
 62
     7
370
    25
100
AcDbLine
 10
638.5393882622
 20
123.7050330612
 30
0.0
 11
638.5393882622
 21
458.7050330612
 31
0.0
  0
ARC
  5
C4
330
1F
100
AcDbEntity
  8
0
  6
Continuous
 62
     7
370
    25
100
AcDbCircle
 10
613.6138857143
 20
458.7050330612
 30
0.0
 40
24.92550254794048
100
AcDbArc
 50
0.0
 51
90.0
  0
LINE
  5
C5
330
1F
100
AcDbEntity
  8
0
  6
Continuous
 62
     7
370
    25
100
AcDbLine
 10
138.6883831663
 20
458.7050330612
 30
0.0
 11
138.6883831663
 21
123.7050330612
 31
0.0
  0
ARC
  5
C6
330
1F
100
AcDbEntity
  8
0
  6
Continuous
 62
     7
370
    25
100
AcDbCircle
 10
613.6138857143
 20
123.7050330612
 30
0.0
 40
24.92550254794048
100
AcDbArc
 50
270.0
 51
0.0
  0
LINE
  5
C7
330
1F
100
AcDbEntity
  8
0
  6
Continuous
 62
     7
370
    25
100
AcDbLine
 10
163.6138857143
 20
98.7795305133
 30
0.0
 11
613.6138857143
 21
98.7795305133
 31
0.0
  0
ARC
  5
C8
330
1F
100
AcDbEntity
  8
0
  6
Continuous
 62
     7
370
    25
100
AcDbCircle
 10
163.6138857143
 20
123.7050330612
 30
0.0
 40
24.92550254794045
100
AcDbArc
 50
180.0
 51
270.0
  0
ARC
  5
C9
330
1F
100
AcDbEntity
  8
0
  6
Continuous
 62
     7
370
    25
100
AcDbCircle
 10
163.6138857143
 20
458.7050330612
 30
0.0
 40
24.92550254794037
100
AcDbArc
 50
90.0
 51
180.0
  0
LINE
  5
CA
330
1F
100
AcDbEntity
  8
0
  6
Continuous
 62
     7
370
    25
100
AcDbLine
 10
613.6138857143
 20
483.6305356092
 30
0.0
 11
163.6138857143
 21
483.6305356092
 31
0.0
  0
LINE
  5
CB
330
1F
100
AcDbEntity
  8
0
  6
Continuous
 62
     7
370
    25
100
AcDbLine
 10
146.2861402701
 20
458.6967942211
 30
0.0
 11
146.2677879332
 21
458.7050330612
 31
0.0
  0
SPLINE
  5
CC
330
1F
100
AcDbEntity
  8
0
  6
Continuous
 62
     7
370
    25
100
AcDbSpline
210
0.0
220
0.0
230
1.0
 70
     8
 71
     3
 72
    13
 73
     9
 74
     0
 42
0.00000001
 43
0.00000001
 40
0.0
 40
0.0
 40
0.0
 40
0.0
 40
0.1664388343173433
 40
0.3328876642531634
 40
0.4993238510484159
 40
0.6662111549852958
 40
0.8331126449985614
 40
0.9999999999999999
 40
0.9999999999999999
 40
0.9999999999999999
 40
0.9999999999999999
 10
145.8284999919039
 20
123.7050330612232
 30
0.0
 10
145.8988354298676
 20
142.2567708981973
 30
0.0
 10
146.0395105298464
 20
179.3613607117284
 30
0.0
 10
146.1916949474685
 20
235.0898260669786
 30
0.0
 10
146.2984454671545
 20
290.9059596608096
 30
0.0
 10
146.350499147582
 20
346.801183598771
 30
0.0
 10
146.3524870260873
 20
402.7577394783039
 30
0.0
 10
146.3082552310686
 20
440.0509690610599
 30
0.0
 10
146.2861402701048
 20
458.696794221135
 30
0.0
  0
LINE
  5
CD
330
1F
100
AcDbEntity
  8
0
  6
Continuous
 62
     7
370
    25
100
AcDbLine
 10
138.6883831663
 20
123.7050330612
 30
0.0
 11
145.8284999919
 21
123.7050330612
 31
0.0
  0
LINE
  5
CE
330
1F
100
AcDbEntity
  8
0
  6
Continuous
 62
     7
370
    25
100
AcDbLine
 10
138.6883831663
 20
458.7050330612
 30
0.0
 11
146.2677879332
 21
458.7050330612
 31
0.0
  0
SPLINE
  5
CF
330
1F
100
AcDbEntity
  8
0
  6
Continuous
 62
     7
370
    25
100
AcDbSpline
210
0.0
220
0.0
230
1.0
 70
     8
 71
     3
 72
    15
 73
    11
 74
     0
 42
0.00000001
 43
0.00000001
 40
0.0
 40
0.0
 40
0.0
 40
0.0
 40
0.1277272325253083
 40
0.2500006214583819
 40
0.3758169428167396
 40
0.500000000729039
 40
0.624181305507381
 40
0.7499993797161485
 40
0.8722718189628169
 40
1.0
 40
1.0
 40
1.0
 40
1.0
 10
163.6138857142853
 20
105.919647338842
 30
0.0
 10
162.4262360061774
 20
105.9914333443191
 30
0.0
 10
160.1016482167801
 20
106.1319401542333
 30
0.0
 10
156.7443836294562
 20
107.2024999428489
 30
0.0
 10
153.6755418509009
 20
108.8382148240866
 30
0.0
 10
150.9728372811053
 20
111.0639616568876
 30
0.0
 10
148.7470769018402
 20
113.7666751491046
 30
0.0
 10
147.1113616693661
 20
116.8355075961834
 30
0.0
 10
146.040794722658
 20
120.1927866295545
 30
0.0
 10
145.9002869981057
 20
122.5173744910998
 30
0.0
 10
145.828499991904
 20
123.7050330612232
 30
0.0
  0
LINE
  5
D0
330
1F
100
AcDbEntity
  8
0
  6
Continuous
 62
     7
370
    25
100
AcDbLine
 10
163.6138857143
 20
98.7795305133
 30
0.0
 11
163.6138857143
 21
105.9196473388
 31
0.0
  0
SPLINE
  5
D1
330
1F
100
AcDbEntity
  8
0
  6
Continuous
 62
     7
370
    25
100
AcDbSpline
210
0.0
220
0.0
230
1.0
 70
     8
 71
     3
 72
    15
 73
    11
 74
     0
 42
0.00000001
 43
0.00000001
 40
0.0
 40
0.0
 40
0.0
 40
0.0
 40
0.1277272325169682
 40
0.2500006214583818
 40
0.3758169428091928
 40
0.5000000007290263
 40
0.6241813055287017
 40
0.7499993797161286
 40
0.8722718189865003
 40
1.0
 40
1.0
 40
1.0
 40
1.0
 10
631.3992714366665
 20
123.7050330612234
 30
0.0
 10
631.3274854311983
 20
122.5173833531935
 30
0.0
 10
631.1869786212923
 20
120.1927955637966
 30
0.0
 10
630.116418832718
 20
116.83553097653
 30
0.0
 10
628.4807039514617
 20
113.7666891978997
 30
0.0
 10
626.2549571185498
 20
111.063984627934
 30
0.0
 10
623.5522436262323
 20
108.8382242486642
 30
0.0
 10
620.483411178941
 20
107.2025090161404
 30
0.0
 10
617.1261321457308
 20
106.1319420695485
 30
0.0
 10
614.8015442841875
 20
105.991434345019
 30
0.0
 10
613.6138857142852
 20
105.919647338842
 30
0.0
  0
LINE
  5
D2
330
1F
100
AcDbEntity
  8
0
  6
Continuous
 62
     7
370
    25
100
AcDbLine
 10
638.5393882622
 20
123.7050330612
 30
0.0
 11
631.3992714367
 21
123.7050330612
 31
0.0
  0
LINE
  5
D3
330
1F
100
AcDbEntity
  8
0
  6
Continuous
 62
     7
370
    25
100
AcDbLine
 10
613.6138857143
 20
98.7795305133
 30
0.0
 11
613.6138857143
 21
105.9196473388
 31
0.0
  0
SPLINE
  5
D4
330
1F
100
AcDbEntity
  8
0
  6
Continuous
 62
     7
370
    25
100
AcDbSpline
210
0.0
220
0.0
230
1.0
 70
     8
 71
     3
 72
    17
 73
    13
 74
     0
 42
0.00000001
 43
0.00000001
 40
0.0
 40
0.0
 40
0.0
 40
0.0
 40
0.1251758763215723
 40
0.2503512010402916
 40
0.3339006886820123
 40
0.4174527258850398
 40
0.5009984073784514
 40
0.5841043701944091
 40
0.6672165500625097
 40
0.7503262304554917
 40
0.8751628434511923
 40
1.0
 40
1.0
 40
1.0
 40
1.0
 10
163.6138857142849
 20
476.0511308423239
 30
0.0
 10
182.3650630498452
 20
475.9830092675882
 30
0.0
 10
219.8673350916029
 20
475.8467664183029
 30
0.0
 10
269.9450244245507
 20
475.7155169266394
 30
0.0
 10
313.8014385471186
 20
475.6286075279425
 30
0.0
 10
351.4275770280053
 20
475.579955843485
 30
0.0
 10
388.9976543012475
 20
475.5622355188291
 30
0.0
 10
426.5015250410883
 20
475.5806452424349
 30
0.0
 10
463.9293726148894
 20
475.6294788556684
 30
0.0
 10
507.6027512342891
 20
475.7163109450427
 30
0.0
 10
557.5127027415963
 20
475.8472870704672
 30
0.0
 10
594.913464248905
 20
475.9831828197542
 30
0.0
 10
613.6138857142852
 20
476.0511308423238
 30
0.0
  0
LINE
  5
D5
330
1F
100
AcDbEntity
  8
0
  6
Continuous
 62
     7
370
    25
100
AcDbLine
 10
163.6138857143
 20
483.6305356092
 30
0.0
 11
163.6138857143
 21
476.0511308423
 31
0.0
  0
LINE
  5
D6
330
1F
100
AcDbEntity
  8
0
  6
Continuous
 62
     7
370
    25
100
AcDbLine
 10
613.6138857143
 20
483.6305356092
 30
0.0
 11
613.6138857143
 21
476.0511308423
 31
0.0
  0
LINE
  5
D7
330
1F
100
AcDbEntity
  8
0
  6
Continuous
 62
     7
370
    25
100
AcDbLine
 10
163.6138857143
 20
105.9196473388
 30
0.0
 11
163.6138857143
 21
105.9225379372
 31
0.0
  0
SPLINE
  5
D8
330
1F
100
AcDbEntity
  8
0
  6
Continuous
 62
     7
370
    25
100
AcDbSpline
210
0.0
220
0.0
230
1.0
 70
     8
 71
     3
 72
    15
 73
    11
 74
     0
 42
0.00000001
 43
0.00000001
 40
0.0
 40
0.0
 40
0.0
 40
0.0
 40
0.1228645840751189
 40
0.2457368046524807
 40
0.3685996278389462
 40
0.4917914502272778
 40
0.6149933900460935
 40
0.738185806191041
 40
0.8690728481063811
 40
1.0
 40
1.0
 40
1.0
 40
1.0
 10
613.6136684728098
 20
105.9225379371446
 30
0.0
 10
595.207050151842
 20
105.9848810134831
 30
0.0
 10
558.3926694684149
 20
106.1095710410194
 30
0.0
 10
503.1078922014875
 20
106.2375038874215
 30
0.0
 10
447.7436535136637
 20
106.3197099538832
 30
0.0
 10
392.3095902290144
 20
106.348889694703
 30
0.0
 10
336.8249835247746
 20
106.3262819131738
 30
0.0
 10
280.2032243482969
 20
106.2495618277526
 30
0.0
 10
222.4529056273057
 20
106.1208437438248
 30
0.0
 10
183.2290402166959
 20
105.9886466235886
 30
0.0
 10
163.6141029600206
 20
105.9225379371601
 30
0.0
  0
LINE
  5
D9
330
1F
100
AcDbEntity
  8
0
  6
Continuous
 62
     7
370
    25
100
AcDbLine
 10
613.6138857143
 20
105.9196473388
 30
0.0
 11
613.6138857143
 21
105.9225379371
 31
0.0
  0
SPLINE
  5
DA
330
1F
100
AcDbEntity
  8
0
  6
Continuous
 62
     7
370
    25
100
AcDbSpline
210
0.0
220
0.0
230
1.0
 70
     8
 71
     3
 72
    15
 73
    11
 74
     0
 42
0.00000001
 43
0.00000001
 40
0.0
 40
0.0
 40
0.0
 40
0.0
 40
0.1277272200578694
 40
0.2500006214633579
 40
0.3758169207027383
 40
0.5000000007368521
 40
0.624181282783189
 40
0.749999379721188
 40
0.8722718058164893
 40
0.9999999999999999
 40
0.9999999999999999
 40
0.9999999999999999
 40
0.9999999999999999
 10
613.6138857142852
 20
476.0511308423239
 30
0.0
 10
614.7722011012881
 20
475.9811179192605
 30
0.0
 10
617.0393730202425
 20
475.8440815516925
 30
0.0
 10
620.313715087639
 20
474.7999640118832
 30
0.0
 10
623.3067585058866
 20
473.2046502708881
 30
0.0
 10
625.9427078434314
 20
471.0338781677827
 30
0.0
 10
628.1134934965946
 20
468.3979199056918
 30
0.0
 10
629.7088075832477
 20
465.4048858318581
 30
0.0
 10
630.7529322862802
 20
462.1305293161569
 30
0.0
 10
630.8899695699715
 20
459.8633573247506
 30
0.0
 10
630.9599834953858
 20
458.7050330612234
 30
0.0
  0
LINE
  5
DB
330
1F
100
AcDbEntity
  8
0
  6
Continuous
 62
     7
370
    25
100
AcDbLine
 10
638.5393882622
 20
458.7050330612
 30
0.0
 11
630.9599834954
 21
458.7050330612
 31
0.0
  0
SPLINE
  5
DC
330
1F
100
AcDbEntity
  8
0
  6
Continuous
 62
     7
370
    25
100
AcDbSpline
210
0.0
220
0.0
230
1.0
 70
     8
 71
     3
 72
    15
 73
    11
 74
     0
 42
0.00000001
 43
0.00000001
 40
0.0
 40
0.0
 40
0.0
 40
0.0
 40
0.1277272200198264
 40
0.2500006214633607
 40
0.3758169206686184
 40
0.5000000007368599
 40
0.6241812827856019
 40
0.7499993797211942
 40
0.8722718058192169
 40
1.0
 40
1.0
 40
1.0
 40
1.0
 10
146.2677879331847
 20
458.7050330612232
 30
0.0
 10
146.3378008562091
 20
459.8633484478796
 30
0.0
 10
146.4748372237418
 20
462.1305203668309
 30
0.0
 10
147.5189547633683
 20
465.4048624339759
 30
0.0
 10
149.1142685044427
 20
468.3979058525563
 30
0.0
 10
151.2850406074994
 20
471.0338551901897
 30
0.0
 10
153.9209988698354
 20
473.2046408435445
 30
0.0
 10
156.914032943693
 20
474.799954930204
 30
0.0
 10
160.1883894593765
 20
475.8440796332234
 30
0.0
 10
162.4555614507827
 20
475.9811169169124
 30
0.0
 10
163.6138857142849
 20
476.0511308423239
 30
0.0
  0
SPLINE
  5
DD
330
1F
100
AcDbEntity
  8
0
  6
Continuous
 62
     7
370
    25
100
AcDbSpline
210
0.0
220
0.0
230
1.0
 70
     8
 71
     3
 72
    13
 73
     9
 74
     0
 42
0.00000001
 43
0.00000001
 40
0.0
 40
0.0
 40
0.0
 40
0.0
 40
0.174326166382849
 40
0.3486518694586365
 40
0.5232330571069536
 40
0.6978153437318656
 40
0.8488916051091491
 40
1.0
 40
1.0
 40
1.0
 40
1.0
 10
630.941631158425
 20
458.696794193417
 30
0.0
 10
630.9186668670291
 20
439.2197458274813
 30
0.0
 10
630.872738345269
 20
400.2657008598069
 30
0.0
 10
630.8785181765475
 20
341.7876441431658
 30
0.0
 10
630.940050561423
 20
283.2952414989367
 30
0.0
 10
631.0548951851011
 20
227.4323870919766
 30
0.0
 10
631.2067640476362
 20
174.2288462101913
 30
0.0
 10
631.3350977581011
 20
140.5474979725774
 30
0.0
 10
631.3992714366665
 20
123.7050330612234
 30
0.0
  0
LINE
  5
DE
330
1F
100
AcDbEntity
  8
0
  6
Continuous
 62
     7
370
    25
100
AcDbLine
 10
630.9599834954
 20
458.7050330612
 30
0.0
 11
630.9416311584
 21
458.6967941934
 31
0.0
  0
LINE
  5
DF
330
1F
100
AcDbEntity
  8
0
  6
Continuous
 62
     7
370
    25
100
AcDbLine
 10
145.8284999919
 20
123.7050330612
 30
0.0
 11
145.8392382823
 21
123.6945902773
 31
0.0
  0
SPLINE
  5
E0
330
1F
100
AcDbEntity
  8
0
  6
Continuous
 62
     7
370
    25
100
AcDbSpline
210
0.0
220
0.0
230
1.0
 70
     8
 71
     3
 72
    20
 73
    16
 74
     0
 42
0.00000001
 43
0.00000001
 40
0.0
 40
0.0
 40
0.0
 40
0.0
 40
0.1265538351271533
 40
0.2499651511273782
 40
0.332739217122772
 40
0.4158538357331392
 40
0.5003221320401965
 40
0.5610880491730162
 40
0.62452746125362
 40
0.6852800061033378
 40
0.7501864226771658
 40
0.808786826962145
 40
0.8744853467532699
 40
0.9261837418184958
 40
1.0
 40
1.0
 40
1.0
 40
1.0
 10
146.2861402701048
 20
458.6967942211358
 30
0.0
 10
146.4531890883339
 20
458.6775322571283
 30
0.0
 10
146.7831386552697
 20
458.6394866322027
 30
0.0
 10
148.1712897185946
 20
458.2800044798439
 30
0.0
 10
149.8121902413766
 20
457.8204956762003
 30
0.0
 10
151.5498461052049
 20
457.3137127866166
 30
0.0
 10
153.3881446669839
 20
456.7624134272205
 30
0.0
 10
155.2442183205155
 20
456.1952598742112
 30
0.0
 10
157.0089893953631
 20
455.6494139301699
 30
0.0
 10
158.9193768550863
 20
455.0518633970937
 30
0.0
 10
160.8713505613858
 20
454.4367139559544
 30
0.0
 10
162.9499856156109
 20
453.7767104160282
 30
0.0
 10
164.9412166046434
 20
453.1425110976609
 30
0.0
 10
167.1452632410792
 20
452.4371201089033
 30
0.0
 10
168.6174163969879
 20
451.9664137293242
 30
0.0
 10
169.4832024596372
 20
451.6895872174874
 30
0.0
  0
SPLINE
  5
E1
330
1F
100
AcDbEntity
  8
0
  6
Continuous
 62
     7
370
    25
100
AcDbSpline
210
0.0
220
0.0
230
1.0
 70
     8
 71
     3
 72
    14
 73
    10
 74
     0
 42
0.00000001
 43
0.00000001
 40
0.0
 40
0.0
 40
0.0
 40
0.0
 40
0.1309789573715837
 40
0.2858646411209322
 40
0.4407504608655947
 40
0.5957964847574363
 40
0.7508431028875983
 40
0.8754133849895989
 40
1.0
 40
1.0
 40
1.0
 40
1.0
 10
169.4832024596371
 20
451.6895872174874
 30
0.0
 10
169.4915654373066
 20
437.5961020187244
 30
0.0
 10
169.5098178318757
 20
406.8367405965851
 30
0.0
 10
169.5129894163179
 20
359.3982594732329
 30
0.0
 10
169.4966665394068
 20
309.3748383466848
 30
0.0
 10
169.4538231244263
 20
259.3507272743321
 30
0.0
 10
169.3808956595668
 20
212.6155973996837
 30
0.0
 10
169.283799027017
 20
169.1829705201411
 30
0.0
 10
169.2018118711999
 20
142.4356939571106
 30
0.0
 10
169.1608156060514
 20
129.0611789974398
 30
0.0
  0
SPLINE
  5
E2
330
1F
100
AcDbEntity
  8
0
  6
Continuous
 62
     7
370
    25
100
AcDbSpline
210
0.0
220
0.0
230
1.0
 70
     8
 71
     3
 72
    17
 73
    13
 74
     0
 42
0.00000001
 43
0.00000001
 40
0.0
 40
0.0
 40
0.0
 40
0.0
 40
0.1266110475050756
 40
0.2500847048582534
 40
0.3750083979564967
 40
0.5003590782846354
 40
0.6244929809704423
 40
0.7500930130890693
 40
0.808719356142873
 40
0.8744277139388288
 40
0.9260765151140341
 40
1.0
 40
1.0
 40
1.0
 40
1.0
 10
145.8392382822996
 20
123.6945902773479
 30
0.0
 10
146.0171850110616
 20
123.6349429238958
 30
0.0
 10
146.368668993067
 20
123.5171262635209
 30
0.0
 10
147.95098647818
 20
123.6745434962331
 30
0.0
 10
150.2142356026379
 20
124.0675762948684
 30
0.0
 10
153.1571013248754
 20
124.7075453916219
 30
0.0
 10
156.6444626303312
 20
125.5614243308897
 30
0.0
 10
159.8636271096465
 20
126.4135758140551
 30
0.0
 10
162.6148070613802
 20
127.1732771285243
 30
0.0
 10
164.609744504848
 20
127.7365039054391
 30
0.0
 10
166.818181054287
 20
128.3726372026802
 30
0.0
 10
168.2927485334587
 20
128.8060387069134
 30
0.0
 10
169.1608156060513
 20
129.0611789974399
 30
0.0
  0
SPLINE
  5
E3
330
1F
100
AcDbEntity
  8
0
  6
Continuous
 62
     7
370
    25
100
AcDbSpline
210
0.0
220
0.0
230
1.0
 70
     8
 71
     3
 72
    20
 73
    16
 74
     0
 42
0.00000001
 43
0.00000001
 40
0.0
 40
0.0
 40
0.0
 40
0.0
 40
0.126556252940611
 40
0.249976038970315
 40
0.3327727179852602
 40
0.4158974924307133
 40
0.5003382796972766
 40
0.5611196056253218
 40
0.6245385731163688
 40
0.6853094740952353
 40
0.7502030107405547
 40
0.8088034325129291
 40
0.8744829229385443
 40
0.9261303508225134
 40
0.9999999999999999
 40
0.9999999999999999
 40
0.9999999999999999
 40
0.9999999999999999
 10
163.6141029600206
 20
105.9225379371601
 30
0.0
 10
163.5661983657672
 20
106.0883837361169
 30
0.0
 10
163.4715764056373
 20
106.4159651470691
 30
0.0
 10
163.6415982273393
 20
107.7939963248742
 30
0.0
 10
163.936663918279
 20
109.4248145700988
 30
0.0
 10
164.3026154438278
 20
111.153202584776
 30
0.0
 10
164.7291653744824
 20
112.9834988721096
 30
0.0
 10
165.1867876258313
 20
114.8329397023223
 30
0.0
 10
165.6398213396785
 20
116.5931416098004
 30
0.0
 10
166.147423399203
 20
118.4997075206662
 30
0.0
 10
166.6806010715158
 20
120.449313507688
 30
0.0
 10
167.2625274564478
 20
122.5262725961513
 30
0.0
 10
167.8304640986889
 20
124.5164700997334
 30
0.0
 10
168.4704207959412
 20
126.7209289061207
 30
0.0
 10
168.9050351768382
 20
128.194153110139
 30
0.0
 10
169.1608156060513
 20
129.0611789974398
 30
0.0
  0
SPLINE
  5
E4
330
1F
100
AcDbEntity
  8
0
  6
Continuous
 62
     7
370
    25
100
AcDbSpline
210
0.0
220
0.0
230
1.0
 70
     8
 71
     3
 72
    15
 73
    11
 74
     0
 42
0.00000001
 43
0.00000001
 40
0.0
 40
0.0
 40
0.0
 40
0.0
 40
0.1269045527305714
 40
0.2538425351363233
 40
0.3780352408674306
 40
0.5022370350306855
 40
0.6264291606887746
 40
0.7509491584005913
 40
0.8754783507243877
 40
0.9999999999999999
 40
0.9999999999999999
 40
0.9999999999999999
 40
0.9999999999999999
 10
169.1608156060513
 20
129.0611789974399
 30
0.0
 10
187.7055926330517
 20
129.1093576194453
 30
0.0
 10
224.8000318220532
 20
129.2057275548498
 30
0.0
 10
280.1047801730612
 20
129.2889687926349
 30
0.0
 10
335.0422943120385
 20
129.3366265271939
 30
0.0
 10
389.5951694920233
 20
129.3500212659748
 30
0.0
 10
444.1958034800682
 20
129.3342720153666
 30
0.0
 10
498.8261132783717
 20
129.286681461118
 30
0.0
 10
553.4765440337592
 20
129.2025617686185
 30
0.0
 10
589.8705193165845
 20
129.1083056362484
 30
0.0
 10
608.0669558225192
 20
129.0611789974399
 30
0.0
  0
SPLINE
  5
E5
330
1F
100
AcDbEntity
  8
0
  6
Continuous
 62
     7
370
    25
100
AcDbSpline
210
0.0
220
0.0
230
1.0
 70
     8
 71
     3
 72
    17
 73
    13
 74
     0
 42
0.00000001
 43
0.00000001
 40
0.0
 40
0.0
 40
0.0
 40
0.0
 40
0.1266118421129018
 40
0.2500858406216121
 40
0.3750095315866856
 40
0.500359986362989
 40
0.6244935788178382
 40
0.7500933215280837
 40
0.8087192574812773
 40
0.8744278234757139
 40
0.9260455737944874
 40
1.0
 40
1.0
 40
1.0
 40
1.0
 10
613.6136684728098
 20
105.9225379371446
 30
0.0
 10
613.6615091426582
 20
106.0886165993103
 30
0.0
 10
613.7560048386003
 20
106.4166579668779
 30
0.0
 10
613.5654204649094
 20
107.9655151227397
 30
0.0
 10
613.1420895371098
 20
110.198121249735
 30
0.0
 10
612.4755624674432
 20
113.1140421504714
 30
0.0
 10
611.5996259687832
 20
116.5789396739208
 30
0.0
 10
610.7335515254182
 20
119.7838387088797
 30
0.0
 10
609.9652839061213
 20
122.5261821735055
 30
0.0
 10
609.3974718666004
 20
124.5158952591684
 30
0.0
 10
608.7575222423434
 20
126.7203068370545
 30
0.0
 10
608.3229138884421
 20
128.1935360111246
 30
0.0
 10
608.0669558225193
 20
129.0611789974398
 30
0.0
  0
SPLINE
  5
E6
330
1F
100
AcDbEntity
  8
0
  6
Continuous
 62
     7
370
    25
100
AcDbSpline
210
0.0
220
0.0
230
1.0
 70
     8
 71
     3
 72
    19
 73
    15
 74
     0
 42
0.00000001
 43
0.00000001
 40
0.0
 40
0.0
 40
0.0
 40
0.0
 40
0.060867429571072
 40
0.1075448791807601
 40
0.1526926496740189
 40
0.2035546233994834
 40
0.2498841106349462
 40
0.3354901668717921
 40
0.4181187534938941
 40
0.4997447961163754
 40
0.6250694535624725
 40
0.7499672129501783
 40
0.8734152375639437
 40
1.0
 40
1.0
 40
1.0
 40
1.0
 10
608.0669558225192
 20
129.0611789974398
 30
0.0
 10
608.7819676678216
 20
128.8508145852299
 30
0.0
 10
610.0453011625615
 20
128.4791278645246
 30
0.0
 10
611.8158939982221
 20
127.9670847172266
 30
0.0
 10
613.4489152276484
 20
127.5012068363
 30
0.0
 10
615.0484064257897
 20
127.0527558789724
 30
0.0
 10
617.053976027931
 20
126.500342808554
 30
0.0
 10
619.3194054996435
 20
125.8949746341125
 30
0.0
 10
621.7844710153165
 20
125.2658075782321
 30
0.0
 10
624.4038601332358
 20
124.6351271190937
 30
0.0
 10
627.0137832648765
 20
124.0675100590947
 30
0.0
 10
629.2767199607309
 20
123.6745606609103
 30
0.0
 10
630.8591190843265
 20
123.5171217193495
 30
0.0
 10
631.2105920138177
 20
123.634941393886
 30
0.0
 10
631.3885331462881
 20
123.6945902730889
 30
0.0
  0
SPLINE
  5
E7
330
1F
100
AcDbEntity
  8
0
  6
Continuous
 62
     7
370
    25
100
AcDbSpline
210
0.0
220
0.0
230
1.0
 70
     8
 71
     3
 72
    13
 73
     9
 74
     0
 42
0.00000001
 43
0.00000001
 40
0.0
 40
0.0
 40
0.0
 40
0.0
 40
0.1467168306652291
 40
0.2934600629632738
 40
0.4699775802484282
 40
0.6464941241811079
 40
0.823246899276788
 40
0.9999999999999999
 40
0.9999999999999999
 40
0.9999999999999999
 40
0.9999999999999999
 10
608.0669558225192
 20
129.0611789974398
 30
0.0
 10
608.019204439479
 20
144.8120514713726
 30
0.0
 10
607.9236930805577
 20
176.3166307822053
 30
0.0
 10
607.819960661895
 20
226.8262441004141
 30
0.0
 10
607.7501267342817
 20
280.5750754042282
 30
0.0
 10
607.7188759452936
 20
337.5829882397093
 30
0.0
 10
607.7124041420434
 20
394.6308806394154
 30
0.0
 10
607.733847353386
 20
432.6700066783744
 30
0.0
 10
607.7445689689333
 20
451.6895872174874
 30
0.0
  0
SPLINE
  5
E8
330
1F
100
AcDbEntity
  8
0
  6
Continuous
 62
     7
370
    25
100
AcDbSpline
210
0.0
220
0.0
230
1.0
 70
     8
 71
     3
 72
    19
 73
    15
 74
     0
 42
0.00000001
 43
0.00000001
 40
0.0
 40
0.0
 40
0.0
 40
0.0
 40
0.0608659247559835
 40
0.1075425235575539
 40
0.1527013716030632
 40
0.2035745727291722
 40
0.2499005732353051
 40
0.3355183321477078
 40
0.4181488655979341
 40
0.4997608126338645
 40
0.6250983058137325
 40
0.7499765142157245
 40
0.873416630407737
 40
1.0
 40
1.0
 40
1.0
 40
1.0
 10
607.7445689689333
 20
451.6895872174874
 30
0.0
 10
608.4584265096868
 20
451.9178526499092
 30
0.0
 10
609.7197240534435
 20
452.321169296161
 30
0.0
 10
611.4868502600704
 20
452.8866207493971
 30
0.0
 10
613.1165148119564
 20
453.4069548622218
 30
0.0
 10
614.7123605842701
 20
453.9147877488959
 30
0.0
 10
616.7129441018202
 20
454.5495295116875
 30
0.0
 10
618.9721104571821
 20
455.2608058536438
 30
0.0
 10
621.4294816640112
 20
456.0253936070312
 30
0.0
 10
624.0395540034615
 20
456.8246513378267
 30
0.0
 10
626.6375620334518
 20
457.5993380904915
 30
0.0
 10
628.8836186028158
 20
458.2353692996376
 30
0.0
 10
630.4439489391979
 20
458.6392759830997
 30
0.0
 10
630.7743524926319
 20
458.67746143627
 30
0.0
 10
630.941631158425
 20
458.696794193417
 30
0.0
  0
LINE
  5
E9
330
1F
100
AcDbEntity
  8
0
  6
Continuous
 62
     7
370
    25
100
AcDbLine
 10
631.3885331463
 20
123.6945902731
 30
0.0
 11
631.3992714367
 21
123.7050330612
 31
0.0
  0
LINE
  5
EA
330
1F
100
AcDbEntity
  8
0
  6
Continuous
 62
     7
370
    25
100
AcDbLine
 10
163.5558125502
 20
475.9651234929
 30
0.0
 11
163.6138857143
 21
476.0511308423
 31
0.0
  0
LINE
  5
EB
330
1F
100
AcDbEntity
  8
0
  6
Continuous
 62
     7
370
    25
100
AcDbLine
 10
613.6719588507
 20
475.9651234928
 30
0.0
 11
613.6138857143
 21
476.0511308423
 31
0.0
  0
SPLINE
  5
EC
330
1F
100
AcDbEntity
  8
0
  6
Continuous
 62
     7
370
    25
100
AcDbSpline
210
0.0
220
0.0
230
1.0
 70
     8
 71
     3
 72
    19
 73
    15
 74
     0
 42
0.00000001
 43
0.00000001
 40
0.0
 40
0.0
 40
0.0
 40
0.0
 40
0.0608741305382309
 40
0.1075484788096387
 40
0.1527005278613013
 40
0.2035734358215416
 40
0.2499032095553784
 40
0.3355205804444589
 40
0.4181530964394183
 40
0.499769090716981
 40
0.6251088724482775
 40
0.7499873174092683
 40
0.8734243250471385
 40
1.0
 40
1.0
 40
1.0
 40
1.0
 10
607.7445689689333
 20
451.6895872174874
 30
0.0
 10
607.9695578167152
 20
452.4066456762769
 30
0.0
 10
608.367053569248
 20
453.673498209176
 30
0.0
 10
608.9161681355295
 20
455.4564739088926
 30
0.0
 10
609.4167425784283
 20
457.1053383016113
 30
0.0
 10
609.8997643563639
 20
458.7255625326067
 30
0.0
 10
610.4963226193685
 20
460.7639272877281
 30
0.0
 10
611.1527429562427
 20
463.0775789655021
 30
0.0
 10
611.8393021672246
 20
465.6126814618542
 30
0.0
 10
612.5330955447898
 20
468.3280616838362
 30
0.0
 10
613.1666633554958
 20
471.0672384195373
 30
0.0
 10
613.6209180041237
 20
473.4954140613215
 30
0.0
 10
613.8256269020976
 20
475.2555283392131
 30
0.0
 10
613.7236084488267
 20
475.7266204065766
 30
0.0
 10
613.6719588507078
 20
475.9651234927944
 30
0.0
  0
SPLINE
  5
ED
330
1F
100
AcDbEntity
  8
0
  6
Continuous
 62
     7
370
    25
100
AcDbSpline
210
0.0
220
0.0
230
1.0
 70
     8
 71
     3
 72
    17
 73
    13
 74
     0
 42
0.00000001
 43
0.00000001
 40
0.0
 40
0.0
 40
0.0
 40
0.0
 40
0.096383408263382
 40
0.1969881951147593
 40
0.2975925354910615
 40
0.3982786070880068
 40
0.4989623615728406
 40
0.5824100541296017
 40
0.6658636207102462
 40
0.7493146815593678
 40
0.8746570506974048
 40
0.9999999999999999
 40
0.9999999999999999
 40
0.9999999999999999
 40
0.9999999999999999
 10
607.7445689689333
 20
451.6895872174874
 30
0.0
 10
593.6830020436386
 20
451.6482642392021
 30
0.0
 10
564.9440028838466
 20
451.5638084282296
 30
0.0
 10
521.4885814896346
 20
451.4851466646579
 30
0.0
 10
477.3806631125175
 20
451.4498723345421
 30
0.0
 10
433.2389597319802
 20
451.4925081249618
 30
0.0
 10
391.5895068038725
 20
451.5353994481868
 30
0.0
 10
352.4600082075548
 20
451.5070285108229
 30
0.0
 10
315.8599301616347
 20
451.4680362193218
 30
0.0
 10
273.1524783555761
 20
451.4605062804089
 30
0.0
 10
224.3462587128947
 20
451.5324167154017
 30
0.0
 10
187.7709160929996
 20
451.6371969692941
 30
0.0
 10
169.4832024596372
 20
451.6895872174874
 30
0.0
  0
SPLINE
  5
EE
330
1F
100
AcDbEntity
  8
0
  6
Continuous
 62
     7
370
    25
100
AcDbSpline
210
0.0
220
0.0
230
1.0
 70
     8
 71
     3
 72
    19
 73
    15
 74
     0
 42
0.00000001
 43
0.00000001
 40
0.0
 40
0.0
 40
0.0
 40
0.0
 40
0.0608897064890795
 40
0.1075588614777371
 40
0.1527012962311254
 40
0.2035745910404099
 40
0.249903205139511
 40
0.3355216991918094
 40
0.4181542219026254
 40
0.4997690875792221
 40
0.6251088699861905
 40
0.7499873161236006
 40
0.8734243248472519
 40
1.0
 40
1.0
 40
1.0
 40
1.0
 10
169.4832024596371
 20
451.6895872174874
 30
0.0
 10
169.2581573006979
 20
452.4068295080396
 30
0.0
 10
168.8606253946948
 20
453.6738049727564
 30
0.0
 10
168.3115086748356
 20
455.4567839728857
 30
0.0
 10
167.8109869700942
 20
457.1054788228691
 30
0.0
 10
167.3280002917887
 20
458.7255841868808
 30
0.0
 10
166.7314416132986
 20
460.7639522985926
 30
0.0
 10
166.0750209889356
 20
463.0776028653268
 30
0.0
 10
165.3884638567276
 20
465.6127031989684
 30
0.0
 10
164.6946732845382
 20
468.3280708965007
 30
0.0
 10
164.061107884825
 20
471.0672384165413
 30
0.0
 10
163.6068532023876
 20
473.495414048864
 30
0.0
 10
163.4021443977236
 20
475.2555283414499
 30
0.0
 10
163.5041629182309
 20
475.7266204079646
 30
0.0
 10
163.5558125502058
 20
475.9651234929028
 30
0.0
  0
SPLINE
  5
EF
330
1F
100
AcDbEntity
  8
0
  6
Continuous
 62
     7
370
    25
100
AcDbSpline
210
0.0
220
0.0
230
1.0
 70
     8
 71
     3
 72
    15
 73
    11
 74
     0
 42
0.00000001
 43
0.00000001
 40
0.0
 40
0.0
 40
0.0
 40
0.0
 40
0.12501181514495
 40
0.2500136578301063
 40
0.3750085946840319
 40
0.5000000004314442
 40
0.6249914061629177
 40
0.7499863429688118
 40
0.8749881843538642
 40
1.0
 40
1.0
 40
1.0
 40
1.0
 10
163.6141029600206
 20
105.9225379371601
 30
0.0
 10
162.453247555861
 20
105.9918949268845
 30
0.0
 10
160.1316293514594
 20
106.1306033735784
 30
0.0
 10
156.7821270940105
 20
107.1921364524879
 30
0.0
 10
153.6936167618275
 20
108.8367982357729
 30
0.0
 10
150.9857732753312
 20
111.063860531251
 30
0.0
 10
148.7580762663033
 20
113.7715578370564
 30
0.0
 10
147.1123059926282
 20
116.8604276030977
 30
0.0
 10
146.0492606412556
 20
120.2107439757664
 30
0.0
 10
145.9092475972187
 20
122.5332772911029
 30
0.0
 10
145.8392382822996
 20
123.694590277348
 30
0.0
  0
SPLINE
  5
F0
330
1F
100
AcDbEntity
  8
0
  6
Continuous
 62
     7
370
    25
100
AcDbSpline
210
0.0
220
0.0
230
1.0
 70
     8
 71
     3
 72
    15
 73
    11
 74
     0
 42
0.00000001
 43
0.00000001
 40
0.0
 40
0.0
 40
0.0
 40
0.0
 40
0.1250118161848866
 40
0.2500136570302354
 40
0.3750085938317085
 40
0.4999999995622447
 40
0.6249914053105929
 40
0.7499863421689404
 40
0.8749881853938022
 40
1.0
 40
1.0
 40
1.0
 40
1.0
 10
613.6136684728117
 20
105.9225379371446
 30
0.0
 10
614.7745238864062
 20
105.9918949278912
 30
0.0
 10
617.0961420829361
 20
106.1306033750316
 30
0.0
 10
620.4456443310127
 20
107.192136451464
 30
0.0
 10
623.5341546489361
 20
108.8367982219402
 30
0.0
 10
626.2419981373841
 20
111.0638605129097
 30
0.0
 10
628.4696951498544
 20
113.7715578154657
 30
0.0
 10
630.1154654355547
 20
116.8604275942904
 30
0.0
 10
631.1785107889017
 20
120.2107439747341
 30
0.0
 10
631.3185238324297
 20
122.5332772968369
 30
0.0
 10
631.3885331462881
 20
123.6945902730889
 30
0.0
  0
CIRCLE
  5
F1
330
1F
100
AcDbEntity
  8
0
  6
Continuous
 62
     7
370
    25
100
AcDbCircle
 10
388.6138857143
 20
373.7050330612
 30
0.0
 40
70.00000000000006
  0
SPLINE
  5
F2
330
1F
100
AcDbEntity
  8
0
  6
Continuous
 62
     7
370
    25
100
AcDbSpline
210
0.0
220
0.0
230
1.0
 70
     8
 71
     3
 72
    15
 73
    11
 74
     0
 42
0.00000001
 43
0.00000001
 40
0.0
 40
0.0
 40
0.0
 40
0.0
 40
0.1250638917192723
 40
0.2500737150567455
 40
0.3750463337801978
 40
0.5000000004068829
 40
0.6249536670428688
 40
0.7499262857390447
 40
0.8749361104366905
 40
1.0
 40
1.0
 40
1.0
 40
1.0
 10
146.2861402701054
 20
458.696794221139
 30
0.0
 10
146.3556122600983
 20
459.8216472283308
 30
0.0
 10
146.4945262055313
 20
462.0708669394254
 30
0.0
 10
147.5296175511424
 20
465.3161423353889
 30
0.0
 10
149.1288728916219
 20
468.3093300663739
 30
0.0
 10
151.2916128472544
 20
470.9357090885077
 30
0.0
 10
153.9197562772677
 20
473.0998408739062
 30
0.0
 10
156.9178661057855
 20
474.7036607785479
 30
0.0
 10
160.1708287288016
 20
475.7461058773367
 30
0.0
 10
162.4273219950121
 20
475.8921070994345
 30
0.0
 10
163.5558125502058
 20
475.9651234929028
 30
0.0
  0
SPLINE
  5
F3
330
1F
100
AcDbEntity
  8
0
  6
Continuous
 62
     7
370
    25
100
AcDbSpline
210
0.0
220
0.0
230
1.0
 70
     8
 71
     3
 72
    15
 73
    11
 74
     0
 42
0.00000001
 43
0.00000001
 40
0.0
 40
0.0
 40
0.0
 40
0.0
 40
0.125063892738141
 40
0.2500737142733167
 40
0.3750463329455633
 40
0.4999999995557914
 40
0.6249536662082665
 40
0.7499262849556616
 40
0.874936111455603
 40
0.9999999999999999
 40
0.9999999999999999
 40
0.9999999999999999
 40
0.9999999999999999
 10
630.9416311584248
 20
458.69679419342
 30
0.0
 10
630.8721591673163
 20
459.8216472116264
 30
0.0
 10
630.7332452212198
 20
462.0708669193754
 30
0.0
 10
629.6981538760773
 20
465.3161423123997
 30
0.0
 10
628.0988985448486
 20
468.309330035319
 30
0.0
 10
625.9361585895285
 20
470.9357090641011
 30
0.0
 10
623.3080151577824
 20
473.09984085671
 30
0.0
 10
620.3099053116132
 20
474.7036607757274
 30
0.0
 10
617.0569426752472
 20
475.7461058783269
 30
0.0
 10
614.8004493984613
 20
475.8921071002414
 30
0.0
 10
613.6719588507078
 20
475.9651234927943
 30
0.0
  0
CIRCLE
  5
F4
330
1F
100
AcDbEntity
  8
0
  6
Continuous
 62
     7
370
    25
100
AcDbCircle
 10
388.6138857143
 20
373.7050330612
 30
0.0
 40
58.94765075494627
  0
CIRCLE
  5
F5
330
1F
100
AcDbEntity
  8
0
  6
Continuous
 62
     7
370
    25
100
AcDbCircle
 10
388.6138857143
 20
373.7050330612
 30
0.0
 40
57.49999999999994
  0
CIRCLE
  5
F6
330
1F
100
AcDbEntity
  8
0
  6
Continuous
 62
     7
370
    25
100
AcDbCircle
 10
388.6138857143
 20
373.7050330612
 30
0.0
 40
56.58715574274765
  0
CIRCLE
  5
F7
330
1F
100
AcDbEntity
  8
0
  6
Continuous
 62
     7
370
    25
100
AcDbCircle
 10
388.6138857143
 20
373.7050330612
 30
0.0
 40
45.0
  0
LINE
  5
F8
330
1F
100
AcDbEntity
  8
0
  6
Continuous
 62
     7
370
    25
100
AcDbLine
 10
656.6138857143
 20
103.7050330612
 30
0.0
 11
655.847760125
 21
103.7050330612
 31
0.0
  0
ARC
  5
F9
330
1F
100
AcDbEntity
  8
0
  6
Continuous
 62
     7
370
    25
100
AcDbCircle
 10
633.6138857143
 20
103.7050330612
 30
0.0
 40
23.0
100
AcDbArc
 50
270.0
 51
0.0
  0
LINE
  5
FA
330
1F
100
AcDbEntity
  8
0
  6
Continuous
 62
     7
370
    25
100
AcDbLine
 10
633.6138857143
 20
80.7050330612
 30
0.0
 11
633.6138857143
 21
81.4711586505
 31
0.0
  0
ARC
  5
FB
330
1F
100
AcDbEntity
  8
0
  6
Continuous
 62
     7
370
    25
100
AcDbCircle
 10
633.6138857143
 20
103.7050330612
 30
0.0
 40
22.23387441067948
100
AcDbArc
 50
270.0
 51
0.0
  0
LINE
  5
FC
330
1F
100
AcDbEntity
  8
0
  6
Continuous
 62
     7
370
    25
100
AcDbLine
 10
143.6138857143
 20
564.7050330612
 30
0.0
 11
143.6138857143
 21
563.9389074719
 31
0.0
  0
LINE
  5
FD
330
1F
100
AcDbEntity
  8
0
  6
Continuous
 62
     7
370
    25
100
AcDbLine
 10
633.6138857143
 20
564.7050330612
 30
0.0
 11
143.6138857143
 21
564.7050330612
 31
0.0
  0
LINE
  5
FE
330
1F
100
AcDbEntity
  8
0
  6
Continuous
 62
     7
370
    25
100
AcDbLine
 10
633.6138857143
 20
564.7050330612
 30
0.0
 11
633.6138857143
 21
563.9389074719
 31
0.0
  0
LINE
  5
FF
330
1F
100
AcDbEntity
  8
0
  6
Continuous
 62
     7
370
    25
100
AcDbLine
 10
633.6138857143
 20
563.9389074719
 30
0.0
 11
143.6138857143
 21
563.9389074719
 31
0.0
  0
LINE
  5
100
330
1F
100
AcDbEntity
  8
0
  6
Continuous
 62
     7
370
    25
100
AcDbLine
 10
143.6138857143
 20
80.7050330612
 30
0.0
 11
633.6138857143
 21
80.7050330612
 31
0.0
  0
LINE
  5
101
330
1F
100
AcDbEntity
  8
0
  6
Continuous
 62
     7
370
    25
100
AcDbLine
 10
143.6138857143
 20
80.7050330612
 30
0.0
 11
143.6138857143
 21
81.4711586505
 31
0.0
  0
LINE
  5
102
330
1F
100
AcDbEntity
  8
0
  6
Continuous
 62
     7
370
    25
100
AcDbLine
 10
143.6138857143
 20
81.4711586505
 30
0.0
 11
633.6138857143
 21
81.4711586505
 31
0.0
  0
ARC
  5
103
330
1F
100
AcDbEntity
  8
0
  6
Continuous
 62
     7
370
    25
100
AcDbCircle
 10
143.6138857143
 20
103.7050330612
 30
0.0
 40
22.99999999999999
100
AcDbArc
 50
180.0
 51
270.0
  0
LINE
  5
104
330
1F
100
AcDbEntity
  8
0
  6
Continuous
 62
     7
370
    25
100
AcDbLine
 10
120.6138857143
 20
103.7050330612
 30
0.0
 11
121.3800113036
 21
103.7050330612
 31
0.0
  0
ARC
  5
105
330
1F
100
AcDbEntity
  8
0
  6
Continuous
 62
     7
370
    25
100
AcDbCircle
 10
143.6138857143
 20
103.7050330612
 30
0.0
 40
22.2338744106795
100
AcDbArc
 50
180.0
 51
270.0
  0
LINE
  5
106
330
1F
100
AcDbEntity
  8
0
  6
Continuous
 62
     7
370
    25
100
AcDbLine
 10
656.6138857143
 20
541.7050330612
 30
0.0
 11
655.847760125
 21
541.7050330612
 31
0.0
  0
LINE
  5
107
330
1F
100
AcDbEntity
  8
0
  6
Continuous
 62
     7
370
    25
100
AcDbLine
 10
656.6138857143
 20
322.7050330612
 30
0.0
 11
656.6138857143
 21
541.7050330612
 31
0.0
  0
LINE
  5
108
330
1F
100
AcDbEntity
  8
0
  6
Continuous
 62
     7
370
    25
100
AcDbLine
 10
656.6138857143
 20
322.7050330612
 30
0.0
 11
655.847760125
 21
322.7050330612
 31
0.0
  0
LINE
  5
109
330
1F
100
AcDbEntity
  8
0
  6
Continuous
 62
     7
370
    25
100
AcDbLine
 10
655.847760125
 20
322.7050330612
 30
0.0
 11
655.847760125
 21
541.7050330612
 31
0.0
  0
LINE
  5
10A
330
1F
100
AcDbEntity
  8
0
  6
Continuous
 62
     7
370
    25
100
AcDbLine
 10
655.847760125
 20
103.7050330612
 30
0.0
 11
655.847760125
 21
322.7050330612
 31
0.0
  0
LINE
  5
10B
330
1F
100
AcDbEntity
  8
0
  6
Continuous
 62
     7
370
    25
100
AcDbLine
 10
656.6138857143
 20
103.7050330612
 30
0.0
 11
656.6138857143
 21
322.7050330612
 31
0.0
  0
LINE
  5
10C
330
1F
100
AcDbEntity
  8
0
  6
Continuous
 62
     7
370
    25
100
AcDbLine
 10
120.6138857143
 20
541.7050330612
 30
0.0
 11
120.6138857143
 21
103.7050330612
 31
0.0
  0
LINE
  5
10D
330
1F
100
AcDbEntity
  8
0
  6
Continuous
 62
     7
370
    25
100
AcDbLine
 10
120.6138857143
 20
541.7050330612
 30
0.0
 11
121.3800113036
 21
541.7050330612
 31
0.0
  0
LINE
  5
10E
330
1F
100
AcDbEntity
  8
0
  6
Continuous
 62
     7
370
    25
100
AcDbLine
 10
121.3800113036
 20
541.7050330612
 30
0.0
 11
121.3800113036
 21
103.7050330612
 31
0.0
  0
ARC
  5
10F
330
1F
100
AcDbEntity
  8
0
  6
Continuous
 62
     7
370
    25
100
AcDbCircle
 10
143.6138857143
 20
541.7050330612
 30
0.0
 40
23.0
100
AcDbArc
 50
90.0
 51
180.0
  0
ARC
  5
110
330
1F
100
AcDbEntity
  8
0
  6
Continuous
 62
     7
370
    25
100
AcDbCircle
 10
143.6138857143
 20
541.7050330612
 30
0.0
 40
22.2338744106795
100
AcDbArc
 50
90.0
 51
180.0
  0
ARC
  5
111
330
1F
100
AcDbEntity
  8
0
  6
Continuous
 62
     7
370
    25
100
AcDbCircle
 10
633.6138857143
 20
541.7050330612
 30
0.0
 40
23.00000000000011
100
AcDbArc
 50
0.0
 51
90.0
  0
ARC
  5
112
330
1F
100
AcDbEntity
  8
0
  6
Continuous
 62
     7
370
    25
100
AcDbCircle
 10
633.6138857143
 20
541.7050330612
 30
0.0
 40
22.23387441067962
100
AcDbArc
 50
0.0
 51
90.0
  0
ARC
  5
113
330
1F
100
AcDbEntity
  8
0
  6
Continuous
 62
     7
370
    25
100
AcDbCircle
 10
112.6138857143
 20
572.7050330612
 30
0.0
 40
10.0
100
AcDbArc
 50
90.0
 51
180.0
  0
LINE
  5
114
330
1F
100
AcDbEntity
  8
0
  6
Continuous
 62
     7
370
    25
100
AcDbLine
 10
664.6138857143
 20
582.7050330612
 30
0.0
 11
112.6138857143
 21
582.7050330612
 31
0.0
  0
ARC
  5
115
330
1F
100
AcDbEntity
  8
0
  6
Continuous
 62
     7
370
    25
100
AcDbCircle
 10
664.6138857143
 20
572.7050330612
 30
0.0
 40
10.0
100
AcDbArc
 50
0.0
 51
90.0
  0
LINE
  5
116
330
1F
100
AcDbEntity
  8
0
  6
Continuous
 62
     7
370
    25
100
AcDbLine
 10
674.6138857143
 20
72.7050330612
 30
0.0
 11
674.6138857143
 21
572.7050330612
 31
0.0
  0
ARC
  5
117
330
1F
100
AcDbEntity
  8
0
  6
Continuous
 62
     7
370
    25
100
AcDbCircle
 10
664.6138857143
 20
72.7050330612
 30
0.0
 40
10.00000000000001
100
AcDbArc
 50
270.0
 51
0.0
  0
ARC
  5
118
330
1F
100
AcDbEntity
  8
0
  6
Continuous
 62
     7
370
    25
100
AcDbCircle
 10
112.6138857143
 20
72.7050330612
 30
0.0
 40
10.00000000000001
100
AcDbArc
 50
180.0
 51
270.0
  0
LINE
  5
119
330
1F
100
AcDbEntity
  8
0
  6
Continuous
 62
     7
370
    25
100
AcDbLine
 10
102.6138857143
 20
572.7050330612
 30
0.0
 11
102.6138857143
 21
72.7050330612
 31
0.0
  0
LINE
  5
11A
330
1F
100
AcDbEntity
  8
0
  6
Continuous
 62
     7
370
    25
100
AcDbLine
 10
112.6138857143
 20
62.7050330612
 30
0.0
 11
664.6138857143
 21
62.7050330612
 31
0.0
  0
LINE
  5
11B
330
1F
100
AcDbEntity
  8
0
  6
Continuous
 62
     7
370
    25
100
AcDbLine
 10
633.6138857143
 20
563.9389074719
 30
0.0
 11
633.6138857143
 21
562.9812980443
 31
0.0
  0
LINE
  5
11C
330
1F
100
AcDbEntity
  8
0
  6
Continuous
 62
     7
370
    25
100
AcDbLine
 10
655.847760125
 20
541.7050330612
 30
0.0
 11
654.8901506974
 21
541.7050330612
 31
0.0
  0
ARC
  5
11D
330
1F
100
AcDbEntity
  8
0
  6
Continuous
 62
     7
370
    25
100
AcDbCircle
 10
633.6138857143
 20
541.7050330612
 30
0.0
 40
21.27626498307336
100
AcDbArc
 50
0.0
 51
90.0
  0
LINE
  5
11E
330
1F
100
AcDbEntity
  8
0
  6
Continuous
 62
     7
370
    25
100
AcDbLine
 10
655.847760125
 20
103.7050330612
 30
0.0
 11
654.8901506974
 21
103.7050330612
 31
0.0
  0
LINE
  5
11F
330
1F
100
AcDbEntity
  8
0
  6
Continuous
 62
     7
370
    25
100
AcDbLine
 10
654.8901506974
 20
103.7050330612
 30
0.0
 11
654.8901506974
 21
322.7050330612
 31
0.0
  0
LINE
  5
120
330
1F
100
AcDbEntity
  8
0
  6
Continuous
 62
     7
370
    25
100
AcDbLine
 10
655.847760125
 20
322.7050330612
 30
0.0
 11
654.8901506974
 21
322.7050330612
 31
0.0
  0
LINE
  5
121
330
1F
100
AcDbEntity
  8
0
  6
Continuous
 62
     7
370
    25
100
AcDbLine
 10
654.8901506974
 20
322.7050330612
 30
0.0
 11
654.8901506974
 21
541.7050330612
 31
0.0
  0
LINE
  5
122
330
1F
100
AcDbEntity
  8
0
  6
Continuous
 62
     7
370
    25
100
AcDbLine
 10
143.6138857143
 20
81.4711586505
 30
0.0
 11
143.6138857143
 21
82.4287680781
 31
0.0
  0
LINE
  5
123
330
1F
100
AcDbEntity
  8
0
  6
Continuous
 62
     7
370
    25
100
AcDbLine
 10
121.3800113036
 20
103.7050330612
 30
0.0
 11
122.3376207312
 21
103.7050330612
 31
0.0
  0
ARC
  5
124
330
1F
100
AcDbEntity
  8
0
  6
Continuous
 62
     7
370
    25
100
AcDbCircle
 10
143.6138857143
 20
103.7050330612
 30
0.0
 40
21.27626498307325
100
AcDbArc
 50
180.0
 51
270.0
  0
LINE
  5
125
330
1F
100
AcDbEntity
  8
0
  6
Continuous
 62
     7
370
    25
100
AcDbLine
 10
121.3800113036
 20
541.7050330612
 30
0.0
 11
122.3376207312
 21
541.7050330612
 31
0.0
  0
LINE
  5
126
330
1F
100
AcDbEntity
  8
0
  6
Continuous
 62
     7
370
    25
100
AcDbLine
 10
143.6138857143
 20
563.9389074719
 30
0.0
 11
143.6138857143
 21
562.9812980443
 31
0.0
  0
ARC
  5
127
330
1F
100
AcDbEntity
  8
0
  6
Continuous
 62
     7
370
    25
100
AcDbCircle
 10
143.6138857143
 20
541.7050330612
 30
0.0
 40
21.27626498307325
100
AcDbArc
 50
90.0
 51
180.0
  0
LINE
  5
128
330
1F
100
AcDbEntity
  8
0
  6
Continuous
 62
     7
370
    25
100
AcDbLine
 10
633.6138857143
 20
562.9812980443
 30
0.0
 11
143.6138857143
 21
562.9812980443
 31
0.0
  0
LINE
  5
129
330
1F
100
AcDbEntity
  8
0
  6
Continuous
 62
     7
370
    25
100
AcDbLine
 10
633.6138857143
 20
81.4711586505
 30
0.0
 11
633.6138857143
 21
82.4287680781
 31
0.0
  0
ARC
  5
12A
330
1F
100
AcDbEntity
  8
0
  6
Continuous
 62
     7
370
    25
100
AcDbCircle
 10
633.6138857143
 20
103.7050330612
 30
0.0
 40
21.27626498307322
100
AcDbArc
 50
270.0
 51
0.0
  0
LINE
  5
12B
330
1F
100
AcDbEntity
  8
0
  6
Continuous
 62
     7
370
    25
100
AcDbLine
 10
122.3376207312
 20
541.7050330612
 30
0.0
 11
122.3376207312
 21
103.7050330612
 31
0.0
  0
LINE
  5
12C
330
1F
100
AcDbEntity
  8
0
  6
Continuous
 62
     7
370
    25
100
AcDbLine
 10
143.6138857143
 20
82.4287680781
 30
0.0
 11
633.6138857143
 21
82.4287680781
 31
0.0
  0
LINE
  5
12D
330
1F
100
AcDbEntity
  8
0
  6
Continuous
 62
     7
370
    25
100
AcDbLine
 10
122.3376207312
 20
541.7050330612
 30
0.0
 11
127.7004998565
 21
541.7050330612
 31
0.0
  0
LINE
  5
12E
330
1F
100
AcDbEntity
  8
0
  6
Continuous
 62
     7
370
    25
100
AcDbLine
 10
143.6138857143
 20
562.9812980443
 30
0.0
 11
143.6138857143
 21
557.6184189191
 31
0.0
  0
ARC
  5
12F
330
1F
100
AcDbEntity
  8
0
  6
Continuous
 62
     7
370
    25
100
AcDbCircle
 10
143.6138857143
 20
541.7050330612
 30
0.0
 40
15.91338585783035
100
AcDbArc
 50
90.0
 51
180.0
  0
LINE
  5
130
330
1F
100
AcDbEntity
  8
0
  6
Continuous
 62
     7
370
    25
100
AcDbLine
 10
654.8901506974
 20
541.7050330612
 30
0.0
 11
649.5272715721
 21
541.7050330612
 31
0.0
  0
LINE
  5
131
330
1F
100
AcDbEntity
  8
0
  6
Continuous
 62
     7
370
    25
100
AcDbLine
 10
654.8901506974
 20
322.7050330612
 30
0.0
 11
649.5272715721
 21
322.7050330612
 31
0.0
  0
LINE
  5
132
330
1F
100
AcDbEntity
  8
0
  6
Continuous
 62
     7
370
    25
100
AcDbLine
 10
649.5272715721
 20
322.7050330612
 30
0.0
 11
649.5272715721
 21
541.7050330612
 31
0.0
  0
LINE
  5
133
330
1F
100
AcDbEntity
  8
0
  6
Continuous
 62
     7
370
    25
100
AcDbLine
 10
654.8901506974
 20
103.7050330612
 30
0.0
 11
649.5272715721
 21
103.7050330612
 31
0.0
  0
LINE
  5
134
330
1F
100
AcDbEntity
  8
0
  6
Continuous
 62
     7
370
    25
100
AcDbLine
 10
633.6138857143
 20
82.4287680781
 30
0.0
 11
633.6138857143
 21
87.7916472034
 31
0.0
  0
ARC
  5
135
330
1F
100
AcDbEntity
  8
0
  6
Continuous
 62
     7
370
    25
100
AcDbCircle
 10
633.6138857143
 20
103.7050330612
 30
0.0
 40
15.91338585783024
100
AcDbArc
 50
270.0
 51
0.0
  0
LINE
  5
136
330
1F
100
AcDbEntity
  8
0
  6
Continuous
 62
     7
370
    25
100
AcDbLine
 10
143.6138857143
 20
82.4287680781
 30
0.0
 11
143.6138857143
 21
87.7916472034
 31
0.0
  0
LINE
  5
137
330
1F
100
AcDbEntity
  8
0
  6
Continuous
 62
     7
370
    25
100
AcDbLine
 10
122.3376207312
 20
103.7050330612
 30
0.0
 11
127.7004998565
 21
103.7050330612
 31
0.0
  0
ARC
  5
138
330
1F
100
AcDbEntity
  8
0
  6
Continuous
 62
     7
370
    25
100
AcDbCircle
 10
143.6138857143
 20
103.7050330612
 30
0.0
 40
15.91338585783022
100
AcDbArc
 50
180.0
 51
270.0
  0
LINE
  5
139
330
1F
100
AcDbEntity
  8
0
  6
Continuous
 62
     7
370
    25
100
AcDbLine
 10
633.6138857143
 20
562.9812980443
 30
0.0
 11
633.6138857143
 21
557.6184189191
 31
0.0
  0
LINE
  5
13A
330
1F
100
AcDbEntity
  8
0
  6
Continuous
 62
     7
370
    25
100
AcDbLine
 10
633.6138857143
 20
557.6184189191
 30
0.0
 11
143.6138857143
 21
557.6184189191
 31
0.0
  0
ARC
  5
13B
330
1F
100
AcDbEntity
  8
0
  6
Continuous
 62
     7
370
    25
100
AcDbCircle
 10
633.6138857143
 20
541.7050330612
 30
0.0
 40
15.91338585783035
100
AcDbArc
 50
0.0
 51
90.0
  0
LINE
  5
13C
330
1F
100
AcDbEntity
  8
0
  6
Continuous
 62
     7
370
    25
100
AcDbLine
 10
127.7004998565
 20
541.7050330612
 30
0.0
 11
127.7004998565
 21
103.7050330612
 31
0.0
  0
LINE
  5
13D
330
1F
100
AcDbEntity
  8
0
  6
Continuous
 62
     7
370
    25
100
AcDbLine
 10
143.6138857143
 20
87.7916472034
 30
0.0
 11
633.6138857143
 21
87.7916472034
 31
0.0
  0
LINE
  5
13E
330
1F
100
AcDbEntity
  8
0
  6
Continuous
 62
     7
370
    25
100
AcDbLine
 10
649.5272715721
 20
103.7050330612
 30
0.0
 11
649.5272715721
 21
322.7050330612
 31
0.0
  0
ARC
  5
13F
330
1F
100
AcDbEntity
  8
0
  6
Continuous
 62
     7
370
    25
100
AcDbCircle
 10
164.1138857143
 20
458.2050330612
 30
0.0
 40
26.50000000000006
100
AcDbArc
 50
90.0
 51
180.0
  0
LINE
  5
140
330
1F
100
AcDbEntity
  8
0
  6
Continuous
 62
     7
370
    25
100
AcDbLine
 10
137.6138857143
 20
458.2050330612
 30
0.0
 11
132.6138857143
 21
458.2050330612
 31
0.0
  0
ARC
  5
141
330
1F
100
AcDbEntity
  8
0
  6
Continuous
 62
     7
370
    25
100
AcDbCircle
 10
164.1138857143
 20
458.2050330612
 30
0.0
 40
31.50000000000017
100
AcDbArc
 50
90.0
 51
180.0
  0
LINE
  5
142
330
1F
100
AcDbEntity
  8
0
  6
Continuous
 62
     7
370
    25
100
AcDbLine
 10
164.1138857143
 20
484.7050330612
 30
0.0
 11
164.1138857143
 21
489.7050330612
 31
0.0
  0
ARC
  5
143
330
1F
100
AcDbEntity
  8
0
  6
Continuous
 62
     7
370
    25
100
AcDbCircle
 10
164.1138857143
 20
124.2050330612
 30
0.0
 40
26.5
100
AcDbArc
 50
180.0
 51
270.0
  0
LINE
  5
144
330
1F
100
AcDbEntity
  8
0
  6
Continuous
 62
     7
370
    25
100
AcDbLine
 10
164.1138857143
 20
97.7050330612
 30
0.0
 11
164.1138857143
 21
92.7050330612
 31
0.0
  0
ARC
  5
145
330
1F
100
AcDbEntity
  8
0
  6
Continuous
 62
     7
370
    25
100
AcDbCircle
 10
164.1138857143
 20
124.2050330612
 30
0.0
 40
31.50000000000011
100
AcDbArc
 50
180.0
 51
270.0
  0
LINE
  5
146
330
1F
100
AcDbEntity
  8
0
  6
Continuous
 62
     7
370
    25
100
AcDbLine
 10
137.6138857143
 20
124.2050330612
 30
0.0
 11
132.6138857143
 21
124.2050330612
 31
0.0
  0
LINE
  5
147
330
1F
100
AcDbEntity
  8
0
  6
Continuous
 62
     7
370
    25
100
AcDbLine
 10
644.6138857143
 20
458.2050330612
 30
0.0
 11
644.6138857143
 21
124.2050330612
 31
0.0
  0
ARC
  5
148
330
1F
100
AcDbEntity
  8
0
  6
Continuous
 62
     7
370
    25
100
AcDbCircle
 10
613.1138857143
 20
458.2050330612
 30
0.0
 40
31.50000000000017
100
AcDbArc
 50
0.0
 51
90.0
  0
LINE
  5
149
330
1F
100
AcDbEntity
  8
0
  6
Continuous
 62
     7
370
    25
100
AcDbLine
 10
164.1138857143
 20
489.7050330612
 30
0.0
 11
613.1138857143
 21
489.7050330612
 31
0.0
  0
LINE
  5
14A
330
1F
100
AcDbEntity
  8
0
  6
Continuous
 62
     7
370
    25
100
AcDbLine
 10
132.6138857143
 20
124.2050330612
 30
0.0
 11
132.6138857143
 21
458.2050330612
 31
0.0
  0
LINE
  5
14B
330
1F
100
AcDbEntity
  8
0
  6
Continuous
 62
     7
370
    25
100
AcDbLine
 10
613.1138857143
 20
92.7050330612
 30
0.0
 11
164.1138857143
 21
92.7050330612
 31
0.0
  0
ARC
  5
14C
330
1F
100
AcDbEntity
  8
0
  6
Continuous
 62
     7
370
    25
100
AcDbCircle
 10
613.1138857143
 20
124.2050330612
 30
0.0
 40
31.5000000000002
100
AcDbArc
 50
270.0
 51
0.0
  0
CIRCLE
  5
14D
330
1F
100
AcDbEntity
  8
0
  6
Continuous
 62
     7
370
    25
100
AcDbCircle
 10
388.6138857143
 20
526.7050330612
 30
0.0
 40
17.50000000000006
  0
LINE
  5
14E
330
1F
100
AcDbEntity
  8
0
  6
Continuous
 62
     7
370
    25
100
AcDbLine
 10
613.1138857143
 20
92.7050330612
 30
0.0
 11
613.1138857143
 21
97.7050330612
 31
0.0
  0
ARC
  5
14F
330
1F
100
AcDbEntity
  8
0
  6
Continuous
 62
     7
370
    25
100
AcDbCircle
 10
613.1138857143
 20
124.2050330612
 30
0.0
 40
26.49999999999997
100
AcDbArc
 50
270.0
 51
0.0
  0
LINE
  5
150
330
1F
100
AcDbEntity
  8
0
  6
Continuous
 62
     7
370
    25
100
AcDbLine
 10
644.6138857143
 20
124.2050330612
 30
0.0
 11
639.6138857143
 21
124.2050330612
 31
0.0
  0
LINE
  5
151
330
1F
100
AcDbEntity
  8
0
  6
Continuous
 62
     7
370
    25
100
AcDbLine
 10
164.1138857143
 20
97.7050330612
 30
0.0
 11
613.1138857143
 21
97.7050330612
 31
0.0
  0
LINE
  5
152
330
1F
100
AcDbEntity
  8
0
  6
Continuous
 62
     7
370
    25
100
AcDbLine
 10
644.6138857143
 20
458.2050330612
 30
0.0
 11
639.6138857143
 21
458.2050330612
 31
0.0
  0
ARC
  5
153
330
1F
100
AcDbEntity
  8
0
  6
Continuous
 62
     7
370
    25
100
AcDbCircle
 10
613.1138857143
 20
458.2050330612
 30
0.0
 40
26.50000000000006
100
AcDbArc
 50
0.0
 51
90.0
  0
LINE
  5
154
330
1F
100
AcDbEntity
  8
0
  6
Continuous
 62
     7
370
    25
100
AcDbLine
 10
613.1138857143
 20
489.7050330612
 30
0.0
 11
613.1138857143
 21
484.7050330612
 31
0.0
  0
LINE
  5
155
330
1F
100
AcDbEntity
  8
0
  6
Continuous
 62
     7
370
    25
100
AcDbLine
 10
137.6138857143
 20
458.2050330612
 30
0.0
 11
137.6138857143
 21
124.2050330612
 31
0.0
  0
LINE
  5
156
330
1F
100
AcDbEntity
  8
0
  6
Continuous
 62
     7
370
    25
100
AcDbLine
 10
639.6138857143
 20
124.2050330612
 30
0.0
 11
639.6138857143
 21
458.2050330612
 31
0.0
  0
LINE
  5
157
330
1F
100
AcDbEntity
  8
0
  6
Continuous
 62
     7
370
    25
100
AcDbLine
 10
613.1138857143
 20
484.7050330612
 30
0.0
 11
164.1138857143
 21
484.7050330612
 31
0.0
  0
ARC
  5
158
330
1F
100
AcDbEntity
  8
0
  6
Continuous
 62
     8
370
    25
100
AcDbCircle
 10
370.0132403354
 20
481.5769135469
 30
0.0
 40
0.9994828805510105
100
AcDbArc
 50
188.2089355861
 51
270.0353806424
  0
LINE
  5
159
330
1F
100
AcDbEntity
  8
0
  6
Continuous
 62
     8
370
    25
100
AcDbLine
 10
370.5138575247
 20
480.6035988351
 30
0.0
 11
370.5138575247
 21
481.43420409
 31
0.0
  0
LINE
  5
15A
330
1F
100
AcDbEntity
  8
0
  6
Continuous
 62
     8
370
    25
100
AcDbLine
 10
406.7138575247
 20
480.6035988351
 30
0.0
 11
406.7138575247
 21
481.43420409
 31
0.0
  0
ARC
  5
15B
330
1F
100
AcDbEntity
  8
0
  6
Continuous
 62
     8
370
    25
100
AcDbCircle
 10
407.2144747141
 20
481.5769135469
 30
0.0
 40
0.9994828805509137
100
AcDbArc
 50
269.9646193576
 51
351.7910644139
  0
ARC
  5
15C
330
1F
100
AcDbEntity
  8
0
  6
Continuous
 62
     8
370
    25
100
AcDbCircle
 10
407.2142136901
 20
480.9493915037
 30
0.0
 40
0.999992185055728
100
AcDbArc
 50
269.9795930665
 51
337.436386386
  0
ARC
  5
15D
330
1F
100
AcDbEntity
  8
0
  6
Continuous
 62
     8
370
    25
100
AcDbCircle
 10
370.0133656906
 20
480.949187952
 30
0.0
 40
0.9997886909157534
100
AcDbArc
 50
202.5330836934
 51
270.0281859781
  0
LINE
  5
15E
330
1F
100
AcDbEntity
  8
0
  6
Continuous
 62
     8
370
    25
100
AcDbLine
 10
406.7138575247
 20
479.9218609387
 30
0.0
 11
406.7138575247
 21
479.9232314039
 31
0.0
  0
LINE
  5
15F
330
1F
100
AcDbEntity
  8
0
  6
Continuous
 62
     8
370
    25
100
AcDbLine
 10
370.5138575247
 20
479.9218609387
 30
0.0
 11
370.5138575247
 21
479.9232314039
 31
0.0
  0
LINE
  5
160
330
1F
100
AcDbEntity
  8
0
  6
Continuous
 62
     8
370
    25
100
AcDbLine
 10
363.1138575247
 20
482.1911892256
 30
0.0
 11
363.1138575247
 21
481.6019978001
 31
0.0
  0
LINE
  5
161
330
1F
100
AcDbEntity
  8
0
  6
Continuous
 62
     8
370
    25
100
AcDbLine
 10
414.1138575247
 20
482.1911892256
 30
0.0
 11
414.1138575247
 21
481.6019978001
 31
0.0
  0
LINE
  5
162
330
1F
100
AcDbEntity
  8
0
  6
Continuous
 62
     8
370
    25
100
AcDbLine
 10
409.3069867621
 20
480.1977941714
 30
0.0
 11
407.5500684703
 21
480.1977941714
 31
0.0
  0
LINE
  5
163
330
1F
100
AcDbEntity
  8
0
  6
Continuous
 62
     8
370
    25
100
AcDbLine
 10
369.6776465791
 20
480.1977941714
 30
0.0
 11
367.9207282873
 21
480.1977941714
 31
0.0
  0
LINE
  5
164
330
1F
100
AcDbEntity
  8
0
  6
Continuous
 62
     8
370
    25
100
AcDbLine
 10
409.3069867621
 20
481.43420409
 30
0.0
 11
409.3069867621
 21
481.4361227414
 31
0.0
  0
LWPOLYLINE
  5
165
330
1F
100
AcDbEntity
  8
0
  6
Continuous
 62
     8
370
    25
100
AcDbPolyline
 90
        3
 70
   128
 43
0.0
 10
411.633069208
 20
481.3858090435
 10
411.4549023164
 20
481.3993137101
 10
411.4331418188
 20
481.4041540185
  0
LINE
  5
166
330
1F
100
AcDbEntity
  8
0
  6
Continuous
 62
     8
370
    25
100
AcDbLine
 10
367.9207282873
 20
481.43420409
 30
0.0
 11
367.9207282873
 21
481.4361227414
 31
0.0
  0
LWPOLYLINE
  5
167
330
1F
100
AcDbEntity
  8
0
  6
Continuous
 62
     8
370
    25
100
AcDbPolyline
 90
        3
 70
   128
 43
0.0
 10
365.5946458415
 20
481.3858090435
 10
365.7728127331
 20
481.3993137101
 10
365.7945732306
 20
481.4041540185
  0
LWPOLYLINE
  5
168
330
1F
100
AcDbEntity
  8
0
  6
Continuous
 62
     8
370
    25
100
AcDbPolyline
 90
        3
 70
   128
 43
0.0
 10
364.6332857836
 20
481.2640712944
 10
364.891418091
 20
481.2880414107
 10
365.0291859903
 20
481.3211366869
  0
LWPOLYLINE
  5
169
330
1F
100
AcDbEntity
  8
0
  6
Continuous
 62
     8
370
    25
100
AcDbPolyline
 90
        3
 70
   128
 43
0.0
 10
412.157572077
 20
481.3338793329
 10
412.3362969585
 20
481.2880414107
 10
412.5944292658
 20
481.2640712944
  0
ARC
  5
16A
330
1F
100
AcDbEntity
  8
0
  6
Continuous
 62
     8
370
    25
100
AcDbCircle
 10
412.5939014082
 20
481.7696674224
 30
0.0
 40
1.399821903443697
100
AcDbArc
 50
195.6820979174
 51
270.0216056174
  0
ARC
  5
16B
330
1F
100
AcDbEntity
  8
0
  6
Continuous
 62
     8
370
    25
100
AcDbCircle
 10
364.6340129011
 20
481.7694019073
 30
0.0
 40
1.39955647768639
100
AcDbArc
 50
269.9702328807
 51
344.4939258484
  0
ARC
  5
16C
330
1F
100
AcDbEntity
  8
0
  6
Continuous
 62
     8
370
    25
100
AcDbCircle
 10
365.3227242646
 20
481.4620601755
 30
0.0
 40
1.244034382824589
100
AcDbArc
 50
282.6256688066
 51
358.5135793326
  0
ARC
  5
16D
330
1F
100
AcDbEntity
  8
0
  6
Continuous
 62
     8
370
    25
100
AcDbCircle
 10
411.9049907848
 20
481.4620601755
 30
0.0
 40
1.244034382824706
100
AcDbArc
 50
181.4864206674
 51
257.3743311934
  0
LINE
  5
16E
330
1F
100
AcDbEntity
  8
0
  6
Continuous
 62
     8
370
    25
100
AcDbLine
 10
409.3069867621
 20
480.1977941714
 30
0.0
 11
409.3069867621
 21
481.43420409
 31
0.0
  0
LINE
  5
16F
330
1F
100
AcDbEntity
  8
0
  6
Continuous
 62
     8
370
    25
100
AcDbLine
 10
367.9207282873
 20
480.1977941714
 30
0.0
 11
367.9207282873
 21
481.43420409
 31
0.0
  0
LINE
  5
170
330
1F
100
AcDbEntity
  8
0
  6
Continuous
 62
     8
370
    25
100
AcDbLine
 10
639.6091683133
 20
123.7050330612
 30
0.0
 11
638.5393882622
 21
123.7050330612
 31
0.0
  0
LINE
  5
171
330
1F
100
AcDbEntity
  8
0
  6
Continuous
 62
     8
370
    25
100
AcDbLine
 10
639.6091683133
 20
458.7050330612
 30
0.0
 11
638.5393882622
 21
458.7050330612
 31
0.0
  0
LINE
  5
172
330
1F
100
AcDbEntity
  8
0
  6
Continuous
 62
     8
370
    25
100
AcDbLine
 10
613.6138857143
 20
484.7003156602
 30
0.0
 11
613.6138857143
 21
483.6305356092
 31
0.0
  0
LINE
  5
173
330
1F
100
AcDbEntity
  8
0
  6
Continuous
 62
     8
370
    25
100
AcDbLine
 10
138.6883831663
 20
123.7050330612
 30
0.0
 11
137.6186031153
 21
123.7050330612
 31
0.0
  0
LINE
  5
174
330
1F
100
AcDbEntity
  8
0
  6
Continuous
 62
     8
370
    25
100
AcDbLine
 10
138.6883831663
 20
458.7050330612
 30
0.0
 11
137.6186031153
 21
458.7050330612
 31
0.0
  0
LINE
  5
175
330
1F
100
AcDbEntity
  8
0
  6
Continuous
 62
     8
370
    25
100
AcDbLine
 10
613.6138857143
 20
98.7795305133
 30
0.0
 11
613.6138857143
 21
97.7097504622
 31
0.0
  0
LINE
  5
176
330
1F
100
AcDbEntity
  8
0
  6
Continuous
 62
     8
370
    25
100
AcDbLine
 10
163.6138857143
 20
98.7795305133
 30
0.0
 11
163.6138857143
 21
97.7097504622
 31
0.0
  0
LINE
  5
177
330
1F
100
AcDbEntity
  8
0
  6
Continuous
 62
     8
370
    25
100
AcDbLine
 10
163.6138857143
 20
484.7003156602
 30
0.0
 11
163.6138857143
 21
483.6305356092
 31
0.0
  0
ENDSEC
  0
SECTION
  2
OBJECTS
  0
DICTIONARY
  5
C
330
0
100
AcDbDictionary
281
     1
  3
ACAD_GROUP
350
D
  3
ACAD_LAYOUT
350
1A
  3
ACAD_MLINESTYLE
350
17
  3
ACAD_PLOTSETTINGS
350
19
  3
ACAD_PLOTSTYLENAME
350
E
  3
ACAD_SCALELIST
350
47
  3
DWGPROPS
350
178
  0
DICTIONARY
  5
D
102
{ACAD_REACTORS
330
C
102
}
330
C
100
AcDbDictionary
281
     1
  0
DICTIONARY
  5
1A
102
{ACAD_REACTORS
330
C
102
}
330
C
100
AcDbDictionary
281
     1
  3
Layout1
350
1E
  3
Layout2
350
26
  3
Model
350
22
  0
DICTIONARY
  5
17
102
{ACAD_REACTORS
330
C
102
}
330
C
100
AcDbDictionary
281
     1
  3
Standard
350
18
  0
DICTIONARY
  5
19
102
{ACAD_REACTORS
330
C
102
}
330
C
100
AcDbDictionary
281
     1
  0
ACDBDICTIONARYWDFLT
  5
E
102
{ACAD_REACTORS
330
C
102
}
330
C
100
AcDbDictionary
281
     1
  3
Normal
350
F
100
AcDbDictionaryWithDefault
340
F
  0
DICTIONARY
  5
47
102
{ACAD_REACTORS
330
C
102
}
330
C
100
AcDbDictionary
281
     1
  3
A0
350
48
  3
A1
350
49
  3
A2
350
4A
  3
A3
350
4B
  3
A4
350
4C
  3
A5
350
4D
  3
A6
350
4E
  3
A7
350
4F
  3
A8
350
50
  3
A9
350
51
  3
B0
350
52
  3
B1
350
53
  3
B2
350
54
  3
B3
350
55
  3
B4
350
56
  3
B5
350
57
  3
B6
350
58
  3
B7
350
59
  3
B8
350
5A
  3
B9
350
5B
  3
C0
350
5C
  3
C1
350
5D
  3
C2
350
5E
  3
C3
350
5F
  3
C4
350
60
  3
C5
350
61
  3
C6
350
62
  3
C7
350
63
  3
C8
350
64
  3
C9
350
65
  3
D0
350
66
  3
D1
350
67
  3
D2
350
68
  0
XRECORD
  5
178
102
{ACAD_REACTORS
330
C
102
}
330
C
100
AcDbXrecord
280
     1
  1
DWGPROPS COOKIE
  2

  3

  4

  6

  7

  8
KalleMourujärvi
  9

300
=
301
=
302
=
303
=
304
=
305
=
306
=
307
=
308
=
309
=
 40
0.0
 41
2460130.427223843
 42
2460130.427224213
  1

 90
        0
  0
LAYOUT
  5
1E
102
{ACAD_REACTORS
330
1A
102
}
330
1A
100
AcDbPlotSettings
  1

  2
none_device
  4

  6

 40
0.0
 41
0.0
 42
0.0
 43
0.0
 44
0.0
 45
0.0
 46
0.0
 47
0.0
 48
0.0
 49
0.0
140
0.0
141
0.0
142
1.0
143
1.0
 70
   688
 72
     1
 73
     0
 74
     5
  7

 75
    16
147
1.0
148
0.0
149
0.0
100
AcDbLayout
  1
Layout1
 70
     1
 71
     1
 10
0.0
 20
0.0
 11
420.0
 21
297.0
 12
0.0
 22
0.0
 32
0.0
 14
1.0000000000E+20
 24
1.0000000000E+20
 34
1.0000000000E+20
 15
-1.0000000000E+20
 25
-1.0000000000E+20
 35
-1.0000000000E+20
146
0.0
 13
0.0
 23
0.0
 33
0.0
 16
1.0
 26
0.0
 36
0.0
 17
0.0
 27
1.0
 37
0.0
 76
     0
330
1B
  0
LAYOUT
  5
26
102
{ACAD_REACTORS
330
1A
102
}
330
1A
100
AcDbPlotSettings
  1

  2
none_device
  4

  6

 40
0.0
 41
0.0
 42
0.0
 43
0.0
 44
0.0
 45
0.0
 46
0.0
 47
0.0
 48
0.0
 49
0.0
140
0.0
141
0.0
142
1.0
143
1.0
 70
   688
 72
     1
 73
     0
 74
     5
  7

 75
    16
147
1.0
148
0.0
149
0.0
100
AcDbLayout
  1
Layout2
 70
     1
 71
     2
 10
0.0
 20
0.0
 11
0.0
 21
0.0
 12
0.0
 22
0.0
 32
0.0
 14
0.0
 24
0.0
 34
0.0
 15
0.0
 25
0.0
 35
0.0
146
0.0
 13
0.0
 23
0.0
 33
0.0
 16
1.0
 26
0.0
 36
0.0
 17
0.0
 27
1.0
 37
0.0
 76
     0
330
23
  0
LAYOUT
  5
22
102
{ACAD_REACTORS
330
1A
102
}
330
1A
100
AcDbPlotSettings
  1

  2
none_device
  4
Letter_(8.50_x_11.00_Inches)
  6

 40
6.35
 41
6.35
 42
6.35000508
 43
6.35000508
 44
215.9
 45
279.4
 46
0.0
 47
0.0
 48
0.0
 49
0.0
140
0.0
141
0.0
142
1.0
143
1.0
 70
  1712
 72
     1
 73
     0
 74
     0
  7

 75
     0
147
1.0
148
0.0
149
0.0
100
AcDbLayout
  1
Model
 70
     1
 71
     0
 10
0.0
 20
0.0
 11
800.0
 21
650.0
 12
0.0
 22
0.0
 32
0.0
 14
0.0
 24
0.0
 34
0.0
 15
800.0
 25
650.0
 35
0.0
146
0.0
 13
0.0
 23
0.0
 33
0.0
 16
1.0
 26
0.0
 36
0.0
 17
0.0
 27
1.0
 37
0.0
 76
     0
330
1F
331
29
  0
MLINESTYLE
  5
18
102
{ACAD_REACTORS
330
17
102
}
330
17
100
AcDbMlineStyle
  2
Standard
 70
     0
  3

 62
   256
 51
90.0
 52
90.0
 71
     2
 49
0.5
 62
   256
  6
BYLAYER
 49
-0.5
 62
   256
  6
BYLAYER
  0
ACDBPLACEHOLDER
  5
F
102
{ACAD_REACTORS
330
E
102
}
330
E
  0
SCALE
  5
48
102
{ACAD_REACTORS
330
47
102
}
330
47
100
AcDbScale
 70
     0
300
1:1
140
1.0
141
1.0
290
     1
  0
SCALE
  5
49
102
{ACAD_REACTORS
330
47
102
}
330
47
100
AcDbScale
 70
     0
300
1:2
140
1.0
141
2.0
290
     0
  0
SCALE
  5
4A
102
{ACAD_REACTORS
330
47
102
}
330
47
100
AcDbScale
 70
     0
300
1:4
140
1.0
141
4.0
290
     0
  0
SCALE
  5
4B
102
{ACAD_REACTORS
330
47
102
}
330
47
100
AcDbScale
 70
     0
300
1:5
140
1.0
141
5.0
290
     0
  0
SCALE
  5
4C
102
{ACAD_REACTORS
330
47
102
}
330
47
100
AcDbScale
 70
     0
300
1:8
140
1.0
141
8.0
290
     0
  0
SCALE
  5
4D
102
{ACAD_REACTORS
330
47
102
}
330
47
100
AcDbScale
 70
     0
300
1:10
140
1.0
141
10.0
290
     0
  0
SCALE
  5
4E
102
{ACAD_REACTORS
330
47
102
}
330
47
100
AcDbScale
 70
     0
300
1:16
140
1.0
141
16.0
290
     0
  0
SCALE
  5
4F
102
{ACAD_REACTORS
330
47
102
}
330
47
100
AcDbScale
 70
     0
300
1:20
140
1.0
141
20.0
290
     0
  0
SCALE
  5
50
102
{ACAD_REACTORS
330
47
102
}
330
47
100
AcDbScale
 70
     0
300
1:30
140
1.0
141
30.0
290
     0
  0
SCALE
  5
51
102
{ACAD_REACTORS
330
47
102
}
330
47
100
AcDbScale
 70
     0
300
1:40
140
1.0
141
40.0
290
     0
  0
SCALE
  5
52
102
{ACAD_REACTORS
330
47
102
}
330
47
100
AcDbScale
 70
     0
300
1:50
140
1.0
141
50.0
290
     0
  0
SCALE
  5
53
102
{ACAD_REACTORS
330
47
102
}
330
47
100
AcDbScale
 70
     0
300
1:100
140
1.0
141
100.0
290
     0
  0
SCALE
  5
54
102
{ACAD_REACTORS
330
47
102
}
330
47
100
AcDbScale
 70
     0
300
2:1
140
2.0
141
1.0
290
     0
  0
SCALE
  5
55
102
{ACAD_REACTORS
330
47
102
}
330
47
100
AcDbScale
 70
     0
300
4:1
140
4.0
141
1.0
290
     0
  0
SCALE
  5
56
102
{ACAD_REACTORS
330
47
102
}
330
47
100
AcDbScale
 70
     0
300
8:1
140
8.0
141
1.0
290
     0
  0
SCALE
  5
57
102
{ACAD_REACTORS
330
47
102
}
330
47
100
AcDbScale
 70
     0
300
10:1
140
10.0
141
1.0
290
     0
  0
SCALE
  5
58
102
{ACAD_REACTORS
330
47
102
}
330
47
100
AcDbScale
 70
     0
300
100:1
140
100.0
141
1.0
290
     0
  0
SCALE
  5
59
102
{ACAD_REACTORS
330
47
102
}
330
47
100
AcDbScale
 70
     0
300
1/128" = 1'-0"
140
0.0078125
141
12.0
290
     0
  0
SCALE
  5
5A
102
{ACAD_REACTORS
330
47
102
}
330
47
100
AcDbScale
 70
     0
300
1/64" = 1'-0"
140
0.015625
141
12.0
290
     0
  0
SCALE
  5
5B
102
{ACAD_REACTORS
330
47
102
}
330
47
100
AcDbScale
 70
     0
300
1/32" = 1'-0"
140
0.03125
141
12.0
290
     0
  0
SCALE
  5
5C
102
{ACAD_REACTORS
330
47
102
}
330
47
100
AcDbScale
 70
     0
300
1/16" = 1'-0"
140
0.0625
141
12.0
290
     0
  0
SCALE
  5
5D
102
{ACAD_REACTORS
330
47
102
}
330
47
100
AcDbScale
 70
     0
300
3/32" = 1'-0"
140
0.09375
141
12.0
290
     0
  0
SCALE
  5
5E
102
{ACAD_REACTORS
330
47
102
}
330
47
100
AcDbScale
 70
     0
300
1/8" = 1'-0"
140
0.125
141
12.0
290
     0
  0
SCALE
  5
5F
102
{ACAD_REACTORS
330
47
102
}
330
47
100
AcDbScale
 70
     0
300
3/16" = 1'-0"
140
0.1875
141
12.0
290
     0
  0
SCALE
  5
60
102
{ACAD_REACTORS
330
47
102
}
330
47
100
AcDbScale
 70
     0
300
1/4" = 1'-0"
140
0.25
141
12.0
290
     0
  0
SCALE
  5
61
102
{ACAD_REACTORS
330
47
102
}
330
47
100
AcDbScale
 70
     0
300
3/8" = 1'-0"
140
0.375
141
12.0
290
     0
  0
SCALE
  5
62
102
{ACAD_REACTORS
330
47
102
}
330
47
100
AcDbScale
 70
     0
300
1/2" = 1'-0"
140
0.5
141
12.0
290
     0
  0
SCALE
  5
63
102
{ACAD_REACTORS
330
47
102
}
330
47
100
AcDbScale
 70
     0
300
3/4" = 1'-0"
140
0.75
141
12.0
290
     0
  0
SCALE
  5
64
102
{ACAD_REACTORS
330
47
102
}
330
47
100
AcDbScale
 70
     0
300
1" = 1'-0"
140
1.0
141
12.0
290
     0
  0
SCALE
  5
65
102
{ACAD_REACTORS
330
47
102
}
330
47
100
AcDbScale
 70
     0
300
1-1/2" = 1'-0"
140
1.5
141
12.0
290
     0
  0
SCALE
  5
66
102
{ACAD_REACTORS
330
47
102
}
330
47
100
AcDbScale
 70
     0
300
3" = 1'-0"
140
3.0
141
12.0
290
     0
  0
SCALE
  5
67
102
{ACAD_REACTORS
330
47
102
}
330
47
100
AcDbScale
 70
     0
300
6" = 1'-0"
140
6.0
141
12.0
290
     0
  0
SCALE
  5
68
102
{ACAD_REACTORS
330
47
102
}
330
47
100
AcDbScale
 70
     0
300
1'-0" = 1'-0"
140
12.0
141
12.0
290
     0
  0
ENDSEC
  0
EOF
