  0
SECTION
  2
HEADER
  9
$ACADVER
  1
AC1015
  9
$ACADMAINTVER
 70
     6
  9
$DWGCODEPAGE
  3
ANSI_1252
  9
$INSBASE
 10
0.0
 20
0.0
 30
0.0
  9
$EXTMIN
 10
0.0
 20
0.0
 30
0.0
  9
$EXTMAX
 10
1050.0
 20
650.0
 30
0.0
  9
$LIMMIN
 10
0.0
 20
0.0
  9
$LIMMAX
 10
1050.0
 20
650.0
  9
$ORTHOMODE
 70
     0
  9
$REGENMODE
 70
     1
  9
$FILLMODE
 70
     1
  9
$QTEXTMODE
 70
     0
  9
$MIRRTEXT
 70
     1
  9
$LTSCALE
 40
1.0
  9
$ATTMODE
 70
     1
  9
$TEXTSIZE
 40
3.5
  9
$TRACEWID
 40
1.0
  9
$TEXTSTYLE
  7
Standard
  9
$CLAYER
  8
0
  9
$CELTYPE
  6
ByLayer
  9
$CECOLOR
 62
   256
  9
$CELTSCALE
 40
1.0
  9
$DISPSILH
 70
     0
  9
$DIMSCALE
 40
1.0
  9
$DIMASZ
 40
3.302
  9
$DIMEXO
 40
1.0
  9
$DIMDLI
 40
3.75
  9
$DIMRND
 40
0.0
  9
$DIMDLE
 40
0.0
  9
$DIMEXE
 40
1.0
  9
$DIMTP
 40
0.0
  9
$DIMTM
 40
0.0
  9
$DIMTXT
 40
3.5
  9
$DIMCEN
 40
2.5
  9
$DIMTSZ
 40
0.0
  9
$DIMTOL
 70
     0
  9
$DIMLIM
 70
     0
  9
$DIMTIH
 70
     1
  9
$DIMTOH
 70
     1
  9
$DIMSE1
 70
     0
  9
$DIMSE2
 70
     0
  9
$DIMTAD
 70
     1
  9
$DIMZIN
 70
     1
  9
$DIMBLK
  1

  9
$DIMASO
 70
     1
  9
$DIMSHO
 70
     1
  9
$DIMPOST
  1

  9
$DIMAPOST
  1

  9
$DIMALT
 70
     0
  9
$DIMALTD
 70
     3
  9
$DIMALTF
 40
0.0393700787
  9
$DIMLFAC
 40
1.0
  9
$DIMTOFL
 70
     1
  9
$DIMTVP
 40
0.0
  9
$DIMTIX
 70
     0
  9
$DIMSOXD
 70
     0
  9
$DIMSAH
 70
     0
  9
$DIMBLK1
  1

  9
$DIMBLK2
  1

  9
$DIMSTYLE
  2
ISO-25
  9
$DIMCLRD
 70
     0
  9
$DIMCLRE
 70
     0
  9
$DIMCLRT
 70
     0
  9
$DIMTFAC
 40
1.0
  9
$DIMGAP
 40
1.524
  9
$DIMJUST
 70
     0
  9
$DIMSD1
 70
     0
  9
$DIMSD2
 70
     0
  9
$DIMTOLJ
 70
     0
  9
$DIMTZIN
 70
     1
  9
$DIMALTZ
 70
     0
  9
$DIMALTTZ
 70
     0
  9
$DIMUPT
 70
     0
  9
$DIMDEC
 70
     2
  9
$DIMTDEC
 70
     2
  9
$DIMALTU
 70
     2
  9
$DIMALTTD
 70
     3
  9
$DIMTXSTY
  7
Standard
  9
$DIMAUNIT
 70
     0
  9
$DIMADEC
 70
     2
  9
$DIMALTRND
 40
0.0
  9
$DIMAZIN
 70
     0
  9
$DIMDSEP
 70
    44
  9
$DIMATFIT
 70
     3
  9
$DIMFRAC
 70
     0
  9
$DIMLDRBLK
  1

  9
$DIMLUNIT
 70
     2
  9
$DIMLWD
 70
    -2
  9
$DIMLWE
 70
    -2
  9
$DIMTMOVE
 70
     0
  9
$LUNITS
 70
     2
  9
$LUPREC
 70
     1
  9
$SKETCHINC
 40
1.0
  9
$FILLETRAD
 40
10.0
  9
$AUNITS
 70
     0
  9
$AUPREC
 70
     1
  9
$MENU
  1
.
  9
$ELEVATION
 40
0.0
  9
$PELEVATION
 40
0.0
  9
$THICKNESS
 40
0.0
  9
$LIMCHECK
 70
     0
  9
$CHAMFERA
 40
0.0
  9
$CHAMFERB
 40
0.0
  9
$CHAMFERC
 40
0.0
  9
$CHAMFERD
 40
0.0
  9
$SKPOLY
 70
     0
  9
$TDCREATE
 40
2460130.531269711
  9
$TDUCREATE
 40
2460130.406269711
  9
$TDUPDATE
 40
2460130.531270208
  9
$TDUUPDATE
 40
2460130.406270208
  9
$TDINDWG
 40
0.0000000116
  9
$TDUSRTIMER
 40
0.0000000116
  9
$USRTIMER
 70
     1
  9
$ANGBASE
 50
0.0
  9
$ANGDIR
 70
     0
  9
$PDMODE
 70
     0
  9
$PDSIZE
 40
-1.0
  9
$PLINEWID
 40
0.0
  9
$SPLFRAME
 70
     0
  9
$SPLINETYPE
 70
     6
  9
$SPLINESEGS
 70
     8
  9
$HANDSEED
  5
1AD
  9
$SURFTAB1
 70
     6
  9
$SURFTAB2
 70
     6
  9
$SURFTYPE
 70
     6
  9
$SURFU
 70
     6
  9
$SURFV
 70
     6
  9
$UCSBASE
  2

  9
$UCSNAME
  2

  9
$UCSORG
 10
0.0
 20
0.0
 30
0.0
  9
$UCSXDIR
 10
1.0
 20
0.0
 30
0.0
  9
$UCSYDIR
 10
0.0
 20
1.0
 30
0.0
  9
$UCSORTHOREF
  2

  9
$UCSORTHOVIEW
 70
     0
  9
$UCSORGTOP
 10
0.0
 20
0.0
 30
0.0
  9
$UCSORGBOTTOM
 10
0.0
 20
0.0
 30
0.0
  9
$UCSORGLEFT
 10
0.0
 20
0.0
 30
0.0
  9
$UCSORGRIGHT
 10
0.0
 20
0.0
 30
0.0
  9
$UCSORGFRONT
 10
0.0
 20
0.0
 30
0.0
  9
$UCSORGBACK
 10
0.0
 20
0.0
 30
0.0
  9
$PUCSBASE
  2

  9
$PUCSNAME
  2

  9
$PUCSORG
 10
0.0
 20
0.0
 30
0.0
  9
$PUCSXDIR
 10
1.0
 20
0.0
 30
0.0
  9
$PUCSYDIR
 10
0.0
 20
1.0
 30
0.0
  9
$PUCSORTHOREF
  2

  9
$PUCSORTHOVIEW
 70
     0
  9
$PUCSORGTOP
 10
0.0
 20
0.0
 30
0.0
  9
$PUCSORGBOTTOM
 10
0.0
 20
0.0
 30
0.0
  9
$PUCSORGLEFT
 10
0.0
 20
0.0
 30
0.0
  9
$PUCSORGRIGHT
 10
0.0
 20
0.0
 30
0.0
  9
$PUCSORGFRONT
 10
0.0
 20
0.0
 30
0.0
  9
$PUCSORGBACK
 10
0.0
 20
0.0
 30
0.0
  9
$USERI1
 70
     0
  9
$USERI2
 70
     0
  9
$USERI3
 70
     0
  9
$USERI4
 70
     0
  9
$USERI5
 70
     0
  9
$USERR1
 40
0.0
  9
$USERR2
 40
0.0
  9
$USERR3
 40
0.0
  9
$USERR4
 40
0.0
  9
$USERR5
 40
0.0
  9
$WORLDVIEW
 70
     1
  9
$SHADEDGE
 70
     3
  9
$SHADEDIF
 70
    70
  9
$TILEMODE
 70
     1
  9
$MAXACTVP
 70
    64
  9
$PINSBASE
 10
0.0
 20
0.0
 30
0.0
  9
$PLIMCHECK
 70
     0
  9
$PEXTMIN
 10
1.0000000000E+20
 20
1.0000000000E+20
 30
1.0000000000E+20
  9
$PEXTMAX
 10
-1.0000000000E+20
 20
-1.0000000000E+20
 30
-1.0000000000E+20
  9
$PLIMMIN
 10
0.0
 20
0.0
  9
$PLIMMAX
 10
420.0
 20
297.0
  9
$UNITMODE
 70
     0
  9
$VISRETAIN
 70
     1
  9
$PLINEGEN
 70
     0
  9
$PSLTSCALE
 70
     1
  9
$TREEDEPTH
 70
  3020
  9
$CMLSTYLE
  2
Standard
  9
$CMLJUST
 70
     0
  9
$CMLSCALE
 40
20.0
  9
$PROXYGRAPHICS
 70
     1
  9
$MEASUREMENT
 70
     1
  9
$CELWEIGHT
370
    -1
  9
$ENDCAPS
280
     0
  9
$JOINSTYLE
280
     0
  9
$LWDISPLAY
290
     1
  9
$INSUNITS
 70
     4
  9
$HYPERLINKBASE
  1

  9
$STYLESHEET
  1

  9
$XEDIT
290
     1
  9
$CEPSNTYPE
380
     0
  9
$PSTYLEMODE
290
     1
  9
$FINGERPRINTGUID
  2
{6d5c74e6-fba2-45ce-b061-39338a37dc99}
  9
$VERSIONGUID
  2
{FAEB1C32-E019-11D5-929B-00C0DF256EC4}
  9
$EXTNAMES
290
     1
  9
$PSVPSCALE
 40
0.0
  9
$OLESTARTUP
290
     0
  0
ENDSEC
  0
SECTION
  2
CLASSES
  0
CLASS
  1
ACDBDICTIONARYWDFLT
  2
AcDbDictionaryWithDefault
  3
ObjectDBX Classes
 90
        0
280
     0
281
     0
  0
CLASS
  1
VISUALSTYLE
  2
AcDbVisualStyle
  3
ObjectDBX Classes
 90
     4095
280
     0
281
     0
  0
CLASS
  1
MATERIAL
  2
AcDbMaterial
  3
ObjectDBX Classes
 90
     1153
280
     0
281
     0
  0
CLASS
  1
SCALE
  2
AcDbScale
  3
ObjectDBX Classes
 90
     1153
280
     0
281
     0
  0
CLASS
  1
TABLESTYLE
  2
AcDbTableStyle
  3
ObjectDBX Classes
 90
     4095
280
     0
281
     0
  0
CLASS
  1
MLEADERSTYLE
  2
AcDbMLeaderStyle
  3
ACDB_MLEADERSTYLE_CLASS
 90
     4095
280
     0
281
     0
  0
CLASS
  1
SUN
  2
AcDbSun
  3
SCENEOE
 90
     1153
280
     0
281
     0
  0
CLASS
  1
ACDBPLACEHOLDER
  2
AcDbPlaceHolder
  3
ObjectDBX Classes
 90
        0
280
     0
281
     0
  0
CLASS
  1
LAYOUT
  2
AcDbLayout
  3
ObjectDBX Classes
 90
        0
280
     0
281
     0
  0
ENDSEC
  0
SECTION
  2
TABLES
  0
TABLE
  2
VPORT
  5
8
330
0
100
AcDbSymbolTable
 70
     1
  0
VPORT
  5
29
330
8
100
AcDbSymbolTableRecord
100
AcDbViewportTableRecord
  2
*Active
 70
     0
 10
0.0
 20
0.0
 11
1.0
 21
1.0
 12
525.0
 22
325.0
 13
0.0
 23
0.0
 14
10.0
 24
10.0
 15
10.0
 25
10.0
 16
0.0
 26
0.0
 36
1.0
 17
0.0
 27
0.0
 37
0.0
 40
650.0
 41
1.6153846154
 42
50.0
 43
0.0
 44
0.0
 50
0.0
 51
0.0
 71
     0
 72
  2000
 73
     1
 74
     3
 75
     0
 76
     0
 77
     0
 78
     0
281
     0
 65
     1
110
0.0
120
0.0
130
0.0
111
1.0
121
0.0
131
0.0
112
0.0
122
1.0
132
0.0
 79
     0
146
0.0
  0
ENDTAB
  0
TABLE
  2
LTYPE
  5
5
330
0
100
AcDbSymbolTable
 70
     6
  0
LTYPE
  5
14
330
5
100
AcDbSymbolTableRecord
100
AcDbLinetypeTableRecord
  2
ByBlock
 70
     0
  3

 72
    65
 73
     0
 40
0.0
  0
LTYPE
  5
15
330
5
100
AcDbSymbolTableRecord
100
AcDbLinetypeTableRecord
  2
ByLayer
 70
     0
  3

 72
    65
 73
     0
 40
0.0
  0
LTYPE
  5
16
330
5
100
AcDbSymbolTableRecord
100
AcDbLinetypeTableRecord
  2
Continuous
 70
     0
  3
Solid line
 72
    65
 73
     0
 40
0.0
  0
LTYPE
  5
6E
330
5
100
AcDbSymbolTableRecord
100
AcDbLinetypeTableRecord
  2
HIDDEN
 70
     0
  3
Hidden __ __ __ __ __ __ __ __ __ __ __ __ __ __
 72
    65
 73
     2
 40
1.905
 49
1.27
 74
     0
 49
-0.635
 74
     0
  0
LTYPE
  5
6F
330
5
100
AcDbSymbolTableRecord
100
AcDbLinetypeTableRecord
  2
PHANTOM
 70
     0
  3
Phantom ______  __  __  ______  __  __  ______
 72
    65
 73
     6
 40
12.7
 49
6.35
 74
     0
 49
-1.27
 74
     0
 49
1.27
 74
     0
 49
-1.27
 74
     0
 49
1.27
 74
     0
 49
-1.27
 74
     0
  0
LTYPE
  5
70
330
5
100
AcDbSymbolTableRecord
100
AcDbLinetypeTableRecord
  2
CENTER
 70
     0
  3
Center ____ _ ____ _ ____ _ ____ _ ____ _ ____
 72
    65
 73
     4
 40
10.16
 49
6.35
 74
     0
 49
-1.27
 74
     0
 49
1.27
 74
     0
 49
-1.27
 74
     0
  0
LTYPE
  5
71
330
5
100
AcDbSymbolTableRecord
100
AcDbLinetypeTableRecord
  2
CENTERX2
 70
     0
  3
Center (2x) ________  __  ________  __  _____
 72
    65
 73
     4
 40
20.32
 49
12.7
 74
     0
 49
-2.54
 74
     0
 49
2.54
 74
     0
 49
-2.54
 74
     0
  0
LTYPE
  5
72
330
5
100
AcDbSymbolTableRecord
100
AcDbLinetypeTableRecord
  2
DOT2
 70
     0
  3
Dot (.5x) ........................................
 72
    65
 73
     2
 40
0.635
 49
0.0
 74
     0
 49
-0.635
 74
     0
  0
ENDTAB
  0
TABLE
  2
LAYER
  5
2
330
0
100
AcDbSymbolTable
 70
     1
  0
LAYER
  5
10
330
2
100
AcDbSymbolTableRecord
100
AcDbLayerTableRecord
  2
0
 70
     0
 62
     7
  6
Continuous
370
    -3
390
F
  0
ENDTAB
  0
TABLE
  2
STYLE
  5
3
330
0
100
AcDbSymbolTable
 70
     1
  0
STYLE
  5
11
330
3
100
AcDbSymbolTableRecord
100
AcDbTextStyleTableRecord
  2
Standard
 70
     0
 40
0.0
 41
1.0
 50
0.0
 71
     0
 42
3.5
  3
txt
  4

  0
ENDTAB
  0
TABLE
  2
VIEW
  5
6
330
0
100
AcDbSymbolTable
 70
     0
  0
ENDTAB
  0
TABLE
  2
UCS
  5
7
330
0
100
AcDbSymbolTable
 70
     0
  0
ENDTAB
  0
TABLE
  2
APPID
  5
9
330
0
100
AcDbSymbolTable
 70
     1
  0
APPID
  5
12
330
9
100
AcDbSymbolTableRecord
100
AcDbRegAppTableRecord
  2
ACAD
 70
     0
  0
ENDTAB
  0
TABLE
  2
DIMSTYLE
  5
A
330
0
100
AcDbSymbolTable
 70
     1
100
AcDbDimStyleTable
  0
DIMSTYLE
105
27
330
A
100
AcDbSymbolTableRecord
100
AcDbDimStyleTableRecord
  2
ISO-25
 70
     0
 41
2.5
 42
0.625
 43
3.75
 44
1.25
 73
     0
 74
     0
 77
     1
 78
     8
140
2.5
141
2.5
143
0.0393700787
147
0.625
171
     3
172
     1
178
     0
271
     2
272
     2
274
     3
278
    44
283
     0
284
     8
340
11
  0
ENDTAB
  0
TABLE
  2
BLOCK_RECORD
  5
1
330
0
100
AcDbSymbolTable
 70
     1
  0
BLOCK_RECORD
  5
1F
330
1
100
AcDbSymbolTableRecord
100
AcDbBlockTableRecord
  2
*Model_Space
340
22
  0
BLOCK_RECORD
  5
1B
330
1
100
AcDbSymbolTableRecord
100
AcDbBlockTableRecord
  2
*Paper_Space
340
1E
  0
BLOCK_RECORD
  5
23
330
1
100
AcDbSymbolTableRecord
100
AcDbBlockTableRecord
  2
*Paper_Space0
340
26
  0
ENDTAB
  0
ENDSEC
  0
SECTION
  2
BLOCKS
  0
BLOCK
  5
20
330
1F
100
AcDbEntity
  8
0
100
AcDbBlockBegin
  2
*Model_Space
 70
     0
 10
0.0
 20
0.0
 30
0.0
  3
*Model_Space
  1

  0
ENDBLK
  5
21
330
1F
100
AcDbEntity
  8
0
100
AcDbBlockEnd
  0
BLOCK
  5
1C
330
1B
100
AcDbEntity
 67
     1
  8
0
100
AcDbBlockBegin
  2
*Paper_Space
 70
     0
 10
0.0
 20
0.0
 30
0.0
  3
*Paper_Space
  1

  0
ENDBLK
  5
1D
330
1B
100
AcDbEntity
 67
     1
  8
0
100
AcDbBlockEnd
  0
BLOCK
  5
24
330
23
100
AcDbEntity
  8
0
100
AcDbBlockBegin
  2
*Paper_Space0
 70
     0
 10
0.0
 20
0.0
 30
0.0
  3
*Paper_Space0
  1

  0
ENDBLK
  5
25
330
23
100
AcDbEntity
  8
0
100
AcDbBlockEnd
  0
ENDSEC
  0
SECTION
  2
ENTITIES
  0
LINE
  5
73
330
1F
100
AcDbEntity
  8
0
  6
Continuous
 62
     7
370
    25
100
AcDbLine
 10
385.184871407
 20
105.2872054702
 30
0.0
 11
505.184871407
 21
105.2872054702
 31
0.0
  0
LINE
  5
74
330
1F
100
AcDbEntity
  8
0
  6
Continuous
 62
     7
370
    25
100
AcDbLine
 10
530.1103739549
 20
130.2127080182
 30
0.0
 11
530.1103739549
 21
465.2127080182
 31
0.0
  0
ARC
  5
75
330
1F
100
AcDbEntity
  8
0
  6
Continuous
 62
     7
370
    25
100
AcDbCircle
 10
505.184871407
 20
130.2127080182
 30
0.0
 40
24.92550254794048
100
AcDbArc
 50
270.0
 51
0.0
  0
LINE
  5
76
330
1F
100
AcDbEntity
  8
0
  6
Continuous
 62
     7
370
    25
100
AcDbLine
 10
505.184871407
 20
490.1382105661
 30
0.0
 11
385.184871407
 21
490.1382105661
 31
0.0
  0
ARC
  5
77
330
1F
100
AcDbEntity
  8
0
  6
Continuous
 62
     7
370
    25
100
AcDbCircle
 10
385.184871407
 20
130.2127080182
 30
0.0
 40
24.92550254794048
100
AcDbArc
 50
180.0
 51
270.0
  0
ARC
  5
78
330
1F
100
AcDbEntity
  8
0
  6
Continuous
 62
     7
370
    25
100
AcDbCircle
 10
505.184871407
 20
465.2127080182
 30
0.0
 40
24.92550254794048
100
AcDbArc
 50
0.0
 51
90.0
  0
LINE
  5
79
330
1F
100
AcDbEntity
  8
0
  6
Continuous
 62
     7
370
    25
100
AcDbLine
 10
360.259368859
 20
465.2127080182
 30
0.0
 11
360.259368859
 21
130.2127080182
 31
0.0
  0
ARC
  5
7A
330
1F
100
AcDbEntity
  8
0
  6
Continuous
 62
     7
370
    25
100
AcDbCircle
 10
385.184871407
 20
465.2127080182
 30
0.0
 40
24.92550254794048
100
AcDbArc
 50
90.0
 51
180.0
  0
LINE
  5
7B
330
1F
100
AcDbEntity
  8
0
  6
Continuous
 62
     7
370
    25
100
AcDbLine
 10
505.184871407
 20
105.2872054702
 30
0.0
 11
505.184871407
 21
110.6951632512
 31
0.0
  0
SPLINE
  5
7C
330
1F
100
AcDbEntity
  8
0
  6
Continuous
 62
     7
370
    25
100
AcDbSpline
210
0.0
220
0.0
230
1.0
 70
     8
 71
     3
 72
    15
 73
    11
 74
     0
 42
0.00000001
 43
0.00000001
 40
0.0
 40
0.0
 40
0.0
 40
0.0
 40
0.1277272741241848
 40
0.250000621442056
 40
0.3758170202055772
 40
0.5000000007032466
 40
0.6241813832160575
 40
0.7499993796997795
 40
0.8722718609166434
 40
1.0
 40
1.0
 40
1.0
 40
1.0
 10
524.7024161738736
 20
130.2127080181548
 30
0.0
 10
524.6236387183783
 20
128.9093899854187
 30
0.0
 10
524.4694475875916
 20
126.358405316288
 30
0.0
 10
523.2946232072854
 20
122.6741684173058
 30
0.0
 10
521.4996023259104
 20
119.3064456286183
 30
0.0
 10
519.0570843034064
 20
116.3405180974912
 30
0.0
 10
516.0911478471836
 20
113.8979865251777
 30
0.0
 10
512.7234343965015
 20
112.1029652951435
 30
0.0
 10
509.0391830487408
 20
110.9281337542106
 30
0.0
 10
506.4881983081342
 20
110.7739417081794
 30
0.0
 10
505.1848714069594
 20
110.6951632512405
 30
0.0
  0
LINE
  5
7D
330
1F
100
AcDbEntity
  8
0
  6
Continuous
 62
     7
370
    25
100
AcDbLine
 10
530.1103739549
 20
130.2127080182
 30
0.0
 11
524.7024161739
 21
130.2127080182
 31
0.0
  0
LINE
  5
7E
330
1F
100
AcDbEntity
  8
0
  6
Continuous
 62
     7
370
    25
100
AcDbLine
 10
360.259368859
 20
465.2127080182
 30
0.0
 11
366.1755318685
 21
465.2127080182
 31
0.0
  0
LINE
  5
7F
330
1F
100
AcDbEntity
  8
0
  6
Continuous
 62
     7
370
    25
100
AcDbLine
 10
366.2399567411
 20
423.396750466
 30
0.0
 11
366.1755318685
 21
465.2127080182
 31
0.0
  0
SPLINE
  5
80
330
1F
100
AcDbEntity
  8
0
  6
Continuous
 62
     7
370
    25
100
AcDbSpline
210
0.0
220
0.0
230
1.0
 70
     8
 71
     3
 72
     9
 73
     5
 74
     0
 42
0.00000001
 43
0.00000001
 40
0.0
 40
0.0
 40
0.0
 40
0.0
 40
0.3379797629438788
 40
1.0
 40
1.0
 40
1.0
 40
1.0
 10
366.2628332408714
 20
397.399705820768
 30
0.0
 10
366.2609943509053
 20
400.3287547776534
 30
0.0
 10
366.2555535222887
 20
408.99509897345
 30
0.0
 10
366.2461692916887
 20
417.6602470693955
 30
0.0
 10
366.2399567411224
 20
423.3967504659996
 30
0.0
  0
SPLINE
  5
81
330
1F
100
AcDbEntity
  8
0
  6
Continuous
 62
     7
370
    25
100
AcDbSpline
210
0.0
220
0.0
230
1.0
 70
     8
 71
     3
 72
     9
 73
     5
 74
     0
 42
0.00000001
 43
0.00000001
 40
0.0
 40
0.0
 40
0.0
 40
0.0
 40
0.4999259907937704
 40
1.0
 40
1.0
 40
1.0
 40
1.0
 10
366.2628332408714
 20
363.0257102155649
 30
0.0
 10
366.269095302902
 20
368.7538612391052
 30
0.0
 10
366.2816212810386
 20
380.211859280866
 30
0.0
 10
366.2690965388912
 20
391.6698583091919
 30
0.0
 10
366.2628332408714
 20
397.399705820768
 30
0.0
  0
LINE
  5
82
330
1F
100
AcDbEntity
  8
0
  6
Continuous
 62
     7
370
    25
100
AcDbLine
 10
366.2399567411
 20
337.0286655703
 30
0.0
 11
366.2628332409
 21
363.0257102156
 31
0.0
  0
SPLINE
  5
83
330
1F
100
AcDbEntity
  8
0
  6
Continuous
 62
     7
370
    25
100
AcDbSpline
210
0.0
220
0.0
230
1.0
 70
     8
 71
     3
 72
    11
 73
     7
 74
     0
 42
0.00000001
 43
0.00000001
 40
0.0
 40
0.0
 40
0.0
 40
0.0
 40
0.2499022779800566
 40
0.4998042800723552
 40
0.7499042466015203
 40
0.9999999999999999
 40
0.9999999999999999
 40
0.9999999999999999
 40
0.9999999999999999
 10
365.6673266400451
 20
130.2127080181548
 30
0.0
 10
365.7363977731573
 20
147.4166779402595
 30
0.0
 10
365.8745399631283
 20
181.8245987915863
 30
0.0
 10
366.0348246972973
 20
233.5119197035943
 30
0.0
 10
366.1658311283957
 20
285.2437082143075
 30
0.0
 10
366.2152483422934
 20
319.767110048125
 30
0.0
 10
366.2399567411225
 20
337.0286655703435
 30
0.0
  0
LINE
  5
84
330
1F
100
AcDbEntity
  8
0
  6
Continuous
 62
     7
370
    25
100
AcDbLine
 10
360.259368859
 20
130.2127080182
 30
0.0
 11
365.66732664
 21
130.2127080182
 31
0.0
  0
LINE
  5
85
330
1F
100
AcDbEntity
  8
0
  6
Continuous
 62
     7
370
    25
100
AcDbLine
 10
530.1103739549
 20
465.2127080182
 30
0.0
 11
524.1942109454
 21
465.2127080182
 31
0.0
  0
SPLINE
  5
86
330
1F
100
AcDbEntity
  8
0
  6
Continuous
 62
     7
370
    25
100
AcDbSpline
210
0.0
220
0.0
230
1.0
 70
     8
 71
     3
 72
    15
 73
    11
 74
     0
 42
0.00000001
 43
0.00000001
 40
0.0
 40
0.0
 40
0.0
 40
0.0
 40
0.1277272623577337
 40
0.2500006214467104
 40
0.3758169984179297
 40
0.50000000071061
 40
0.6241813611010909
 40
0.7499993797044747
 40
0.8722718487862451
 40
1.0
 40
1.0
 40
1.0
 40
1.0
 10
505.1848714069594
 20
484.2220475565848
 30
0.0
 10
506.4542530332545
 20
484.1453213516043
 30
0.0
 10
508.938814195601
 20
483.9951451200596
 30
0.0
 10
512.5271193456657
 20
482.8509113573783
 30
0.0
 10
515.8071522155984
 20
481.1026299149888
 30
0.0
 10
518.6958516804299
 20
478.723711284668
 30
0.0
 10
521.0747838705637
 20
475.8350028883165
 30
0.0
 10
522.823065661501
 20
472.5549793641399
 30
0.0
 10
523.9673065904968
 20
468.9666597547066
 30
0.0
 10
524.1174837380948
 20
466.4820985206032
 30
0.0
 10
524.1942109453894
 20
465.2127080181548
 30
0.0
  0
LINE
  5
87
330
1F
100
AcDbEntity
  8
0
  6
Continuous
 62
     7
370
    25
100
AcDbLine
 10
505.184871407
 20
490.1382105661
 30
0.0
 11
505.184871407
 21
484.2220475566
 31
0.0
  0
LINE
  5
88
330
1F
100
AcDbEntity
  8
0
  6
Continuous
 62
     7
370
    25
100
AcDbLine
 10
385.184871407
 20
490.1382105661
 30
0.0
 11
385.184871407
 21
484.2220475566
 31
0.0
  0
SPLINE
  5
89
330
1F
100
AcDbEntity
  8
0
  6
Continuous
 62
     7
370
    25
100
AcDbSpline
210
0.0
220
0.0
230
1.0
 70
     8
 71
     3
 72
    15
 73
    11
 74
     0
 42
0.00000001
 43
0.00000001
 40
0.0
 40
0.0
 40
0.0
 40
0.0
 40
0.1277272627099489
 40
0.2500006214466251
 40
0.3758169987343124
 40
0.5000000007105162
 40
0.6241813610876447
 40
0.7499993797044303
 40
0.8722718487713164
 40
1.0
 40
1.0
 40
1.0
 40
1.0
 10
366.1755318685293
 20
465.2127080181548
 30
0.0
 10
366.2522580739052
 20
466.4820896479662
 30
0.0
 10
366.4024343058089
 20
468.9666508103427
 30
0.0
 10
367.5466680703443
 20
472.5549559629619
 30
0.0
 10
369.2949495119333
 20
475.8349888295183
 30
0.0
 10
371.6738681428016
 20
478.7236882935177
 30
0.0
 10
374.5625765366837
 20
481.1026204816871
 30
0.0
 10
377.8426000607159
 20
482.8509022725852
 30
0.0
 10
381.4309196702577
 20
483.9951432016608
 30
0.0
 10
383.9154809043621
 20
484.1453203492735
 30
0.0
 10
385.1848714069594
 20
484.2220475565848
 30
0.0
  0
SPLINE
  5
8A
330
1F
100
AcDbEntity
  8
0
  6
Continuous
 62
     7
370
    25
100
AcDbSpline
210
0.0
220
0.0
230
1.0
 70
     8
 71
     3
 72
    11
 73
     7
 74
     0
 42
0.00000001
 43
0.00000001
 40
0.0
 40
0.0
 40
0.0
 40
0.0
 40
0.2498896755908641
 40
0.499783554587735
 40
0.7498916387505238
 40
1.0
 40
1.0
 40
1.0
 40
1.0
 10
524.1297860727963
 20
337.0286655703125
 30
0.0
 10
524.154470543559
 20
319.7813321875315
 30
0.0
 10
524.2038399003031
 20
285.2863753037619
 30
0.0
 10
524.3347584661431
 20
233.5687570572054
 30
0.0
 10
524.495040240321
 20
181.8671740611108
 30
0.0
 10
524.6332908371622
 20
147.430869724282
 30
0.0
 10
524.7024161738736
 20
130.2127080181548
 30
0.0
  0
SPLINE
  5
8B
330
1F
100
AcDbEntity
  8
0
  6
Continuous
 62
     7
370
    25
100
AcDbSpline
210
0.0
220
0.0
230
1.0
 70
     8
 71
     3
 72
     9
 73
     5
 74
     0
 42
0.00000001
 43
0.00000001
 40
0.0
 40
0.0
 40
0.0
 40
0.0
 40
0.3379797629439176
 40
0.9999999999999999
 40
0.9999999999999999
 40
0.9999999999999999
 40
0.9999999999999999
 10
524.1069095730472
 20
363.0257102155415
 30
0.0
 10
524.1087484630134
 20
360.096661258656
 30
0.0
 10
524.1141892916299
 20
351.4303170628606
 30
0.0
 10
524.1235735222299
 20
342.7651689669158
 30
0.0
 10
524.1297860727963
 20
337.0286655703125
 30
0.0
  0
SPLINE
  5
8C
330
1F
100
AcDbEntity
  8
0
  6
Continuous
 62
     7
370
    25
100
AcDbSpline
210
0.0
220
0.0
230
1.0
 70
     8
 71
     3
 72
     9
 73
     5
 74
     0
 42
0.00000001
 43
0.00000001
 40
0.0
 40
0.0
 40
0.0
 40
0.0
 40
0.4999259907934862
 40
1.0
 40
1.0
 40
1.0
 40
1.0
 10
524.1069095730472
 20
397.3997058207447
 30
0.0
 10
524.1006475110169
 20
391.6715547972076
 30
0.0
 10
524.0881215328803
 20
380.2135567554468
 30
0.0
 10
524.1006462750275
 20
368.7555577271208
 30
0.0
 10
524.1069095730472
 20
363.0257102155415
 30
0.0
  0
LINE
  5
8D
330
1F
100
AcDbEntity
  8
0
  6
Continuous
 62
     7
370
    25
100
AcDbLine
 10
524.1297860728
 20
423.396750466
 30
0.0
 11
524.106909573
 21
397.3997058207
 31
0.0
  0
LINE
  5
8E
330
1F
100
AcDbEntity
  8
0
  6
Continuous
 62
     7
370
    25
100
AcDbLine
 10
524.1942109454
 20
465.2127080182
 30
0.0
 11
524.1297860728
 21
423.396750466
 31
0.0
  0
SPLINE
  5
8F
330
1F
100
AcDbEntity
  8
0
  6
Continuous
 62
     7
370
    25
100
AcDbSpline
210
0.0
220
0.0
230
1.0
 70
     8
 71
     3
 72
    15
 73
    11
 74
     0
 42
0.00000001
 43
0.00000001
 40
0.0
 40
0.0
 40
0.0
 40
0.0
 40
0.1277272737931552
 40
0.25000062144214
 40
0.3758170199082541
 40
0.5000000007033377
 40
0.6241813832195543
 40
0.7499993796998217
 40
0.8722718609204515
 40
1.0
 40
1.0
 40
1.0
 40
1.0
 10
385.1848714069594
 20
110.6951632512405
 30
0.0
 10
383.8815533776163
 20
110.7739407063547
 30
0.0
 10
381.3305687085142
 20
110.9281318367948
 30
0.0
 10
377.6463318119977
 20
112.1029562153115
 30
0.0
 10
374.2786090200512
 20
113.8979770974596
 30
0.0
 10
371.3126814881945
 20
116.3404951193761
 30
0.0
 10
368.8701499139664
 20
119.3064315779597
 30
0.0
 10
367.0751286839178
 20
122.6741450286806
 30
0.0
 10
365.9002971430073
 20
126.3583963764124
 30
0.0
 10
365.7461050969797
 20
128.9093811170188
 30
0.0
 10
365.6673266400451
 20
130.2127080181548
 30
0.0
  0
LINE
  5
90
330
1F
100
AcDbEntity
  8
0
  6
Continuous
 62
     7
370
    25
100
AcDbLine
 10
385.184871407
 20
105.2872054702
 30
0.0
 11
385.184871407
 21
110.6951632512
 31
0.0
  0
LINE
  5
91
330
1F
100
AcDbEntity
  8
0
  6
Continuous
 62
     7
370
    25
100
AcDbLine
 10
420.934871407
 20
488.4895203575
 30
0.0
 11
420.934871407
 21
487.3381293202
 31
0.0
  0
ARC
  5
92
330
1F
100
AcDbEntity
  8
0
  6
Continuous
 62
     7
370
    25
100
AcDbCircle
 10
421.68555617
 20
492.1018759834
 30
0.0
 40
4.822531480995663
100
AcDbArc
 50
261.0448095014
 51
272.9633983003
  0
LINE
  5
93
330
1F
100
AcDbEntity
  8
0
  6
Continuous
 62
     7
370
    25
100
AcDbLine
 10
421.934871407
 20
487.2857933639
 30
0.0
 11
468.434871407
 21
487.2857933639
 31
0.0
  0
ARC
  5
94
330
1F
100
AcDbEntity
  8
0
  6
Continuous
 62
     7
370
    25
100
AcDbCircle
 10
468.6841866439
 20
492.1018759835
 30
0.0
 40
4.822531481008562
100
AcDbArc
 50
267.0366016998
 51
278.9551904986
  0
LINE
  5
95
330
1F
100
AcDbEntity
  8
0
  6
Continuous
 62
     7
370
    25
100
AcDbLine
 10
469.434871407
 20
487.3381293202
 30
0.0
 11
469.434871407
 21
488.4895203575
 31
0.0
  0
ARC
  5
96
330
1F
100
AcDbEntity
  8
0
  6
Continuous
 62
     7
370
    25
100
AcDbCircle
 10
468.6841866439
 20
483.7257736943
 30
0.0
 40
4.822531481011221
100
AcDbArc
 50
81.0448095014
 51
92.9633983002
  0
LINE
  5
97
330
1F
100
AcDbEntity
  8
0
  6
Continuous
 62
     7
370
    25
100
AcDbLine
 10
468.434871407
 20
488.5418563138
 30
0.0
 11
421.934871407
 21
488.5418563138
 31
0.0
  0
ARC
  5
98
330
1F
100
AcDbEntity
  8
0
  6
Continuous
 62
     7
370
    25
100
AcDbCircle
 10
421.68555617
 20
483.7257736943
 30
0.0
 40
4.822531481010599
100
AcDbArc
 50
87.0366016998
 51
98.9551904986
  0
LINE
  5
99
330
1F
100
AcDbEntity
  8
0
  6
Continuous
 62
     7
370
    25
100
AcDbLine
 10
505.184871407
 20
484.2220475566
 30
0.0
 11
505.184871407
 21
484.2187081824
 31
0.0
  0
SPLINE
  5
9A
330
1F
100
AcDbEntity
  8
0
  6
Continuous
 62
     7
370
    25
100
AcDbSpline
210
0.0
220
0.0
230
1.0
 70
     8
 71
     3
 72
    10
 73
     6
 74
     0
 42
0.00000001
 43
0.00000001
 40
0.0
 40
0.0
 40
0.0
 40
0.0
 40
0.4136404926186354
 40
0.8274784233077283
 40
0.9999999999999999
 40
0.9999999999999999
 40
0.9999999999999999
 40
0.9999999999999999
 10
385.1852222087065
 20
484.218708182418
 30
0.0
 10
401.7295574252689
 20
484.2009595281123
 30
0.0
 10
434.8261247681025
 20
484.165453747748
 30
0.0
 10
474.8347876682297
 20
484.1815514008675
 30
0.0
 10
498.284910259976
 20
484.2102610796078
 30
0.0
 10
505.1845206052106
 20
484.218708182418
 30
0.0
  0
LINE
  5
9B
330
1F
100
AcDbEntity
  8
0
  6
Continuous
 62
     7
370
    25
100
AcDbLine
 10
385.184871407
 20
484.2220475566
 30
0.0
 11
385.184871407
 21
484.2187081824
 31
0.0
  0
LINE
  5
9C
330
1F
100
AcDbEntity
  8
0
  6
Continuous
 62
     7
370
    25
100
AcDbLine
 10
385.1953693959
 20
110.7126939163
 30
0.0
 11
385.184871407
 21
110.6951632512
 31
0.0
  0
SPLINE
  5
9D
330
1F
100
AcDbEntity
  8
0
  6
Continuous
 62
     7
370
    25
100
AcDbSpline
210
0.0
220
0.0
230
1.0
 70
     8
 71
     3
 72
     9
 73
     5
 74
     0
 42
0.00000001
 43
0.00000001
 40
0.0
 40
0.0
 40
0.0
 40
0.0
 40
0.4999053010549145
 40
0.9999999999999999
 40
0.9999999999999999
 40
0.9999999999999999
 40
0.9999999999999999
 10
505.1743734179872
 20
110.7126939162774
 30
0.0
 10
485.181660582322
 20
110.7279927868385
 30
0.0
 10
445.1886603211204
 20
110.7585963242058
 30
0.0
 10
405.1956579010915
 20
110.727996650758
 30
0.0
 10
385.1953693959369
 20
110.7126939162774
 30
0.0
  0
LINE
  5
9E
330
1F
100
AcDbEntity
  8
0
  6
Continuous
 62
     7
370
    25
100
AcDbLine
 10
505.184871407
 20
110.6951632512
 30
0.0
 11
505.174373418
 21
110.7126939163
 31
0.0
  0
LINE
  5
9F
330
1F
100
AcDbEntity
  8
0
  6
Continuous
 62
     7
370
    25
100
AcDbLine
 10
421.934871407
 20
487.2857933639
 30
0.0
 11
421.934871407
 21
488.0846969917
 31
0.0
  0
ARC
  5
A0
330
1F
100
AcDbEntity
  8
0
  6
Continuous
 62
     7
370
    25
100
AcDbCircle
 10
421.68555617
 20
492.9007796113
 30
0.0
 40
4.822531481002437
100
AcDbArc
 50
261.0448095014
 51
272.9633983002
  0
LINE
  5
A1
330
1F
100
AcDbEntity
  8
0
  6
Continuous
 62
     7
370
    25
100
AcDbLine
 10
468.434871407
 20
487.2857933639
 30
0.0
 11
468.434871407
 21
488.0846969917
 31
0.0
  0
ARC
  5
A2
330
1F
100
AcDbEntity
  8
0
  6
Continuous
 62
     7
370
    25
100
AcDbCircle
 10
468.6841866439
 20
492.9007796113
 30
0.0
 40
4.822531481015687
100
AcDbArc
 50
267.0366016998
 51
278.9551904986
  0
LINE
  5
A3
330
1F
100
AcDbEntity
  8
0
  6
Continuous
 62
     7
370
    25
100
AcDbLine
 10
421.934871407
 20
488.0846969917
 30
0.0
 11
468.434871407
 21
488.0846969917
 31
0.0
  0
LINE
  5
A4
330
1F
100
AcDbEntity
  8
0
  6
Continuous
 62
     7
370
    25
100
AcDbLine
 10
365.66732664
 20
130.2127080182
 30
0.0
 11
365.7937713965
 21
130.1172951025
 31
0.0
  0
ARC
  5
A5
330
1F
100
AcDbEntity
  8
0
  6
Continuous
 62
     7
370
    25
100
AcDbCircle
 10
385.362147087
 20
647.7487575238
 30
0.0
 40
311.3079403214244
100
AcDbArc
 50
266.4783713873
 51
270.9501490104
  0
SPLINE
  5
A6
330
1F
100
AcDbEntity
  8
0
  6
Continuous
 62
     7
370
    25
100
AcDbSpline
210
0.0
220
0.0
230
1.0
 70
     8
 71
     3
 72
    11
 73
     7
 74
     0
 42
0.00000001
 43
0.00000001
 40
0.0
 40
0.0
 40
0.0
 40
0.0
 40
0.2498936679328966
 40
0.4997914232229199
 40
0.7498955641934065
 40
0.9999999999999999
 40
0.9999999999999999
 40
0.9999999999999999
 40
0.9999999999999999
 10
390.5244012174383
 20
336.4836216035062
 30
0.0
 10
390.544827310943
 20
319.5745619668563
 30
0.0
 10
390.5856798320498
 20
285.7561661224613
 30
0.0
 10
390.5169634874562
 20
235.0520594911171
 30
0.0
 10
390.3977973209795
 20
184.3631801860386
 30
0.0
 10
390.2777187524985
 20
150.6001256079627
 30
0.0
 10
390.2176794328692
 20
133.7185883685081
 30
0.0
  0
SPLINE
  5
A7
330
1F
100
AcDbEntity
  8
0
  6
Continuous
 62
     7
370
    25
100
AcDbSpline
210
0.0
220
0.0
230
1.0
 70
     8
 71
     3
 72
    17
 73
    13
 74
     0
 42
0.00000001
 43
0.00000001
 40
0.0
 40
0.0
 40
0.0
 40
0.0
 40
0.1241314772146316
 40
0.2501308511101161
 40
0.3750215843349319
 40
0.5004023149057562
 40
0.6244965219699941
 40
0.750116850430338
 40
0.8087704767254352
 40
0.87443177630663
 40
0.9261932155695171
 40
1.0
 40
1.0
 40
1.0
 40
1.0
 10
365.7937713965336
 20
130.1172951024712
 30
0.0
 10
366.0435009706537
 20
130.0420974796354
 30
0.0
 10
366.5467179815496
 20
129.8905706806043
 30
0.0
 10
368.3171744461469
 20
129.9154621199764
 30
0.0
 10
370.7657610506496
 20
130.1297176589943
 30
0.0
 10
373.8535496847147
 20
130.5401175827387
 30
0.0
 10
377.4667588556839
 20
131.1278807132845
 30
0.0
 10
380.7734056459204
 20
131.7398991292724
 30
0.0
 10
383.5839272846382
 20
132.2979096494775
 30
0.0
 10
385.6153487281244
 20
132.7171272404053
 30
0.0
 10
387.8552831072641
 20
133.1949249007957
 30
0.0
 10
389.3431421576909
 20
133.5247329949622
 30
0.0
 10
390.2176794328691
 20
133.7185883685081
 30
0.0
  0
SPLINE
  5
A8
330
1F
100
AcDbEntity
  8
0
  6
Continuous
 62
     7
370
    25
100
AcDbSpline
210
0.0
220
0.0
230
1.0
 70
     8
 71
     3
 72
    19
 73
    15
 74
     0
 42
0.00000001
 43
0.00000001
 40
0.0
 40
0.0
 40
0.0
 40
0.0
 40
0.0608313093535153
 40
0.1075187037192395
 40
0.1526603287839269
 40
0.2035023078473874
 40
0.2498604810890761
 40
0.3354359629895975
 40
0.4180519152604008
 40
0.4997036051419128
 40
0.6250577961365252
 40
0.7499220934962473
 40
0.8758941947232671
 40
1.0
 40
1.0
 40
1.0
 40
1.0
 10
500.1520633810497
 20
133.7185883685082
 30
0.0
 10
500.872935329949
 20
133.5585175894278
 30
0.0
 10
502.1470689679873
 20
133.2755941598161
 30
0.0
 10
503.9411750125557
 20
132.8899728039398
 30
0.0
 10
505.6002440028217
 20
132.5416344822234
 30
0.0
 10
507.2301917783054
 20
132.2093510060855
 30
0.0
 10
509.2794424502318
 20
131.8041751798508
 30
0.0
 10
511.603379621769
 20
131.3671150902997
 30
0.0
 10
514.1457862496892
 20
130.9240048135136
 30
0.0
 10
516.86530081353
 20
130.4937547083401
 30
0.0
 10
519.6042375477439
 20
130.1296719126679
 30
0.0
 10
522.0524956340458
 20
129.9154751380675
 30
0.0
 10
523.8230395293722
 20
129.8905660515983
 30
0.0
 10
524.3262459073259
 20
130.0420957002729
 30
0.0
 10
524.5759714173854
 20
130.1172951024713
 30
0.0
  0
SPLINE
  5
A9
330
1F
100
AcDbEntity
  8
0
  6
Continuous
 62
     7
370
    25
100
AcDbSpline
210
0.0
220
0.0
230
1.0
 70
     8
 71
     3
 72
    12
 73
     8
 74
     0
 42
0.00000001
 43
0.00000001
 40
0.0
 40
0.0
 40
0.0
 40
0.0
 40
0.2190320550286956
 40
0.4142269280405066
 40
0.6094215884746144
 40
0.8047117873893157
 40
1.0
 40
1.0
 40
1.0
 40
1.0
 10
500.1520633810497
 20
133.7185883685081
 30
0.0
 10
500.099328216018
 20
148.5023126494488
 30
0.0
 10
499.999597035539
 20
176.46085366341
 30
0.0
 10
499.8909007501481
 20
217.6337591640969
 30
0.0
 10
499.819808635834
 20
257.2242753730955
 30
0.0
 10
499.7908807753691
 20
296.8401921142998
 30
0.0
 10
499.8271880509908
 20
323.2691899090423
 30
0.0
 10
499.8453415964805
 20
336.4836216034869
 30
0.0
  0
ARC
  5
AA
330
1F
100
AcDbEntity
  8
0
  6
Continuous
 62
     7
370
    25
100
AcDbCircle
 10
505.0075957271
 20
647.7487575247
 30
0.0
 40
311.3079403223997
100
AcDbArc
 50
269.0498509896
 51
273.5216286126
  0
LINE
  5
AB
330
1F
100
AcDbEntity
  8
0
  6
Continuous
 62
     7
370
    25
100
AcDbLine
 10
524.5759714174
 20
130.1172951025
 30
0.0
 11
524.7024161739
 21
130.2127080182
 31
0.0
  0
SPLINE
  5
AC
330
1F
100
AcDbEntity
  8
0
  6
Continuous
 62
     7
370
    25
100
AcDbSpline
210
0.0
220
0.0
230
1.0
 70
     8
 71
     3
 72
     9
 73
     5
 74
     0
 42
0.00000001
 43
0.00000001
 40
0.0
 40
0.0
 40
0.0
 40
0.0
 40
0.404647319999399
 40
1.0
 40
1.0
 40
1.0
 40
1.0
 10
390.2176794328691
 20
133.7185883685081
 30
0.0
 10
405.0455448049289
 20
133.7250332122019
 30
0.0
 10
441.6894681406418
 20
133.7409602760309
 30
0.0
 10
478.3350299485712
 20
133.7269371024697
 30
0.0
 10
500.1520633810497
 20
133.7185883685081
 30
0.0
  0
SPLINE
  5
AD
330
1F
100
AcDbEntity
  8
0
  6
Continuous
 62
     7
370
    25
100
AcDbSpline
210
0.0
220
0.0
230
1.0
 70
     8
 71
     3
 72
    19
 73
    15
 74
     0
 42
0.00000001
 43
0.00000001
 40
0.0
 40
0.0
 40
0.0
 40
0.0
 40
0.0608076124359584
 40
0.1075017469954591
 40
0.1526598071602811
 40
0.2035017919409983
 40
0.2498557172616066
 40
0.3354313373807297
 40
0.4180453880567442
 40
0.4996933650038599
 40
0.6250461096813421
 40
0.7499110703522102
 40
0.8758904735323138
 40
1.0
 40
1.0
 40
1.0
 40
1.0
 10
500.1520633810497
 20
133.7185883685081
 30
0.0
 10
500.3161624219968
 20
133.0018377628317
 30
0.0
 10
500.6062730327474
 20
131.7346947328139
 30
0.0
 10
501.0130108371935
 20
129.9611185409934
 30
0.0
 10
501.3871674165371
 20
128.3270161026684
 30
0.0
 10
501.7520778423636
 20
126.7290465963704
 30
0.0
 10
502.2076269347943
 20
124.7296591267179
 30
0.0
 10
502.7172696485624
 20
122.4778086974176
 30
0.0
 10
503.2637123864019
 20
120.0382940241834
 30
0.0
 10
503.8335607406266
 20
117.4580539642443
 30
0.0
 10
504.3840557468874
 20
114.9053943234786
 30
0.0
 10
504.8391591434934
 20
112.6981583280017
 30
0.0
 10
505.12584305208
 20
111.1897945953945
 30
0.0
 10
505.158277465068
 20
110.8709327822987
 30
0.0
 10
505.1743734179872
 20
110.7126939162774
 30
0.0
  0
SPLINE
  5
AE
330
1F
100
AcDbEntity
  8
0
  6
Continuous
 62
     7
370
    25
100
AcDbSpline
210
0.0
220
0.0
230
1.0
 70
     8
 71
     3
 72
    20
 73
    16
 74
     0
 42
0.00000001
 43
0.00000001
 40
0.0
 40
0.0
 40
0.0
 40
0.0
 40
0.1240820338308106
 40
0.2500322893338595
 40
0.3328498870346463
 40
0.4159799446120154
 40
0.5003865382934205
 40
0.5612046299390977
 40
0.6245457031895636
 40
0.6853772146288093
 40
0.7502311079414168
 40
0.8088567286586065
 40
0.874488945815032
 40
0.9261973337277521
 40
1.0
 40
1.0
 40
1.0
 40
1.0
 10
385.1953693959369
 20
110.7126939162774
 30
0.0
 10
385.2114206846251
 20
110.8707222438256
 30
0.0
 10
385.2437649357112
 20
111.1891582276386
 30
0.0
 10
385.4989164711034
 20
112.5313157724644
 30
0.0
 10
385.8287786387453
 20
114.146643282578
 30
0.0
 10
386.1887283771244
 20
115.848590800586
 30
0.0
 10
386.5808298432294
 20
117.6572856133696
 30
0.0
 10
386.9848177260307
 20
119.4899867790339
 30
0.0
 10
387.3746388950888
 20
121.239544377185
 30
0.0
 10
387.8020079542545
 20
123.1385287300765
 30
0.0
 10
388.2430775706397
 20
125.0858372580753
 30
0.0
 10
388.716715716312
 20
127.1632266494172
 30
0.0
 10
389.1725102822023
 20
129.1580794497603
 30
0.0
 10
389.6798131210573
 20
131.3692168693597
 30
0.0
 10
390.0185161850071
 20
132.8486538737657
 30
0.0
 10
390.2176794328691
 20
133.7185883685082
 30
0.0
  0
SPLINE
  5
AF
330
1F
100
AcDbEntity
  8
0
  6
Continuous
 62
     7
370
    25
100
AcDbSpline
210
0.0
220
0.0
230
1.0
 70
     8
 71
     3
 72
    15
 73
    11
 74
     0
 42
0.00000001
 43
0.00000001
 40
0.0
 40
0.0
 40
0.0
 40
0.0
 40
0.1250887709663153
 40
0.2501023990873107
 40
0.3750643553784933
 40
0.5000000003971773
 40
0.6249356454494691
 40
0.7498976017103897
 40
0.8749112322557069
 40
1.0
 40
1.0
 40
1.0
 40
1.0
 10
385.1953693959358
 20
110.7126939162805
 30
0.0
 10
383.9331647177776
 20
110.7916843619882
 30
0.0
 10
381.4095135882003
 20
110.949617802567
 30
0.0
 10
377.7681433604245
 20
112.1141794893595
 30
0.0
 10
374.4091875188091
 20
113.9114540216303
 30
0.0
 10
371.4607027698489
 20
116.3407196030327
 30
0.0
 10
369.0292639459831
 20
119.2922103633544
 30
0.0
 10
367.2246043444118
 20
122.6593505703061
 30
0.0
 10
366.0480704081112
 20
126.313438824524
 30
0.0
 10
365.8785547093527
 20
128.8490890849505
 30
0.0
 10
365.7937713965335
 20
130.1172951024712
 30
0.0
  0
SPLINE
  5
B0
330
1F
100
AcDbEntity
  8
0
  6
Continuous
 62
     7
370
    25
100
AcDbSpline
210
0.0
220
0.0
230
1.0
 70
     8
 71
     3
 72
    15
 73
    11
 74
     0
 42
0.00000001
 43
0.00000001
 40
0.0
 40
0.0
 40
0.0
 40
0.0
 40
0.1250887719768051
 40
0.2501023983103993
 40
0.3750643545508661
 40
0.4999999995532492
 40
0.6249356446218544
 40
0.7498976009334992
 40
0.8749112332662146
 40
1.0
 40
1.0
 40
1.0
 40
1.0
 10
505.1743734179879
 20
110.712693916279
 30
0.0
 10
506.4365781064
 20
110.7916843631129
 30
0.0
 10
508.9602292282535
 20
110.9496178041764
 30
0.0
 10
512.6015994469884
 20
112.1141794885997
 30
0.0
 10
515.9605552742923
 20
113.9114540077171
 30
0.0
 10
518.9090400259668
 20
116.3407195849243
 30
0.0
 10
521.3404788539929
 20
119.2922103424973
 30
0.0
 10
523.1451384687205
 20
122.659350563768
 30
0.0
 10
524.3216724074227
 20
126.3134388270601
 30
0.0
 10
524.4911881057368
 20
128.8490890952515
 30
0.0
 10
524.5759714173854
 20
130.1172951024713
 30
0.0
  0
SPLINE
  5
B1
330
1F
100
AcDbEntity
  8
0
  6
Continuous
 62
     7
370
    25
100
AcDbSpline
210
0.0
220
0.0
230
1.0
 70
     8
 71
     3
 72
    20
 73
    16
 74
     0
 42
0.00000001
 43
0.00000001
 40
0.0
 40
0.0
 40
0.0
 40
0.0
 40
0.0608080542914468
 40
0.1073925333007751
 40
0.152515266225875
 40
0.203418452605661
 40
0.2497514199696005
 40
0.3349134555808747
 40
0.4176182947681475
 40
0.4997037244819806
 40
0.5856893805665783
 40
0.6691537125016892
 40
0.750151493090558
 40
0.8741636374803338
 40
1.0
 40
1.0
 40
1.0
 40
1.0
 10
499.8042953495491
 20
460.1036676732741
 30
0.0
 10
499.9886178737382
 20
460.8433273576995
 30
0.0
 10
500.3141481517206
 20
462.1496333761452
 30
0.0
 10
500.7695551728227
 20
463.9856052511694
 30
0.0
 10
501.1878622308483
 20
465.6817248811946
 30
0.0
 10
501.5951300596542
 20
467.3456923931466
 30
0.0
 10
502.1010518801792
 20
469.4282628513616
 30
0.0
 10
502.6647518212824
 20
471.7828263209184
 30
0.0
 10
503.2657783860294
 20
474.3484205677658
 30
0.0
 10
503.8029004429523
 20
476.7052698539514
 30
0.0
 10
504.2637816835019
 20
478.8080601385487
 30
0.0
 10
504.6387276143357
 20
480.6047145781845
 30
0.0
 10
504.9660269519308
 20
482.2925782240993
 30
0.0
 10
505.2011458688466
 20
483.7129938141004
 30
0.0
 10
505.1900892689287
 20
484.0493181916003
 30
0.0
 10
505.1845206052106
 20
484.218708182418
 30
0.0
  0
SPLINE
  5
B2
330
1F
100
AcDbEntity
  8
0
  6
Continuous
 62
     7
370
    25
100
AcDbSpline
210
0.0
220
0.0
230
1.0
 70
     8
 71
     3
 72
    10
 73
     6
 74
     0
 42
0.00000001
 43
0.00000001
 40
0.0
 40
0.0
 40
0.0
 40
0.0
 40
0.1362084811390909
 40
0.5680082725762484
 40
1.0
 40
1.0
 40
1.0
 40
1.0
 10
499.8042953495481
 20
460.1036676732742
 30
0.0
 10
494.845323507491
 20
460.1085571674736
 30
0.0
 10
474.1657226030163
 20
460.1289470369643
 30
0.0
 10
437.7462631909425
 20
460.1600724591507
 30
0.0
 10
406.2947155695287
 20
460.122472053525
 30
0.0
 10
390.5654474643707
 20
460.1036676732742
 30
0.0
  0
SPLINE
  5
B3
330
1F
100
AcDbEntity
  8
0
  6
Continuous
 62
     7
370
    25
100
AcDbSpline
210
0.0
220
0.0
230
1.0
 70
     8
 71
     3
 72
    17
 73
    13
 74
     0
 42
0.00000001
 43
0.00000001
 40
0.0
 40
0.0
 40
0.0
 40
0.0
 40
0.1258906977181923
 40
0.249956389626531
 40
0.3723279775634348
 40
0.5003048062339964
 40
0.6251202176382712
 40
0.7501724917960443
 40
0.808821149224243
 40
0.874612992103157
 40
0.9261677616094894
 40
0.9999999999999999
 40
0.9999999999999999
 40
0.9999999999999999
 40
0.9999999999999999
 10
385.1852222087064
 20
484.218708182418
 30
0.0
 10
385.1797121290924
 20
484.0490798066227
 30
0.0
 10
385.1687718481036
 20
483.7122821149703
 30
0.0
 10
385.4323971105901
 20
482.1179584752703
 30
0.0
 10
385.8922569541472
 20
479.7974396442121
 30
0.0
 10
386.5522049492007
 20
476.7527865109
 30
0.0
 10
387.390897336431
 20
473.1023344201652
 30
0.0
 10
388.1900737314992
 20
469.7494303867304
 30
0.0
 10
388.8850854884544
 20
466.8920676797428
 30
0.0
 10
389.3941011909778
 20
464.8179774910419
 30
0.0
 10
389.9620339074182
 20
462.5259399992231
 30
0.0
 10
390.3418175971999
 20
461.0013810777223
 30
0.0
 10
390.5654474643696
 20
460.1036676732742
 30
0.0
  0
ARC
  5
B4
330
1F
100
AcDbEntity
  8
0
  6
Continuous
 62
     7
370
    25
100
AcDbCircle
 10
505.0075957271
 20
112.6766585199
 30
0.0
 40
311.3079403141107
100
AcDbArc
 50
86.4783713873
 51
90.9501490105
  0
LINE
  5
B5
330
1F
100
AcDbEntity
  8
0
  6
Continuous
 62
     7
370
    25
100
AcDbLine
 10
499.8453415965
 20
423.9417944328
 30
0.0
 11
499.8042953495
 21
460.1036676733
 31
0.0
  0
SPLINE
  5
B6
330
1F
100
AcDbEntity
  8
0
  6
Continuous
 62
     7
370
    25
100
AcDbSpline
210
0.0
220
0.0
230
1.0
 70
     8
 71
     3
 72
    19
 73
    15
 74
     0
 42
0.00000001
 43
0.00000001
 40
0.0
 40
0.0
 40
0.0
 40
0.0
 40
0.0608471788740695
 40
0.107433965381121
 40
0.1525502748409045
 40
0.2034652598742202
 40
0.2498089164197778
 40
0.3349911081548877
 40
0.4177151733118208
 40
0.4998188885285848
 40
0.6277655946758476
 40
0.7501118722822071
 40
0.8741457111837758
 40
1.0
 40
1.0
 40
1.0
 40
1.0
 10
499.8042953495481
 20
460.1036676732799
 30
0.0
 10
500.5449563344721
 20
460.2871157721178
 30
0.0
 10
501.8526939828876
 20
460.6110183270837
 30
0.0
 10
503.69242962297
 20
461.0620391720984
 30
0.0
 10
505.3928962453658
 20
461.4750679305794
 30
0.0
 10
507.0625951607275
 20
461.8758356602636
 30
0.0
 10
509.1543640708713
 20
462.37195489116
 30
0.0
 10
511.522126586005
 20
462.9217188390526
 30
0.0
 10
514.106965118294
 20
463.5032478404857
 30
0.0
 10
516.8825186530735
 20
464.1034305975456
 30
0.0
 10
519.6161926828681
 20
464.6538538372585
 30
0.0
 10
521.9802918557571
 20
465.0696985571913
 30
0.0
 10
523.6221646308406
 20
465.2861866840722
 30
0.0
 10
523.9923601399167
 20
465.2422184889705
 30
0.0
 10
524.1788063426367
 20
465.2200742359578
 30
0.0
  0
LINE
  5
B7
330
1F
100
AcDbEntity
  8
0
  6
Continuous
 62
     7
370
    25
100
AcDbLine
 10
524.1942109454
 20
465.2127080182
 30
0.0
 11
524.1788063426
 21
465.220074236
 31
0.0
  0
SPLINE
  5
B8
330
1F
100
AcDbEntity
  8
0
  6
Continuous
 62
     7
370
    25
100
AcDbSpline
210
0.0
220
0.0
230
1.0
 70
     8
 71
     3
 72
    20
 73
    16
 74
     0
 42
0.00000001
 43
0.00000001
 40
0.0
 40
0.0
 40
0.0
 40
0.0
 40
0.1258237059362091
 40
0.2498274043302739
 40
0.3308242993088513
 40
0.4142859761699194
 40
0.5002669681546928
 40
0.5614149837572028
 40
0.6251584968952411
 40
0.6857326632659135
 40
0.7502835080378102
 40
0.8089082124610538
 40
0.8746688375443937
 40
0.9262270931581499
 40
1.0
 40
1.0
 40
1.0
 40
1.0
 10
366.190936471282
 20
465.2200742359584
 30
0.0
 10
366.3771504290551
 20
465.2422749074228
 30
0.0
 10
366.7468848075996
 20
465.2863551233496
 30
0.0
 10
368.2094848751532
 20
465.0931687103625
 30
0.0
 10
369.9317024796949
 20
464.800160034783
 30
0.0
 10
371.7559709164237
 20
464.4530309079294
 30
0.0
 10
373.7070984856531
 20
464.0538890874323
 30
0.0
 10
375.6798674876817
 20
463.6297149678637
 30
0.0
 10
377.5407711860401
 20
463.216950637794
 30
0.0
 10
379.5456851002667
 20
462.7598651400616
 30
0.0
 10
381.5882603629454
 20
462.2841147639036
 30
0.0
 10
383.7628057153593
 20
461.7673688950117
 30
0.0
 10
385.8437436872691
 20
461.2656380069926
 30
0.0
 10
388.1410943492721
 20
460.7037601991457
 30
0.0
 10
389.6671655902584
 20
460.3260165693254
 30
0.0
 10
390.5654474643707
 20
460.1036676732742
 30
0.0
  0
LINE
  5
B9
330
1F
100
AcDbEntity
  8
0
  6
Continuous
 62
     7
370
    25
100
AcDbLine
 10
390.5654474644
 20
460.1036676733
 30
0.0
 11
390.5244012174
 21
423.9417944328
 31
0.0
  0
ARC
  5
BA
330
1F
100
AcDbEntity
  8
0
  6
Continuous
 62
     7
370
    25
100
AcDbCircle
 10
385.3621470865
 20
112.6766585234
 30
0.0
 40
311.3079403105871
100
AcDbArc
 50
89.0498509895
 51
93.5216286127
  0
LINE
  5
BB
330
1F
100
AcDbEntity
  8
0
  6
Continuous
 62
     7
370
    25
100
AcDbLine
 10
366.1755318685
 20
465.2127080182
 30
0.0
 11
366.1909364713
 21
465.220074236
 31
0.0
  0
SPLINE
  5
BC
330
1F
100
AcDbEntity
  8
0
  6
Continuous
 62
     7
370
    25
100
AcDbSpline
210
0.0
220
0.0
230
1.0
 70
     8
 71
     3
 72
    15
 73
    11
 74
     0
 42
0.00000001
 43
0.00000001
 40
0.0
 40
0.0
 40
0.0
 40
0.0
 40
0.1250113491964499
 40
0.2500131191738829
 40
0.3750082557931617
 40
0.4999999995703736
 40
0.6249917433631846
 40
0.7499868800288287
 40
0.8749886511069087
 40
1.0
 40
1.0
 40
1.0
 40
1.0
 10
524.1788063426367
 20
465.2200742359594
 30
0.0
 10
524.104040148196
 20
466.4613317618177
 30
0.0
 10
523.9545134884088
 20
468.9437516999487
 30
0.0
 10
522.8186266023936
 20
472.5248898966009
 30
0.0
 10
521.0599945682505
 20
475.8267037318688
 30
0.0
 10
518.6794681539029
 20
478.721215846356
 30
0.0
 10
515.7858177144818
 20
481.102087967488
 30
0.0
 10
512.4853581288795
 20
482.8605238909015
 30
0.0
 10
508.9059881539641
 20
483.9957219771426
 30
0.0
 10
506.4250414691971
 20
484.1443775490317
 30
0.0
 10
505.1845206052106
 20
484.218708182418
 30
0.0
  0
SPLINE
  5
BD
330
1F
100
AcDbEntity
  8
0
  6
Continuous
 62
     7
370
    25
100
AcDbSpline
210
0.0
220
0.0
230
1.0
 70
     8
 71
     3
 72
    15
 73
    11
 74
     0
 42
0.00000001
 43
0.00000001
 40
0.0
 40
0.0
 40
0.0
 40
0.0
 40
0.1250113499314235
 40
0.2500131191725227
 40
0.3750082557857873
 40
0.4999999995617445
 40
0.6249917433558129
 40
0.7499868800274649
 40
0.8749886518418833
 40
1.0
 40
1.0
 40
1.0
 40
1.0
 10
385.1852222087065
 20
484.218708182418
 30
0.0
 10
383.9447013343575
 20
484.1443775479216
 30
0.0
 10
381.4637546573978
 20
483.9957219755217
 30
0.0
 10
377.8843846916296
 20
482.8605238916551
 30
0.0
 10
374.5839251204553
 20
481.1020879814942
 30
0.0
 10
371.6902746782616
 20
478.7212158646063
 30
0.0
 10
369.3097482596737
 20
475.8267037528955
 30
0.0
 10
367.5511162122806
 20
472.5248899031952
 30
0.0
 10
366.4152293238888
 20
468.9437516973921
 30
0.0
 10
366.265702664609
 20
466.4613317514485
 30
0.0
 10
366.190936471282
 20
465.2200742359587
 30
0.0
  0
SPLINE
  5
BE
330
1F
100
AcDbEntity
  8
0
  6
Continuous
 62
     7
370
    25
100
AcDbSpline
210
0.0
220
0.0
230
1.0
 70
     8
 71
     3
 72
     9
 73
     5
 74
     0
 42
0.00000001
 43
0.00000001
 40
0.0
 40
0.0
 40
0.0
 40
0.0
 40
0.7923136092253543
 40
1.0
 40
1.0
 40
1.0
 40
1.0
 10
499.8453415964713
 20
336.4836216034868
 30
0.0
 10
499.8756077426693
 20
342.2756671546512
 30
0.0
 10
499.9138074477428
 20
349.5859613156052
 30
0.0
 10
499.9474759112578
 20
356.8971086488271
 30
0.0
 10
499.9544683929281
 20
358.4155344508856
 30
0.0
  0
LINE
  5
BF
330
1F
100
AcDbEntity
  8
0
  6
Continuous
 62
     7
370
    25
100
AcDbLine
 10
501.4045818021
 20
362.7626418519
 30
0.0
 11
499.9544683929
 21
358.4155344509
 31
0.0
  0
LWPOLYLINE
  5
C0
330
1F
100
AcDbEntity
  8
0
  6
Continuous
 62
     7
370
    25
100
AcDbPolyline
 90
       13
 70
   128
 43
0.0
 10
501.4045818021
 20
362.7626418519
 10
504.3439178611
 20
362.7689983692
 10
507.209687495
 20
362.7789847716
 10
509.9613689484
 20
362.7924598522
 10
512.5600536638
 20
362.8092330744
 10
514.9689964456
 20
362.8290672663
 10
517.1541350336
 20
362.8516819738
 10
519.0845717417
 20
362.8767574269
 10
520.7330103479
 20
362.9039390606
 10
522.0761420611
 20
362.9328425288
 10
523.0949751052
 20
362.9630591387
 10
523.7751032619
 20
362.9941616299
 10
524.106909573
 20
363.0257102155
  0
SPLINE
  5
C1
330
1F
100
AcDbEntity
  8
0
  6
Continuous
 62
     7
370
    25
100
AcDbSpline
210
0.0
220
0.0
230
1.0
 70
     8
 71
     3
 72
     9
 73
     5
 74
     0
 42
0.00000001
 43
0.00000001
 40
0.0
 40
0.0
 40
0.0
 40
0.0
 40
0.7923136092265172
 40
1.0
 40
1.0
 40
1.0
 40
1.0
 10
390.5244012174488
 20
423.9417944328241
 30
0.0
 10
390.4941350712502
 20
418.1497488816589
 30
0.0
 10
390.4559353661762
 20
410.8394547207147
 30
0.0
 10
390.4222669026611
 20
403.5283073875034
 30
0.0
 10
390.4152744209908
 20
402.0098815854554
 30
0.0
  0
LINE
  5
C2
330
1F
100
AcDbEntity
  8
0
  6
Continuous
 62
     7
370
    25
100
AcDbLine
 10
388.9651610118
 20
397.6627741844
 30
0.0
 11
390.415274421
 21
402.0098815855
 31
0.0
  0
LWPOLYLINE
  5
C3
330
1F
100
AcDbEntity
  8
0
  6
Continuous
 62
     7
370
    25
100
AcDbPolyline
 90
       13
 70
   128
 43
0.0
 10
366.2628332409
 20
397.3997058208
 10
366.594639552
 20
397.4312544064
 10
367.2747677087
 20
397.4623568976
 10
368.2936007529
 20
397.4925735075
 10
369.636732466
 20
397.5214769757
 10
371.2851710722
 20
397.5486586094
 10
373.2156077803
 20
397.5737340625
 10
375.4007463684
 20
397.5963487701
 10
377.8096891501
 20
397.6161829619
 10
380.4083738655
 20
397.6329561842
 10
383.160055319
 20
397.6464312648
 10
386.0258249528
 20
397.6564176672
 10
388.9651610118
 20
397.6627741844
  0
LWPOLYLINE
  5
C4
330
1F
100
AcDbEntity
  8
0
  6
Continuous
 62
     7
370
    25
100
AcDbPolyline
 90
       13
 70
   128
 43
0.0
 10
366.2628332409
 20
363.0257102156
 10
366.594639552
 20
362.9941616299
 10
367.2747677087
 20
362.9630591387
 10
368.2936007529
 20
362.9328425288
 10
369.636732466
 20
362.9039390606
 10
371.2851710722
 20
362.8767574269
 10
373.2156077803
 20
362.8516819738
 10
375.4007463684
 20
362.8290672663
 10
377.8096891501
 20
362.8092330744
 10
380.4083738655
 20
362.7924598522
 10
383.160055319
 20
362.7789847716
 10
386.0258249528
 20
362.7689983692
 10
388.9651610118
 20
362.7626418519
  0
LINE
  5
C5
330
1F
100
AcDbEntity
  8
0
  6
Continuous
 62
     7
370
    25
100
AcDbLine
 10
390.415274421
 20
358.4155344509
 30
0.0
 11
388.9651610118
 21
362.7626418519
 31
0.0
  0
LINE
  5
C6
330
1F
100
AcDbEntity
  8
0
  6
Continuous
 62
     7
370
    25
100
AcDbLine
 10
390.415274421
 20
358.4155344509
 30
0.0
 11
390.5244012174
 21
336.4836216035
 31
0.0
  0
LWPOLYLINE
  5
C7
330
1F
100
AcDbEntity
  8
0
  6
Continuous
 62
     7
370
    25
100
AcDbPolyline
 90
       13
 70
   128
 43
0.0
 10
501.4045818021
 20
397.6627741844
 10
504.3439178611
 20
397.6564176671
 10
507.209687495
 20
397.6464312648
 10
509.9613689484
 20
397.6329561841
 10
512.5600536638
 20
397.6161829619
 10
514.9689964455
 20
397.5963487701
 10
517.1541350336
 20
397.5737340625
 10
519.0845717417
 20
397.5486586094
 10
520.7330103479
 20
397.5214769757
 10
522.0761420611
 20
397.4925735075
 10
523.0949751052
 20
397.4623568976
 10
523.7751032619
 20
397.4312544064
 10
524.106909573
 20
397.3997058207
  0
LINE
  5
C8
330
1F
100
AcDbEntity
  8
0
  6
Continuous
 62
     7
370
    25
100
AcDbLine
 10
499.9544683929
 20
402.0098815854
 30
0.0
 11
501.4045818021
 21
397.6627741844
 31
0.0
  0
LINE
  5
C9
330
1F
100
AcDbEntity
  8
0
  6
Continuous
 62
     7
370
    25
100
AcDbLine
 10
499.9544683929
 20
402.0098815854
 30
0.0
 11
499.8453415965
 21
423.9417944328
 31
0.0
  0
SPLINE
  5
CA
330
1F
100
AcDbEntity
  8
0
  6
Continuous
 62
     7
370
    25
100
AcDbSpline
210
0.0
220
0.0
230
1.0
 70
     8
 71
     3
 72
    13
 73
     9
 74
     0
 42
0.00000001
 43
0.00000001
 40
0.0
 40
0.0
 40
0.0
 40
0.0
 40
0.1469432005744791
 40
0.2938841073259587
 40
0.445114697815388
 40
0.5963449041424981
 40
0.796847091553904
 40
1.0
 40
1.0
 40
1.0
 40
1.0
 10
501.404581802124
 20
397.6627741843904
 30
0.0
 10
501.848725498943
 20
395.9878475442985
 30
0.0
 10
502.7370059593781
 20
392.6380204101712
 30
0.0
 10
503.5460765304349
 20
387.4454833452018
 30
0.0
 10
503.947128208879
 20
382.1577269271077
 30
0.0
 10
503.8682631809382
 20
376.2249144213241
 30
0.0
 10
503.1781154483841
 20
369.6989430468575
 30
0.0
 10
501.9983421281448
 20
365.0848422046251
 30
0.0
 10
501.4045818021302
 20
362.7626418519409
 30
0.0
  0
SPLINE
  5
CB
330
1F
100
AcDbEntity
  8
0
  6
Continuous
 62
     7
370
    25
100
AcDbSpline
210
0.0
220
0.0
230
1.0
 70
     8
 71
     3
 72
    13
 73
     9
 74
     0
 42
0.00000001
 43
0.00000001
 40
0.0
 40
0.0
 40
0.0
 40
0.0
 40
0.1469432005743956
 40
0.2938841073257912
 40
0.4451146978151341
 40
0.5963449041421577
 40
0.7968470915537195
 40
1.0
 40
1.0
 40
1.0
 40
1.0
 10
388.9651610117949
 20
362.7626418519192
 30
0.0
 10
388.5210173149758
 20
364.4375684920113
 30
0.0
 10
387.6327368545406
 20
367.7873956261386
 30
0.0
 10
386.823666283484
 20
372.9799326911077
 30
0.0
 10
386.4226146050397
 20
378.267689109202
 30
0.0
 10
386.5014796329806
 20
384.2005016149889
 30
0.0
 10
387.1916273655359
 20
390.7264729894619
 30
0.0
 10
388.3714006857782
 20
395.3405738317005
 30
0.0
 10
388.9651610117941
 20
397.6627741843881
 30
0.0
  0
ARC
  5
CC
330
1F
100
AcDbEntity
  8
0
  6
Continuous
 62
     7
370
    25
100
AcDbCircle
 10
445.184871407
 20
380.2127080182
 30
0.0
 40
70.00000000000004
100
AcDbArc
 50
218.6602622186
 51
321.3397377814
  0
ARC
  5
CD
330
1F
100
AcDbEntity
  8
0
  6
Continuous
 62
     7
370
    25
100
AcDbCircle
 10
383.4541752594
 20
378.7951513036
 30
0.0
 40
19.6559954500909
100
AcDbArc
 50
69.7354800181
 51
73.7176071175
  0
SPLINE
  5
CE
330
1F
100
AcDbEntity
  8
0
  6
Continuous
 62
     7
370
    25
100
AcDbSpline
210
0.0
220
0.0
230
1.0
 70
     8
 71
     3
 72
    13
 73
     9
 74
     0
 42
0.00000001
 43
0.00000001
 40
0.0
 40
0.0
 40
0.0
 40
0.0
 40
0.1381090453208641
 40
0.2762182853529067
 40
0.4183393515909899
 40
0.5604604460263488
 40
0.7783004899418539
 40
0.9999999999999999
 40
0.9999999999999999
 40
0.9999999999999999
 40
0.9999999999999999
 10
390.2621237072153
 20
397.2345112454932
 30
0.0
 10
389.827826020711
 20
395.703809370135
 30
0.0
 10
388.9592300354137
 20
392.6424034613793
 30
0.0
 10
388.1357297118033
 20
387.8879141808175
 30
0.0
 10
387.6822922255254
 20
383.0399634549141
 30
0.0
 10
387.6544912135272
 20
377.2542396532536
 30
0.0
 10
388.2859387945083
 20
370.5551337107415
 30
0.0
 10
389.5995505914352
 20
365.6599754073457
 30
0.0
 10
390.2621237072161
 20
363.1909047908138
 30
0.0
  0
ARC
  5
CF
330
1F
100
AcDbEntity
  8
0
  6
Continuous
 62
     7
370
    25
100
AcDbCircle
 10
383.4541752592
 20
381.6302647335
 30
0.0
 40
19.65599545097281
100
AcDbArc
 50
286.2823928826
 51
290.2645199818
  0
SPLINE
  5
D0
330
1F
100
AcDbEntity
  8
0
  6
Continuous
 62
     7
370
    25
100
AcDbSpline
210
0.0
220
0.0
230
1.0
 70
     8
 71
     3
 72
    13
 73
     9
 74
     0
 42
0.00000001
 43
0.00000001
 40
0.0
 40
0.0
 40
0.0
 40
0.0
 40
0.1381090453209418
 40
0.2762182853530625
 40
0.4183393515912265
 40
0.560460446026667
 40
0.7783004899420173
 40
0.9999999999999999
 40
0.9999999999999999
 40
0.9999999999999999
 40
0.9999999999999999
 10
500.1076191067092
 20
363.1909047908348
 30
0.0
 10
500.5419167932129
 20
364.7216066661932
 30
0.0
 10
501.4105127785093
 20
367.7830125749491
 30
0.0
 10
502.234013102118
 20
372.5375018555113
 30
0.0
 10
502.6874505883943
 20
377.3854525814148
 30
0.0
 10
502.7152516003907
 20
383.1711763830723
 30
0.0
 10
502.0838040194084
 20
389.8702823255776
 30
0.0
 10
500.770192222483
 20
394.765440628967
 30
0.0
 10
500.1076191067028
 20
397.2345112454958
 30
0.0
  0
ARC
  5
D1
330
1F
100
AcDbEntity
  8
0
  6
Continuous
 62
     7
370
    25
100
AcDbCircle
 10
506.9155675548
 20
378.7951513027
 30
0.0
 40
19.65599545106657
100
AcDbArc
 50
106.2823928826
 51
110.2645199818
  0
ARC
  5
D2
330
1F
100
AcDbEntity
  8
0
  6
Continuous
 62
     7
370
    25
100
AcDbCircle
 10
506.9155675548
 20
381.6302647338
 30
0.0
 40
19.65599545119422
100
AcDbArc
 50
249.7354800182
 51
253.7176071174
  0
ARC
  5
D3
330
1F
100
AcDbEntity
  8
0
  6
Continuous
 62
     7
370
    25
100
AcDbCircle
 10
445.184871407
 20
380.2127080182
 30
0.0
 40
69.99999999999997
100
AcDbArc
 50
38.6602622186
 51
141.3397377814
  0
ARC
  5
D4
330
1F
100
AcDbEntity
  8
0
  6
Continuous
 62
     7
370
    25
100
AcDbCircle
 10
445.184871407
 20
380.2127080182
 30
0.0
 40
58.94765075495759
100
AcDbArc
 50
21.7015386848
 51
158.2984613152
  0
ARC
  5
D5
330
1F
100
AcDbEntity
  8
0
  6
Continuous
 62
     7
370
    25
100
AcDbCircle
 10
445.184871407
 20
380.2127080182
 30
0.0
 40
58.94765075494605
100
AcDbArc
 50
201.7015386848
 51
338.2984613152
  0
LINE
  5
D6
330
1F
100
AcDbEntity
  8
0
  6
Continuous
 62
     7
370
    25
100
AcDbLine
 10
391.7603195146
 20
401.4745812916
 30
0.0
 11
390.415274421
 21
402.0098815855
 31
0.0
  0
LINE
  5
D7
330
1F
100
AcDbEntity
  8
0
  6
Continuous
 62
     7
370
    25
100
AcDbLine
 10
391.7603195146
 20
401.4745812916
 30
0.0
 11
390.2621237072
 21
397.2345112455
 31
0.0
  0
LINE
  5
D8
330
1F
100
AcDbEntity
  8
0
  6
Continuous
 62
     7
370
    25
100
AcDbLine
 10
499.9544683929
 20
358.4155344509
 30
0.0
 11
498.6094232994
 21
358.9508347447
 31
0.0
  0
LINE
  5
D9
330
1F
100
AcDbEntity
  8
0
  6
Continuous
 62
     7
370
    25
100
AcDbLine
 10
498.6094232994
 20
358.9508347447
 30
0.0
 11
500.1076191067
 21
363.1909047908
 31
0.0
  0
LINE
  5
DA
330
1F
100
AcDbEntity
  8
0
  6
Continuous
 62
     7
370
    25
100
AcDbLine
 10
390.415274421
 20
358.4155344509
 30
0.0
 11
391.7603195146
 21
358.9508347447
 31
0.0
  0
LINE
  5
DB
330
1F
100
AcDbEntity
  8
0
  6
Continuous
 62
     7
370
    25
100
AcDbLine
 10
390.2621237072
 20
363.1909047908
 30
0.0
 11
391.7603195146
 21
358.9508347447
 31
0.0
  0
LINE
  5
DC
330
1F
100
AcDbEntity
  8
0
  6
Continuous
 62
     7
370
    25
100
AcDbLine
 10
498.6094232994
 20
401.4745812916
 30
0.0
 11
499.9544683929
 21
402.0098815854
 31
0.0
  0
LINE
  5
DD
330
1F
100
AcDbEntity
  8
0
  6
Continuous
 62
     7
370
    25
100
AcDbLine
 10
500.1076191067
 20
397.2345112455
 30
0.0
 11
498.6094232994
 21
401.4745812916
 31
0.0
  0
ARC
  5
DE
330
1F
100
AcDbEntity
  8
0
  6
Continuous
 62
     7
370
    25
100
AcDbCircle
 10
445.184871407
 20
380.2127080182
 30
0.0
 40
57.4999999999998
100
AcDbArc
 50
21.7015386848
 51
158.2984613152
  0
ARC
  5
DF
330
1F
100
AcDbEntity
  8
0
  6
Continuous
 62
     7
370
    25
100
AcDbCircle
 10
445.184871407
 20
380.2127080182
 30
0.0
 40
57.49999999999984
100
AcDbArc
 50
201.7015386848
 51
338.2984613152
  0
CIRCLE
  5
E0
330
1F
100
AcDbEntity
  8
0
  6
Continuous
 62
     7
370
    25
100
AcDbCircle
 10
445.184871407
 20
380.2127080182
 30
0.0
 40
56.58715574274743
  0
CIRCLE
  5
E1
330
1F
100
AcDbEntity
  8
0
  6
Continuous
 62
     7
370
    25
100
AcDbCircle
 10
445.184871407
 20
380.2127080182
 30
0.0
 40
45.00000000000006
  0
LINE
  5
E2
330
1F
100
AcDbEntity
  8
0
  6
Continuous
 62
     7
370
    25
100
AcDbLine
 10
877.184871407
 20
490.1382105661
 30
0.0
 11
587.184871407
 21
490.1382105661
 31
0.0
  0
ARC
  5
E3
330
1F
100
AcDbEntity
  8
0
  6
Continuous
 62
     7
370
    25
100
AcDbCircle
 10
587.184871407
 20
130.2127080182
 30
0.0
 40
24.92550254794045
100
AcDbArc
 50
180.0
 51
270.0
  0
ARC
  5
E4
330
1F
100
AcDbEntity
  8
0
  6
Continuous
 62
     7
370
    25
100
AcDbCircle
 10
877.184871407
 20
465.2127080182
 30
0.0
 40
24.92550254794048
100
AcDbArc
 50
0.0
 51
90.0
  0
ARC
  5
E5
330
1F
100
AcDbEntity
  8
0
  6
Continuous
 62
     7
370
    25
100
AcDbCircle
 10
587.184871407
 20
465.2127080182
 30
0.0
 40
24.92550254794043
100
AcDbArc
 50
90.0
 51
180.0
  0
LINE
  5
E6
330
1F
100
AcDbEntity
  8
0
  6
Continuous
 62
     7
370
    25
100
AcDbLine
 10
587.184871407
 20
105.2872054702
 30
0.0
 11
877.184871407
 21
105.2872054702
 31
0.0
  0
LINE
  5
E7
330
1F
100
AcDbEntity
  8
0
  6
Continuous
 62
     7
370
    25
100
AcDbLine
 10
902.1103739549
 20
130.2127080182
 30
0.0
 11
902.1103739549
 21
465.2127080182
 31
0.0
  0
ARC
  5
E8
330
1F
100
AcDbEntity
  8
0
  6
Continuous
 62
     7
370
    25
100
AcDbCircle
 10
877.184871407
 20
130.2127080182
 30
0.0
 40
24.92550254794048
100
AcDbArc
 50
270.0
 51
0.0
  0
LINE
  5
E9
330
1F
100
AcDbEntity
  8
0
  6
Continuous
 62
     7
370
    25
100
AcDbLine
 10
562.259368859
 20
465.2127080182
 30
0.0
 11
562.259368859
 21
130.2127080182
 31
0.0
  0
SPLINE
  5
EA
330
1F
100
AcDbEntity
  8
0
  6
Continuous
 62
     7
370
    25
100
AcDbSpline
210
0.0
220
0.0
230
1.0
 70
     8
 71
     3
 72
    15
 73
    11
 74
     0
 42
0.00000001
 43
0.00000001
 40
0.0
 40
0.0
 40
0.0
 40
0.0
 40
0.127727225572058
 40
0.2500006214609063
 40
0.3758169317197223
 40
0.5000000007328191
 40
0.6241812956716644
 40
0.7499993797185064
 40
0.8722718134135469
 40
1.0
 40
1.0
 40
1.0
 40
1.0
 10
587.1848714069592
 20
112.65876202675
 30
0.0
 10
586.0126765488912
 20
112.729613879735
 30
0.0
 10
583.7183384257711
 20
112.8682922797281
 30
0.0
 10
580.404761729811
 20
113.9249209166632
 30
0.0
 10
577.3758544657239
 20
115.5393503794538
 30
0.0
 10
574.7083200102669
 20
117.7361336782175
 30
0.0
 10
572.5115231815207
 20
120.40367704508
 30
0.0
 10
570.8970933730025
 20
123.432574979738
 30
0.0
 10
569.8404575838612
 20
126.7461661027495
 30
0.0
 10
569.7017782692493
 20
129.0405042981048
 30
0.0
 10
569.6309254155545
 20
130.2127080181548
 30
0.0
  0
LINE
  5
EB
330
1F
100
AcDbEntity
  8
0
  6
Continuous
 62
     7
370
    25
100
AcDbLine
 10
587.184871407
 20
105.2872054702
 30
0.0
 11
587.184871407
 21
112.6587620268
 31
0.0
  0
LINE
  5
EC
330
1F
100
AcDbEntity
  8
0
  6
Continuous
 62
     7
370
    25
100
AcDbLine
 10
562.259368859
 20
130.2127080182
 30
0.0
 11
569.6309254156
 21
130.2127080182
 31
0.0
  0
LINE
  5
ED
330
1F
100
AcDbEntity
  8
0
  6
Continuous
 62
     7
370
    25
100
AcDbLine
 10
570.1113678341
 20
465.2108100182
 30
0.0
 11
570.1024238395
 21
465.2127080182
 31
0.0
  0
SPLINE
  5
EE
330
1F
100
AcDbEntity
  8
0
  6
Continuous
 62
     7
370
    25
100
AcDbSpline
210
0.0
220
0.0
230
1.0
 70
     8
 71
     3
 72
    14
 73
    10
 74
     0
 42
0.00000001
 43
0.00000001
 40
0.0
 40
0.0
 40
0.0
 40
0.0
 40
0.1421653558241425
 40
0.2843364374989546
 40
0.426500124123032
 40
0.5689494416617653
 40
0.7114078093302308
 40
0.8538541196898948
 40
1.0
 40
1.0
 40
1.0
 40
1.0
 10
569.6309254155545
 20
130.2127080181548
 30
0.0
 10
569.6932995792654
 20
146.0571869505872
 30
0.0
 10
569.8180504188687
 20
177.7467829675516
 30
0.0
 10
569.9639663946583
 20
225.3348230373031
 30
0.0
 10
570.0777159844579
 20
272.985796711866
 30
0.0
 10
570.153306545778
 20
320.69763704217
 30
0.0
 10
570.1865267006749
 20
368.4581840099781
 30
0.0
 10
570.1779254086663
 20
416.6379188466534
 30
0.0
 10
570.1337424913681
 20
448.8820630937097
 30
0.0
 10
570.111367834146
 20
465.2108100182043
 30
0.0
  0
LINE
  5
EF
330
1F
100
AcDbEntity
  8
0
  6
Continuous
 62
     7
370
    25
100
AcDbLine
 10
562.259368859
 20
465.2127080182
 30
0.0
 11
570.1024238395
 21
465.2127080182
 31
0.0
  0
SPLINE
  5
F0
330
1F
100
AcDbEntity
  8
0
  6
Continuous
 62
     7
370
    25
100
AcDbSpline
210
0.0
220
0.0
230
1.0
 70
     8
 71
     3
 72
    15
 73
    11
 74
     0
 42
0.00000001
 43
0.00000001
 40
0.0
 40
0.0
 40
0.0
 40
0.0
 40
0.1277272124220036
 40
0.2500006214662508
 40
0.3758169059605628
 40
0.5000000007414171
 40
0.624181268644376
 40
0.7499993797240048
 40
0.8722717988525042
 40
1.0
 40
1.0
 40
1.0
 40
1.0
 10
570.1024238395173
 20
465.2127080181547
 30
0.0
 10
570.1713726006789
 20
466.3534176420783
 30
0.0
 10
570.3063260911125
 20
468.5861299160394
 30
0.0
 10
571.3345736176246
 20
471.8107038437048
 30
0.0
 10
572.9056395485563
 20
474.7582548817003
 30
0.0
 10
575.0434171202342
 20
477.3541393128483
 30
0.0
 10
577.6393104815203
 20
479.4919304430654
 30
0.0
 10
580.5868521775785
 20
481.0629967245084
 30
0.0
 10
583.8114405639124
 20
482.0912514163322
 30
0.0
 10
586.044152910409
 20
482.2262058225141
 30
0.0
 10
587.184871406959
 20
482.2951555855968
 30
0.0
  0
LINE
  5
F1
330
1F
100
AcDbEntity
  8
0
  6
Continuous
 62
     7
370
    25
100
AcDbLine
 10
587.184871407
 20
490.1382105661
 30
0.0
 11
587.184871407
 21
482.2951555856
 31
0.0
  0
SPLINE
  5
F2
330
1F
100
AcDbEntity
  8
0
  6
Continuous
 62
     7
370
    25
100
AcDbSpline
210
0.0
220
0.0
230
1.0
 70
     8
 71
     3
 72
    15
 73
    11
 74
     0
 42
0.00000001
 43
0.00000001
 40
0.0
 40
0.0
 40
0.0
 40
0.0
 40
0.1203969716547334
 40
0.240793319058945
 40
0.3612955072028615
 40
0.4817982483628453
 40
0.6113057324163225
 40
0.74081386611472
 40
0.8704068237473351
 40
1.0
 40
1.0
 40
1.0
 40
1.0
 10
894.2583749797876
 20
465.210810027545
 30
0.0
 10
894.2394518743469
 20
451.7593158027649
 30
0.0
 10
894.2016057615805
 20
424.8563970983332
 30
0.0
 10
894.183241551323
 20
384.4755833297945
 30
0.0
 10
894.1959341938172
 20
344.083083851793
 30
0.0
 10
894.2416837250179
 20
302.6806278851894
 30
0.0
 10
894.3197658780794
 20
260.2886583413077
 30
0.0
 10
894.4306175370691
 20
216.9066563786026
 30
0.0
 10
894.5676393325807
 20
173.5417443888296
 30
0.0
 10
894.6817580110171
 20
144.6557282633694
 30
0.0
 10
894.7388173983642
 20
130.2127080181548
 30
0.0
  0
LINE
  5
F3
330
1F
100
AcDbEntity
  8
0
  6
Continuous
 62
     7
370
    25
100
AcDbLine
 10
894.2673189744
 20
465.2127080182
 30
0.0
 11
894.2583749798
 21
465.2108100275
 31
0.0
  0
LINE
  5
F4
330
1F
100
AcDbEntity
  8
0
  6
Continuous
 62
     7
370
    25
100
AcDbLine
 10
902.1103739549
 20
465.2127080182
 30
0.0
 11
894.2673189744
 21
465.2127080182
 31
0.0
  0
LINE
  5
F5
330
1F
100
AcDbEntity
  8
0
  6
Continuous
 62
     7
370
    25
100
AcDbLine
 10
902.1103739549
 20
130.2127080182
 30
0.0
 11
894.7388173984
 21
130.2127080182
 31
0.0
  0
LINE
  5
F6
330
1F
100
AcDbEntity
  8
0
  6
Continuous
 62
     7
370
    25
100
AcDbLine
 10
587.1890476762
 20
112.67164957
 30
0.0
 11
587.184871407
 21
112.6587620268
 31
0.0
  0
SPLINE
  5
F7
330
1F
100
AcDbEntity
  8
0
  6
Continuous
 62
     7
370
    25
100
AcDbSpline
210
0.0
220
0.0
230
1.0
 70
     8
 71
     3
 72
    13
 73
     9
 74
     0
 42
0.00000001
 43
0.00000001
 40
0.0
 40
0.0
 40
0.0
 40
0.0
 40
0.1664861396825426
 40
0.3329812993316086
 40
0.4994660550566635
 40
0.6663067480585365
 40
0.833157913551422
 40
1.0
 40
1.0
 40
1.0
 40
1.0
 10
877.1806951313258
 20
112.6716495700198
 30
0.0
 10
861.0955454088769
 20
112.7067317287527
 30
0.0
 10
828.9243744949649
 20
112.776897946917
 30
0.0
 10
780.6369127598546
 20
112.8342619093248
 30
0.0
 10
732.3053585196542
 20
112.855302731904
 30
0.0
 10
683.9393378751797
 20
112.8344572719871
 30
0.0
 10
635.5485666062643
 20
112.7770995625112
 30
0.0
 10
603.3085949271398
 20
112.7067989299323
 30
0.0
 10
587.1890476762056
 20
112.6716495700044
 30
0.0
  0
LINE
  5
F8
330
1F
100
AcDbEntity
  8
0
  6
Continuous
 62
     7
370
    25
100
AcDbLine
 10
877.184871407
 20
112.6587620268
 30
0.0
 11
877.1806951313
 21
112.67164957
 31
0.0
  0
LINE
  5
F9
330
1F
100
AcDbEntity
  8
0
  6
Continuous
 62
     7
370
    25
100
AcDbLine
 10
877.184871407
 20
105.2872054702
 30
0.0
 11
877.184871407
 21
112.6587620268
 31
0.0
  0
LINE
  5
FA
330
1F
100
AcDbEntity
  8
0
  6
Continuous
 62
     7
370
    25
100
AcDbLine
 10
707.934871407
 20
488.4895203575
 30
0.0
 11
707.934871407
 21
487.3381293202
 31
0.0
  0
ARC
  5
FB
330
1F
100
AcDbEntity
  8
0
  6
Continuous
 62
     7
370
    25
100
AcDbCircle
 10
708.68555617
 20
492.1018759835
 30
0.0
 40
4.822531481008024
100
AcDbArc
 50
261.0448095014
 51
272.9633983002
  0
LINE
  5
FC
330
1F
100
AcDbEntity
  8
0
  6
Continuous
 62
     7
370
    25
100
AcDbLine
 10
708.934871407
 20
487.2857933639
 30
0.0
 11
755.434871407
 21
487.2857933639
 31
0.0
  0
ARC
  5
FD
330
1F
100
AcDbEntity
  8
0
  6
Continuous
 62
     7
370
    25
100
AcDbCircle
 10
755.6841866439
 20
492.1018759834
 30
0.0
 40
4.822531481002616
100
AcDbArc
 50
267.0366016998
 51
278.9551904986
  0
LINE
  5
FE
330
1F
100
AcDbEntity
  8
0
  6
Continuous
 62
     7
370
    25
100
AcDbLine
 10
756.434871407
 20
487.3381293202
 30
0.0
 11
756.434871407
 21
488.4895203575
 31
0.0
  0
ARC
  5
FF
330
1F
100
AcDbEntity
  8
0
  6
Continuous
 62
     7
370
    25
100
AcDbCircle
 10
755.6841866439
 20
483.7257736942
 30
0.0
 40
4.822531481019379
100
AcDbArc
 50
81.0448095014
 51
92.9633983002
  0
LINE
  5
100
330
1F
100
AcDbEntity
  8
0
  6
Continuous
 62
     7
370
    25
100
AcDbLine
 10
755.434871407
 20
488.5418563138
 30
0.0
 11
708.934871407
 21
488.5418563138
 31
0.0
  0
ARC
  5
101
330
1F
100
AcDbEntity
  8
0
  6
Continuous
 62
     7
370
    25
100
AcDbCircle
 10
708.68555617
 20
483.7257736943
 30
0.0
 40
4.822531481007976
100
AcDbArc
 50
87.0366016998
 51
98.9551904986
  0
SPLINE
  5
102
330
1F
100
AcDbEntity
  8
0
  6
Continuous
 62
     7
370
    25
100
AcDbSpline
210
0.0
220
0.0
230
1.0
 70
     8
 71
     3
 72
    14
 73
    10
 74
     0
 42
0.00000001
 43
0.00000001
 40
0.0
 40
0.0
 40
0.0
 40
0.0
 40
0.1416418592737028
 40
0.2832827544648178
 40
0.4250451509087886
 40
0.5668053210537426
 40
0.675077894007785
 40
0.783351447123417
 40
1.0
 40
1.0
 40
1.0
 40
1.0
 10
587.184871406959
 20
482.2951555855968
 30
0.0
 10
600.8677480901965
 20
482.2600791649458
 30
0.0
 10
628.2334083244351
 20
482.1899265623906
 30
0.0
 10
669.3208502410845
 20
482.1176495378775
 30
0.0
 10
710.4349425698433
 20
482.0755033800062
 30
0.0
 10
748.3308232589899
 20
482.0735987034922
 30
0.0
 10
782.9810048239557
 20
482.103912362266
 30
0.0
 10
824.8631891906052
 20
482.1651460727482
 30
0.0
 10
856.2542383480741
 20
482.2431469097987
 30
0.0
 10
877.1848714069594
 20
482.2951555855968
 30
0.0
  0
LINE
  5
103
330
1F
100
AcDbEntity
  8
0
  6
Continuous
 62
     7
370
    25
100
AcDbLine
 10
877.184871407
 20
490.1382105661
 30
0.0
 11
877.184871407
 21
482.2951555856
 31
0.0
  0
SPLINE
  5
104
330
1F
100
AcDbEntity
  8
0
  6
Continuous
 62
     7
370
    25
100
AcDbSpline
210
0.0
220
0.0
230
1.0
 70
     8
 71
     3
 72
    15
 73
    11
 74
     0
 42
0.00000001
 43
0.00000001
 40
0.0
 40
0.0
 40
0.0
 40
0.0
 40
0.1277272255748724
 40
0.2500006214609045
 40
0.3758169311157525
 40
0.5000000007328542
 40
0.6241812950806336
 40
0.7499993797184921
 40
0.8722718134307287
 40
1.0
 40
1.0
 40
1.0
 40
1.0
 10
894.7388173983642
 20
130.2127080181548
 30
0.0
 10
894.6679655453795
 20
129.0405131600622
 30
0.0
 10
894.5292871453905
 20
126.7461750369446
 30
0.0
 10
893.4726585100992
 20
123.4325983462939
 30
0.0
 10
891.8582290488837
 20
120.4036910816854
 30
0.0
 10
889.6614457546394
 20
117.736156629188
 30
0.0
 10
886.9939023846973
 20
115.539359795872
 30
0.0
 10
883.9650044504333
 20
113.9249299857484
 30
0.0
 10
880.6514133222089
 20
112.8682941950325
 30
0.0
 10
878.3570751268522
 20
112.7296148804304
 30
0.0
 10
877.1848714069594
 20
112.65876202675
 30
0.0
  0
SPLINE
  5
105
330
1F
100
AcDbEntity
  8
0
  6
Continuous
 62
     7
370
    25
100
AcDbSpline
210
0.0
220
0.0
230
1.0
 70
     8
 71
     3
 72
    15
 73
    11
 74
     0
 42
0.00000001
 43
0.00000001
 40
0.0
 40
0.0
 40
0.0
 40
0.0
 40
0.127727211702699
 40
0.2500006214663412
 40
0.375816905314181
 40
0.5000000007414284
 40
0.6241812692474722
 40
0.7499993797239385
 40
0.8722717995237484
 40
1.0
 40
1.0
 40
1.0
 40
1.0
 10
877.1848714069594
 20
482.2951555855968
 30
0.0
 10
878.3255810244304
 20
482.22620682516
 30
0.0
 10
880.5582932983366
 20
482.091253335385
 30
0.0
 10
883.7828672213122
 20
481.0630058122784
 30
0.0
 10
886.7304182655062
 20
479.4919398798687
 30
0.0
 10
889.3263027021678
 20
477.3541623059405
 30
0.0
 10
891.4640938349588
 20
474.7582689389296
 30
0.0
 10
893.0351601177816
 20
471.8107272370872
 30
0.0
 10
894.0634148064282
 20
468.5861388551293
 30
0.0
 10
894.1983692119952
 20
466.3534265086837
 30
0.0
 10
894.2673189744014
 20
465.2127080181548
 30
0.0
  0
LINE
  5
106
330
1F
100
AcDbEntity
  8
0
  6
Continuous
 62
     7
370
    25
100
AcDbLine
 10
708.934871407
 20
487.2857933639
 30
0.0
 11
708.934871407
 21
488.0846969917
 31
0.0
  0
ARC
  5
107
330
1F
100
AcDbEntity
  8
0
  6
Continuous
 62
     7
370
    25
100
AcDbCircle
 10
708.68555617
 20
492.9007796113
 30
0.0
 40
4.822531481007919
100
AcDbArc
 50
261.0448095014
 51
272.9633983002
  0
LINE
  5
108
330
1F
100
AcDbEntity
  8
0
  6
Continuous
 62
     7
370
    25
100
AcDbLine
 10
755.434871407
 20
487.2857933639
 30
0.0
 11
755.434871407
 21
488.0846969917
 31
0.0
  0
ARC
  5
109
330
1F
100
AcDbEntity
  8
0
  6
Continuous
 62
     7
370
    25
100
AcDbCircle
 10
755.6841866439
 20
492.9007796113
 30
0.0
 40
4.82253148100256
100
AcDbArc
 50
267.0366016998
 51
278.9551904986
  0
LINE
  5
10A
330
1F
100
AcDbEntity
  8
0
  6
Continuous
 62
     7
370
    25
100
AcDbLine
 10
708.934871407
 20
488.0846969917
 30
0.0
 11
755.434871407
 21
488.0846969917
 31
0.0
  0
LINE
  5
10B
330
1F
100
AcDbEntity
  8
0
  6
Continuous
 62
     7
370
    25
100
AcDbLine
 10
569.6309254156
 20
130.2127080182
 30
0.0
 11
569.6877444676
 21
130.1672035311
 31
0.0
  0
SPLINE
  5
10C
330
1F
100
AcDbEntity
  8
0
  6
Continuous
 62
     7
370
    25
100
AcDbSpline
210
0.0
220
0.0
230
1.0
 70
     8
 71
     3
 72
    20
 73
    16
 74
     0
 42
0.00000001
 43
0.00000001
 40
0.0
 40
0.0
 40
0.0
 40
0.0
 40
0.1238994817808225
 40
0.2498468348127875
 40
0.3327161568940999
 40
0.4158493426865202
 40
0.5003138827337009
 40
0.5610643330988702
 40
0.6244975982562699
 40
0.6852560657042485
 40
0.7501883124678864
 40
0.8087829264722678
 40
0.8744877433555925
 40
0.9261458689734473
 40
1.0
 40
1.0
 40
1.0
 40
1.0
 10
570.111367834146
 20
465.2108100182042
 30
0.0
 10
570.2773524555897
 20
465.2046614788976
 30
0.0
 10
570.6120651735063
 20
465.1922627742188
 30
0.0
 10
572.034673864965
 20
464.8474007984544
 30
0.0
 10
573.7396374490187
 20
464.3818486015099
 30
0.0
 10
575.528253018674
 20
463.8650445174364
 30
0.0
 10
577.417292821425
 20
463.297768160479
 30
0.0
 10
579.3216982458468
 20
462.7111839484645
 30
0.0
 10
581.1301828229437
 20
462.1447246067466
 30
0.0
 10
583.0856092737812
 20
461.522855372877
 30
0.0
 10
585.0807081426739
 20
460.8813732424009
 30
0.0
 10
587.2020259847624
 20
460.1920405458455
 30
0.0
 10
589.2301281189815
 20
459.5290931615849
 30
0.0
 10
591.4722383493969
 20
458.7908793958281
 30
0.0
 10
592.9663525930335
 20
458.2978373437372
 30
0.0
 10
593.8455217839021
 20
458.0077207185548
 30
0.0
  0
SPLINE
  5
10D
330
1F
100
AcDbEntity
  8
0
  6
Continuous
 62
     7
370
    25
100
AcDbSpline
210
0.0
220
0.0
230
1.0
 70
     8
 71
     3
 72
    14
 73
    10
 74
     0
 42
0.00000001
 43
0.00000001
 40
0.0
 40
0.0
 40
0.0
 40
0.0
 40
0.1285392505246244
 40
0.2736230611079025
 40
0.4187183190146119
 40
0.5638047450221952
 40
0.7092001461728284
 40
0.8546029035485715
 40
1.0
 40
1.0
 40
1.0
 40
1.0
 10
593.8455217839022
 20
458.0077207185548
 30
0.0
 10
593.846855055897
 20
444.1922233079037
 30
0.0
 10
593.8496932081579
 20
414.7830064593392
 30
0.0
 10
593.8508976486319
 20
369.7636285982758
 30
0.0
 10
593.8541419285085
 20
322.9701933839717
 30
0.0
 10
593.8392079862498
 20
276.1588361412398
 30
0.0
 10
593.7852994712512
 20
229.3411705545039
 30
0.0
 10
593.6912069128357
 20
182.5194659118455
 30
0.0
 10
593.5943362067418
 20
151.3386443318963
 30
0.0
 10
593.5459017965729
 20
135.7485370363507
 30
0.0
  0
SPLINE
  5
10E
330
1F
100
AcDbEntity
  8
0
  6
Continuous
 62
     7
370
    25
100
AcDbSpline
210
0.0
220
0.0
230
1.0
 70
     8
 71
     3
 72
    17
 73
    13
 74
     0
 42
0.00000001
 43
0.00000001
 40
0.0
 40
0.0
 40
0.0
 40
0.0
 40
0.126619935015933
 40
0.2500906723957797
 40
0.3749952093690982
 40
0.5003472215493815
 40
0.6244895802648522
 40
0.7500856353975301
 40
0.8087095798011519
 40
0.8744284842896032
 40
0.926076969097279
 40
1.0
 40
1.0
 40
1.0
 40
1.0
 10
569.6877444676403
 20
130.1672035311312
 30
0.0
 10
569.9050476157349
 20
130.1079723132161
 30
0.0
 10
570.3342493082952
 20
129.9909830325522
 30
0.0
 10
572.0257568603362
 20
130.1613014066195
 30
0.0
 10
574.3863440050117
 20
130.5745883986008
 30
0.0
 10
577.4110271257326
 20
131.2419651262908
 30
0.0
 10
580.962006368485
 20
132.1288232027469
 30
0.0
 10
584.216964395464
 20
133.0115692836223
 30
0.0
 10
586.9872491513288
 20
133.7975400452241
 30
0.0
 10
588.9909623029292
 20
134.3798857437423
 30
0.0
 10
591.2045847788065
 20
135.0372944878305
 30
0.0
 10
592.6783229419336
 20
135.4849849454028
 30
0.0
 10
593.5459017965729
 20
135.7485370363588
 30
0.0
  0
SPLINE
  5
10F
330
1F
100
AcDbEntity
  8
0
  6
Continuous
 62
     7
370
    25
100
AcDbSpline
210
0.0
220
0.0
230
1.0
 70
     8
 71
     3
 72
    20
 73
    16
 74
     0
 42
0.00000001
 43
0.00000001
 40
0.0
 40
0.0
 40
0.0
 40
0.0
 40
0.1265688428652103
 40
0.2499873607253526
 40
0.3327598806448901
 40
0.4158800365020204
 40
0.5003308538271435
 40
0.5611043053137742
 40
0.624537846098288
 40
0.6852967388849941
 40
0.7501963666869381
 40
0.808793912891766
 40
0.8744838204705034
 40
0.9261733936587782
 40
1.0
 40
1.0
 40
1.0
 40
1.0
 10
587.189047676206
 20
112.6716495700044
 30
0.0
 10
587.1807140425167
 20
112.8375380553809
 30
0.0
 10
587.1642542010258
 20
113.1651860269928
 30
0.0
 10
587.4432700229726
 20
114.5421498482401
 30
0.0
 10
587.8316882225971
 20
116.1705343363801
 30
0.0
 10
588.2766427084428
 20
117.8955865501577
 30
0.0
 10
588.7724073156548
 20
119.7216825536473
 30
0.0
 10
589.2902193834715
 20
121.566404913548
 30
0.0
 10
589.7938348150724
 20
123.321477831315
 30
0.0
 10
590.3500094503779
 20
125.2222083300906
 30
0.0
 10
590.9270078167348
 20
127.1653376749549
 30
0.0
 10
591.5502419637733
 20
129.2354171157986
 30
0.0
 10
592.1528773209653
 20
131.2193676884757
 30
0.0
 10
592.8266514247986
 20
133.4164353637917
 30
0.0
 10
593.2795274012026
 20
134.8848431164747
 30
0.0
 10
593.5459017965732
 20
135.7485370363505
 30
0.0
  0
SPLINE
  5
110
330
1F
100
AcDbEntity
  8
0
  6
Continuous
 62
     7
370
    25
100
AcDbSpline
210
0.0
220
0.0
230
1.0
 70
     8
 71
     3
 72
    13
 73
     9
 74
     0
 42
0.00000001
 43
0.00000001
 40
0.0
 40
0.0
 40
0.0
 40
0.0
 40
0.1532153516038963
 40
0.3335117285126596
 40
0.5138077669700614
 40
0.6942879125043366
 40
0.8747684420969071
 40
1.0
 40
1.0
 40
1.0
 40
1.0
 10
593.5459017965729
 20
135.7485370363507
 30
0.0
 10
607.7003769303655
 20
135.7688253986494
 30
0.0
 10
638.5111502546006
 20
135.8129881193435
 30
0.0
 10
686.0064391000564
 20
135.8455706500991
 30
0.0
 10
736.0319134204516
 20
135.8557597928662
 30
0.0
 10
786.0734425801829
 20
135.8418674615082
 30
0.0
 10
831.0132450124714
 20
135.8068415203573
 30
0.0
 10
859.2549432926144
 20
135.765480229371
 30
0.0
 10
870.8238410173457
 20
135.7485370363507
 30
0.0
  0
SPLINE
  5
111
330
1F
100
AcDbEntity
  8
0
  6
Continuous
 62
     7
370
    25
100
AcDbSpline
210
0.0
220
0.0
230
1.0
 70
     8
 71
     3
 72
    17
 73
    13
 74
     0
 42
0.00000001
 43
0.00000001
 40
0.0
 40
0.0
 40
0.0
 40
0.0
 40
0.1266242002821653
 40
0.2500966973960829
 40
0.3750011391746839
 40
0.500351889270606
 40
0.6244925771319284
 40
0.7500871058679431
 40
0.8087091135101023
 40
0.8744289188915386
 40
0.9261485744346062
 40
1.0
 40
1.0
 40
1.0
 40
1.0
 10
877.1806951313258
 20
112.6716495700198
 30
0.0
 10
877.1889603385332
 20
112.8377708289099
 30
0.0
 10
877.2052850301894
 20
113.165878553367
 30
0.0
 10
876.8919857146302
 20
114.7135633948355
 30
0.0
 10
876.3482064080379
 20
116.9427831610136
 30
0.0
 10
875.5665521722353
 20
119.8523230433484
 30
0.0
 10
874.5848591842964
 20
123.3076723721278
 30
0.0
 10
873.6422971254693
 20
126.5022225749475
 30
0.0
 10
872.8195476383838
 20
129.2353175341319
 30
0.0
 10
872.2168344770078
 20
131.2194565784511
 30
0.0
 10
871.5430692609866
 20
133.4165167833495
 30
0.0
 10
871.0901902473585
 20
134.8849282942683
 30
0.0
 10
870.8238410173457
 20
135.7485370363507
 30
0.0
  0
SPLINE
  5
112
330
1F
100
AcDbEntity
  8
0
  6
Continuous
 62
     7
370
    25
100
AcDbSpline
210
0.0
220
0.0
230
1.0
 70
     8
 71
     3
 72
    19
 73
    15
 74
     0
 42
0.00000001
 43
0.00000001
 40
0.0
 40
0.0
 40
0.0
 40
0.0
 40
0.0609285033155397
 40
0.1075851967377201
 40
0.1526973776839469
 40
0.2035645507327382
 40
0.2498915470303145
 40
0.3355022901934809
 40
0.4181341588157986
 40
0.4997559269722094
 40
0.6250820973863707
 40
0.7499608846711033
 40
0.8734061679748588
 40
1.0
 40
1.0
 40
1.0
 40
1.0
 10
870.8238410173457
 20
135.7485370363507
 30
0.0
 10
871.5390879524567
 20
135.5310261370037
 30
0.0
 10
872.8020433516965
 20
135.146953796056
 30
0.0
 10
874.5757272904892
 20
134.6178480585033
 30
0.0
 10
876.2135117732199
 20
134.1364796616626
 30
0.0
 10
877.8209154829872
 20
133.672844981388
 30
0.0
 10
879.8409727147923
 20
133.1012728709339
 30
0.0
 10
882.1294878783859
 20
132.4743472709532
 30
0.0
 10
884.6304388118267
 20
131.8218034645749
 30
0.0
 10
887.3012945581896
 20
131.1664184193664
 30
0.0
 10
889.9836490232301
 20
130.5745204294345
 30
0.0
 10
892.3439202435654
 20
130.1613193413793
 30
0.0
 10
894.0355103417494
 20
129.9909784938351
 30
0.0
 10
894.4647008569505
 20
130.107970791847
 30
0.0
 10
894.6819983462518
 20
130.1672035375048
 30
0.0
  0
SPLINE
  5
113
330
1F
100
AcDbEntity
  8
0
  6
Continuous
 62
     7
370
    25
100
AcDbSpline
210
0.0
220
0.0
230
1.0
 70
     8
 71
     3
 72
    15
 73
    11
 74
     0
 42
0.00000001
 43
0.00000001
 40
0.0
 40
0.0
 40
0.0
 40
0.0
 40
0.1297941873541709
 40
0.2595881683953805
 40
0.3894568310387371
 40
0.5193249251085723
 40
0.6394460709200769
 40
0.7595667430326071
 40
0.8797831318606987
 40
1.0
 40
1.0
 40
1.0
 40
1.0
 10
870.8238410173457
 20
135.7485370363505
 30
0.0
 10
870.7801115503182
 20
149.6652999907613
 30
0.0
 10
870.6926526857734
 20
177.4988037783411
 30
0.0
 10
870.6019101286917
 20
219.2980887184711
 30
0.0
 10
870.5444801659946
 20
261.1295634721068
 30
0.0
 10
870.5206584109701
 20
301.9447842001496
 30
0.0
 10
870.5194353651433
 20
341.7275614621872
 30
0.0
 10
870.5236496791136
 20
380.4806368427309
 30
0.0
 10
870.5185222556896
 20
419.2449545509652
 30
0.0
 10
870.5223214360494
 20
445.0867814905286
 30
0.0
 10
870.5242210300165
 20
458.0077207185548
 30
0.0
  0
SPLINE
  5
114
330
1F
100
AcDbEntity
  8
0
  6
Continuous
 62
     7
370
    25
100
AcDbSpline
210
0.0
220
0.0
230
1.0
 70
     8
 71
     3
 72
    19
 73
    15
 74
     0
 42
0.00000001
 43
0.00000001
 40
0.0
 40
0.0
 40
0.0
 40
0.0
 40
0.0608916764531301
 40
0.1075592781701915
 40
0.1527038169053526
 40
0.2035793155923094
 40
0.249901434402064
 40
0.3355488354048997
 40
0.4181785294456964
 40
0.4997722410757715
 40
0.6250900273305248
 40
0.7500927226125498
 40
0.8760709826323867
 40
1.0
 40
1.0
 40
1.0
 40
1.0
 10
870.5242210300165
 20
458.0077207185548
 30
0.0
 10
871.2489620100569
 20
458.2469286228224
 30
0.0
 10
872.5291471061843
 20
458.6694663326427
 30
0.0
 10
874.3259979477701
 20
459.2613382686744
 30
0.0
 10
875.9846833645693
 20
459.8055496752058
 30
0.0
 10
877.6111211439658
 20
460.336260361211
 30
0.0
 10
879.6530728033111
 20
460.9991120621467
 30
0.0
 10
881.9627178684331
 20
461.7406212036577
 30
0.0
 10
884.4796499300722
 20
462.5352827616622
 30
0.0
 10
887.1571667702036
 20
463.3624653757429
 30
0.0
 10
889.8288561058802
 20
464.1583952751791
 30
0.0
 10
892.1578783051554
 20
464.8046003854923
 30
0.0
 10
893.7569830134296
 20
465.1920547939603
 30
0.0
 10
894.092160477401
 20
465.2045925529411
 30
0.0
 10
894.2583749797876
 20
465.210810027545
 30
0.0
  0
LINE
  5
115
330
1F
100
AcDbEntity
  8
0
  6
Continuous
 62
     7
370
    25
100
AcDbLine
 10
894.6819983463
 20
130.1672035375
 30
0.0
 11
894.7388173984
 21
130.2127080182
 31
0.0
  0
SPLINE
  5
116
330
1F
100
AcDbEntity
  8
0
  6
Continuous
 62
     7
370
    25
100
AcDbSpline
210
0.0
220
0.0
230
1.0
 70
     8
 71
     3
 72
    15
 73
    11
 74
     0
 42
0.00000001
 43
0.00000001
 40
0.0
 40
0.0
 40
0.0
 40
0.0
 40
0.1250485637390564
 40
0.25005604043316
 40
0.3750352282041669
 40
0.500000000414975
 40
0.6249647726227973
 40
0.749943960361817
 40
0.8749514375442707
 40
1.0
 40
1.0
 40
1.0
 40
1.0
 10
587.1890476762056
 20
112.6716495700047
 30
0.0
 10
586.0481315774439
 20
112.7413266885328
 30
0.0
 10
583.7666742492485
 20
112.880658031868
 30
0.0
 10
580.4749560906023
 20
113.928052939155
 30
0.0
 10
577.439174613353
 20
115.5477987668008
 30
0.0
 10
574.7760631635293
 20
117.7392060835793
 30
0.0
 10
572.5827109670121
 20
120.4026670518559
 30
0.0
 10
570.95875195634
 20
123.4411309764791
 30
0.0
 10
569.9051775603583
 20
126.7376011802583
 30
0.0
 10
569.7602301037078
 20
129.0238775325234
 30
0.0
 10
569.6877444676403
 20
130.1672035311312
 30
0.0
  0
SPLINE
  5
117
330
1F
100
AcDbEntity
  8
0
  6
Continuous
 62
     7
370
    25
100
AcDbSpline
210
0.0
220
0.0
230
1.0
 70
     8
 71
     3
 72
    15
 73
    11
 74
     0
 42
0.00000001
 43
0.00000001
 40
0.0
 40
0.0
 40
0.0
 40
0.0
 40
0.1250485647648293
 40
0.2500560396443427
 40
0.3750352273637341
 40
0.4999999995579359
 40
0.6249647717823645
 40
0.7499439595730053
 40
0.8749514385700534
 40
1.0
 40
1.0
 40
1.0
 40
1.0
 10
877.1806951313284
 20
112.6716495700199
 30
0.0
 10
878.3216112399168
 20
112.7413266895923
 30
0.0
 10
880.6030685618512
 20
112.8806580334331
 30
0.0
 10
883.8947867133901
 20
113.9280529389378
 30
0.0
 10
886.9305681786229
 20
115.5477987551244
 30
0.0
 10
889.5936796319197
 20
117.7392060688477
 30
0.0
 10
891.7870318330704
 20
120.4026670355708
 30
0.0
 10
893.410990856387
 20
123.4411309744161
 30
0.0
 10
894.4645652549324
 20
126.7376011877091
 30
0.0
 10
894.6095127111993
 20
129.0238775479126
 30
0.0
 10
894.6819983462518
 20
130.1672035375048
 30
0.0
  0
LINE
  5
118
330
1F
100
AcDbEntity
  8
0
  6
Continuous
 62
     7
370
    25
100
AcDbLine
 10
587.1656755708
 20
482.2610711768
 30
0.0
 11
587.184871407
 21
482.2951555856
 31
0.0
  0
LINE
  5
119
330
1F
100
AcDbEntity
  8
0
  6
Continuous
 62
     7
370
    25
100
AcDbLine
 10
877.2040672525
 20
482.2610711768
 30
0.0
 11
877.184871407
 21
482.2951555856
 31
0.0
  0
SPLINE
  5
11A
330
1F
100
AcDbEntity
  8
0
  6
Continuous
 62
     7
370
    25
100
AcDbSpline
210
0.0
220
0.0
230
1.0
 70
     8
 71
     3
 72
    19
 73
    15
 74
     0
 42
0.00000001
 43
0.00000001
 40
0.0
 40
0.0
 40
0.0
 40
0.0
 40
0.0571951907011247
 40
0.1012386229203414
 40
0.1527044771278959
 40
0.2035799468192273
 40
0.2499049111694473
 40
0.3355521358503265
 40
0.418183514186106
 40
0.4997809440829021
 40
0.6251008314803022
 40
0.7501036376053271
 40
0.8760744652838686
 40
1.0
 40
1.0
 40
1.0
 40
1.0
 10
870.5242210300165
 20
458.0077207185548
 30
0.0
 10
870.7474612082451
 20
458.6897938915891
 30
0.0
 10
871.1426085614982
 20
459.897100798384
 30
0.0
 10
871.7271649479597
 20
461.7031778182408
 30
0.0
 10
872.2762634574925
 20
463.4162860585677
 30
0.0
 10
872.8177920437811
 20
465.1271624705957
 30
0.0
 10
873.4618444435197
 20
467.1873099497228
 30
0.0
 10
874.176483134154
 20
469.5231987896038
 30
0.0
 10
874.9330791997529
 20
472.0776155120072
 30
0.0
 10
875.7089909215979
 20
474.8059217597022
 30
0.0
 10
876.4365108974785
 20
477.5457244288119
 30
0.0
 10
876.9943079826795
 20
479.9631367747468
 30
0.0
 10
877.2857695697567
 20
481.6585970191817
 30
0.0
 10
877.2311523521762
 20
482.0613452305668
 30
0.0
 10
877.204067252463
 20
482.2610711768496
 30
0.0
  0
SPLINE
  5
11B
330
1F
100
AcDbEntity
  8
0
  6
Continuous
 62
     7
370
    25
100
AcDbSpline
210
0.0
220
0.0
230
1.0
 70
     8
 71
     3
 72
    14
 73
    10
 74
     0
 42
0.00000001
 43
0.00000001
 40
0.0
 40
0.0
 40
0.0
 40
0.0
 40
0.2145322134219052
 40
0.3218404806755493
 40
0.4291479606400775
 40
0.5717931378587126
 40
0.7144401314222917
 40
0.8572195843739371
 40
1.0
 40
1.0
 40
1.0
 40
1.0
 10
870.5242210300165
 20
458.0077207185548
 30
0.0
 10
850.7492188328955
 20
457.987417229353
 30
0.0
 10
821.0828292918294
 20
457.9569580054447
 30
0.0
 10
781.4984969101098
 20
457.9915855869199
 30
0.0
 10
748.5378081494983
 20
458.0333798670503
 30
0.0
 10
712.3104091268665
 20
458.0260585779301
 30
0.0
 10
672.8175197813669
 20
457.9772921690627
 30
0.0
 10
633.3255116982937
 20
457.963290889767
 30
0.0
 10
607.0055479984993
 20
457.9929107423409
 30
0.0
 10
593.8455217839021
 20
458.0077207185548
 30
0.0
  0
SPLINE
  5
11C
330
1F
100
AcDbEntity
  8
0
  6
Continuous
 62
     7
370
    25
100
AcDbSpline
210
0.0
220
0.0
230
1.0
 70
     8
 71
     3
 72
    19
 73
    15
 74
     0
 42
0.00000001
 43
0.00000001
 40
0.0
 40
0.0
 40
0.0
 40
0.0
 40
0.057217091938431
 40
0.1012397191517091
 40
0.1527050890721181
 40
0.2035808683506698
 40
0.2499049067935502
 40
0.3355531512428716
 40
0.4181845737194117
 40
0.4997809419083349
 40
0.6251008305048593
 40
0.750103637391396
 40
0.8760750143916406
 40
0.9999999999999999
 40
0.9999999999999999
 40
0.9999999999999999
 40
0.9999999999999999
 10
593.8455217839021
 20
458.0077207185548
 30
0.0
 10
593.6221968478683
 20
458.6900553091209
 30
0.0
 10
593.2270464996479
 20
459.8973757089542
 30
0.0
 10
592.6424887515491
 20
461.7034542391798
 30
0.0
 10
592.09346998171
 20
463.4163169209275
 30
0.0
 10
591.5519450689601
 20
465.1271799509802
 30
0.0
 10
590.9078920298873
 20
467.1873315886179
 30
0.0
 10
590.1932524471133
 20
469.5232211355173
 30
0.0
 10
589.4366584670041
 20
472.0776358197483
 30
0.0
 10
588.660749514597
 20
474.8059304865571
 30
0.0
 10
587.9332323126358
 20
477.5457244676591
 30
0.0
 10
587.3754335524028
 20
479.9631402999697
 30
0.0
 10
587.0839753060385
 20
481.6585989617334
 30
0.0
 10
587.1385912317572
 20
482.0613464662351
 30
0.0
 10
587.1656755707933
 20
482.2610711768236
 30
0.0
  0
SPLINE
  5
11D
330
1F
100
AcDbEntity
  8
0
  6
Continuous
 62
     7
370
    25
100
AcDbSpline
210
0.0
220
0.0
230
1.0
 70
     8
 71
     3
 72
    15
 73
    11
 74
     0
 42
0.00000001
 43
0.00000001
 40
0.0
 40
0.0
 40
0.0
 40
0.0
 40
0.1250258700962933
 40
0.2500298668122468
 40
0.375018780635732
 40
0.4999999995599284
 40
0.6249812185054351
 40
0.7499701323940431
 40
0.874974132428634
 40
1.0
 40
1.0
 40
1.0
 40
1.0
 10
894.2583749797876
 20
465.21081002755
 30
0.0
 10
894.191063081208
 20
466.3235730966881
 30
0.0
 10
894.0564510603222
 20
468.548904556136
 30
0.0
 10
893.0364077779633
 20
471.7595465083747
 30
0.0
 10
891.4576035062661
 20
474.7202202095351
 30
0.0
 10
889.3207535016506
 20
477.3165396168657
 30
0.0
 10
886.7232992700057
 20
479.4534011153194
 30
0.0
 10
883.7603643619246
 20
481.0333889417358
 30
0.0
 10
880.5464901766783
 20
482.0556598387347
 30
0.0
 10
878.3182731869298
 20
482.1925967386581
 30
0.0
 10
877.2040672524629
 20
482.2610711768496
 30
0.0
  0
SPLINE
  5
11E
330
1F
100
AcDbEntity
  8
0
  6
Continuous
 62
     7
370
    25
100
AcDbSpline
210
0.0
220
0.0
230
1.0
 70
     8
 71
     3
 72
    15
 73
    11
 74
     0
 42
0.00000001
 43
0.00000001
 40
0.0
 40
0.0
 40
0.0
 40
0.0
 40
0.1250258690640295
 40
0.2500298676061387
 40
0.3750187814816461
 40
0.5000000004225783
 40
0.6249812193513493
 40
0.7499701331879438
 40
0.8749741313963799
 40
0.9999999999999999
 40
0.9999999999999999
 40
0.9999999999999999
 40
0.9999999999999999
 10
570.111367834146
 20
465.2108100182043
 30
0.0
 10
570.1786797317669
 20
466.3235730787105
 30
0.0
 10
570.3132917522753
 20
468.5489045463359
 30
0.0
 10
571.333335037313
 20
471.7595465084837
 30
0.0
 10
572.9121393216967
 20
474.7202202241321
 30
0.0
 10
575.0489893312638
 20
477.3165396304145
 30
0.0
 10
577.6464435668036
 20
479.4534011262608
 30
0.0
 10
580.6093784636302
 20
481.0333889417192
 30
0.0
 10
583.8232526424707
 20
482.0556598371494
 30
0.0
 10
586.0514696264659
 20
482.1925967375903
 30
0.0
 10
587.1656755707932
 20
482.2610711768236
 30
0.0
  0
CIRCLE
  5
11F
330
1F
100
AcDbEntity
  8
0
  6
Continuous
 62
     7
370
    25
100
AcDbCircle
 10
732.184871407
 20
380.2127080182
 30
0.0
 40
70.00000000000006
  0
CIRCLE
  5
120
330
1F
100
AcDbEntity
  8
0
  6
Continuous
 62
     7
370
    25
100
AcDbCircle
 10
732.184871407
 20
380.2127080182
 30
0.0
 40
58.94765075494621
  0
CIRCLE
  5
121
330
1F
100
AcDbEntity
  8
0
  6
Continuous
 62
     7
370
    25
100
AcDbCircle
 10
732.184871407
 20
380.2127080182
 30
0.0
 40
57.5
  0
CIRCLE
  5
122
330
1F
100
AcDbEntity
  8
0
  6
Continuous
 62
     7
370
    25
100
AcDbCircle
 10
732.184871407
 20
380.2127080182
 30
0.0
 40
56.58715574274765
  0
CIRCLE
  5
123
330
1F
100
AcDbEntity
  8
0
  6
Continuous
 62
     7
370
    25
100
AcDbCircle
 10
732.184871407
 20
380.2127080182
 30
0.0
 40
45.00000000000006
  0
ARC
  5
124
330
1F
100
AcDbEntity
  8
0
  6
Continuous
 62
     7
370
    25
100
AcDbCircle
 10
131.184871407
 20
579.2127080182
 30
0.0
 40
10.00000000000001
100
AcDbArc
 50
90.0
 51
180.0
  0
LINE
  5
125
330
1F
100
AcDbEntity
  8
0
  6
Continuous
 62
     7
370
    25
100
AcDbLine
 10
929.184871407
 20
589.2127080182
 30
0.0
 11
131.184871407
 21
589.2127080182
 31
0.0
  0
ARC
  5
126
330
1F
100
AcDbEntity
  8
0
  6
Continuous
 62
     7
370
    25
100
AcDbCircle
 10
929.184871407
 20
579.2127080182
 30
0.0
 40
10.0
100
AcDbArc
 50
0.0
 51
90.0
  0
LINE
  5
127
330
1F
100
AcDbEntity
  8
0
  6
Continuous
 62
     7
370
    25
100
AcDbLine
 10
939.184871407
 20
79.2127080182
 30
0.0
 11
939.184871407
 21
579.2127080182
 31
0.0
  0
ARC
  5
128
330
1F
100
AcDbEntity
  8
0
  6
Continuous
 62
     7
370
    25
100
AcDbCircle
 10
929.184871407
 20
79.2127080182
 30
0.0
 40
10.0
100
AcDbArc
 50
270.0
 51
0.0
  0
LINE
  5
129
330
1F
100
AcDbEntity
  8
0
  6
Continuous
 62
     7
370
    25
100
AcDbLine
 10
131.184871407
 20
69.2127080182
 30
0.0
 11
929.184871407
 21
69.2127080182
 31
0.0
  0
ARC
  5
12A
330
1F
100
AcDbEntity
  8
0
  6
Continuous
 62
     7
370
    25
100
AcDbCircle
 10
131.184871407
 20
79.2127080182
 30
0.0
 40
10.00000000000001
100
AcDbArc
 50
180.0
 51
270.0
  0
LINE
  5
12B
330
1F
100
AcDbEntity
  8
0
  6
Continuous
 62
     7
370
    25
100
AcDbLine
 10
121.184871407
 20
579.2127080182
 30
0.0
 11
121.184871407
 21
79.2127080182
 31
0.0
  0
LINE
  5
12C
330
1F
100
AcDbEntity
  8
0
  6
Continuous
 62
     7
370
    25
100
AcDbLine
 10
921.184871407
 20
329.2127080182
 30
0.0
 11
921.184871407
 21
548.2127080182
 31
0.0
  0
ARC
  5
12D
330
1F
100
AcDbEntity
  8
0
  6
Continuous
 62
     7
370
    25
100
AcDbCircle
 10
898.184871407
 20
548.2127080182
 30
0.0
 40
23.00000000000011
100
AcDbArc
 50
0.0
 51
90.0
  0
LINE
  5
12E
330
1F
100
AcDbEntity
  8
0
  6
Continuous
 62
     7
370
    25
100
AcDbLine
 10
898.184871407
 20
571.2127080182
 30
0.0
 11
162.184871407
 21
571.2127080182
 31
0.0
  0
ARC
  5
12F
330
1F
100
AcDbEntity
  8
0
  6
Continuous
 62
     7
370
    25
100
AcDbCircle
 10
162.184871407
 20
548.2127080182
 30
0.0
 40
23.00000000000003
100
AcDbArc
 50
90.0
 51
180.0
  0
LINE
  5
130
330
1F
100
AcDbEntity
  8
0
  6
Continuous
 62
     7
370
    25
100
AcDbLine
 10
139.184871407
 20
548.2127080182
 30
0.0
 11
139.184871407
 21
110.2127080182
 31
0.0
  0
ARC
  5
131
330
1F
100
AcDbEntity
  8
0
  6
Continuous
 62
     7
370
    25
100
AcDbCircle
 10
162.184871407
 20
110.2127080182
 30
0.0
 40
23.00000000000003
100
AcDbArc
 50
180.0
 51
270.0
  0
LINE
  5
132
330
1F
100
AcDbEntity
  8
0
  6
Continuous
 62
     7
370
    25
100
AcDbLine
 10
162.184871407
 20
87.2127080182
 30
0.0
 11
898.184871407
 21
87.2127080182
 31
0.0
  0
ARC
  5
133
330
1F
100
AcDbEntity
  8
0
  6
Continuous
 62
     7
370
    25
100
AcDbCircle
 10
898.184871407
 20
110.2127080182
 30
0.0
 40
23.00000000000011
100
AcDbArc
 50
270.0
 51
0.0
  0
LINE
  5
134
330
1F
100
AcDbEntity
  8
0
  6
Continuous
 62
     7
370
    25
100
AcDbLine
 10
921.184871407
 20
110.2127080182
 30
0.0
 11
921.184871407
 21
329.2127080182
 31
0.0
  0
LINE
  5
135
330
1F
100
AcDbEntity
  8
0
  6
Continuous
 62
     7
370
    25
100
AcDbLine
 10
139.184871407
 20
110.2127080182
 30
0.0
 11
139.9509969963
 21
110.2127080182
 31
0.0
  0
LINE
  5
136
330
1F
100
AcDbEntity
  8
0
  6
Continuous
 62
     7
370
    25
100
AcDbLine
 10
139.184871407
 20
548.2127080182
 30
0.0
 11
139.9509969963
 21
548.2127080182
 31
0.0
  0
LINE
  5
137
330
1F
100
AcDbEntity
  8
0
  6
Continuous
 62
     7
370
    25
100
AcDbLine
 10
139.9509969963
 20
548.2127080182
 30
0.0
 11
139.9509969963
 21
110.2127080182
 31
0.0
  0
LINE
  5
138
330
1F
100
AcDbEntity
  8
0
  6
Continuous
 62
     7
370
    25
100
AcDbLine
 10
898.184871407
 20
571.2127080182
 30
0.0
 11
898.184871407
 21
570.4465824288
 31
0.0
  0
LINE
  5
139
330
1F
100
AcDbEntity
  8
0
  6
Continuous
 62
     7
370
    25
100
AcDbLine
 10
921.184871407
 20
548.2127080182
 30
0.0
 11
920.4187458176
 21
548.2127080182
 31
0.0
  0
ARC
  5
13A
330
1F
100
AcDbEntity
  8
0
  6
Continuous
 62
     7
370
    25
100
AcDbCircle
 10
898.184871407
 20
548.2127080182
 30
0.0
 40
22.23387441067962
100
AcDbArc
 50
0.0
 51
90.0
  0
LINE
  5
13B
330
1F
100
AcDbEntity
  8
0
  6
Continuous
 62
     7
370
    25
100
AcDbLine
 10
898.184871407
 20
87.2127080182
 30
0.0
 11
898.184871407
 21
87.9788336075
 31
0.0
  0
LINE
  5
13C
330
1F
100
AcDbEntity
  8
0
  6
Continuous
 62
     7
370
    25
100
AcDbLine
 10
162.184871407
 20
87.2127080182
 30
0.0
 11
162.184871407
 21
87.9788336075
 31
0.0
  0
LINE
  5
13D
330
1F
100
AcDbEntity
  8
0
  6
Continuous
 62
     7
370
    25
100
AcDbLine
 10
162.184871407
 20
87.9788336075
 30
0.0
 11
898.184871407
 21
87.9788336075
 31
0.0
  0
LINE
  5
13E
330
1F
100
AcDbEntity
  8
0
  6
Continuous
 62
     7
370
    25
100
AcDbLine
 10
162.184871407
 20
571.2127080182
 30
0.0
 11
162.184871407
 21
570.4465824288
 31
0.0
  0
ARC
  5
13F
330
1F
100
AcDbEntity
  8
0
  6
Continuous
 62
     7
370
    25
100
AcDbCircle
 10
162.184871407
 20
548.2127080182
 30
0.0
 40
22.23387441067962
100
AcDbArc
 50
90.0
 51
180.0
  0
LINE
  5
140
330
1F
100
AcDbEntity
  8
0
  6
Continuous
 62
     7
370
    25
100
AcDbLine
 10
921.184871407
 20
329.2127080182
 30
0.0
 11
920.4187458176
 21
329.2127080182
 31
0.0
  0
LINE
  5
141
330
1F
100
AcDbEntity
  8
0
  6
Continuous
 62
     7
370
    25
100
AcDbLine
 10
920.4187458176
 20
329.2127080182
 30
0.0
 11
920.4187458176
 21
548.2127080182
 31
0.0
  0
ARC
  5
142
330
1F
100
AcDbEntity
  8
0
  6
Continuous
 62
     7
370
    25
100
AcDbCircle
 10
162.184871407
 20
110.2127080182
 30
0.0
 40
22.23387441067959
100
AcDbArc
 50
180.0
 51
270.0
  0
LINE
  5
143
330
1F
100
AcDbEntity
  8
0
  6
Continuous
 62
     7
370
    25
100
AcDbLine
 10
898.184871407
 20
570.4465824288
 30
0.0
 11
162.184871407
 21
570.4465824288
 31
0.0
  0
LINE
  5
144
330
1F
100
AcDbEntity
  8
0
  6
Continuous
 62
     7
370
    25
100
AcDbLine
 10
921.184871407
 20
110.2127080182
 30
0.0
 11
920.4187458176
 21
110.2127080182
 31
0.0
  0
ARC
  5
145
330
1F
100
AcDbEntity
  8
0
  6
Continuous
 62
     7
370
    25
100
AcDbCircle
 10
898.184871407
 20
110.2127080182
 30
0.0
 40
22.23387441067962
100
AcDbArc
 50
270.0
 51
0.0
  0
LINE
  5
146
330
1F
100
AcDbEntity
  8
0
  6
Continuous
 62
     7
370
    25
100
AcDbLine
 10
920.4187458176
 20
110.2127080182
 30
0.0
 11
920.4187458176
 21
329.2127080182
 31
0.0
  0
LINE
  5
147
330
1F
100
AcDbEntity
  8
0
  6
Continuous
 62
     7
370
    25
100
AcDbLine
 10
162.184871407
 20
570.4465824288
 30
0.0
 11
162.184871407
 21
569.4889730012
 31
0.0
  0
LINE
  5
148
330
1F
100
AcDbEntity
  8
0
  6
Continuous
 62
     7
370
    25
100
AcDbLine
 10
898.184871407
 20
570.4465824288
 30
0.0
 11
898.184871407
 21
569.4889730012
 31
0.0
  0
LINE
  5
149
330
1F
100
AcDbEntity
  8
0
  6
Continuous
 62
     7
370
    25
100
AcDbLine
 10
898.184871407
 20
569.4889730012
 30
0.0
 11
162.184871407
 21
569.4889730012
 31
0.0
  0
LINE
  5
14A
330
1F
100
AcDbEntity
  8
0
  6
Continuous
 62
     7
370
    25
100
AcDbLine
 10
920.4187458176
 20
110.2127080182
 30
0.0
 11
919.46113639
 21
110.2127080182
 31
0.0
  0
LINE
  5
14B
330
1F
100
AcDbEntity
  8
0
  6
Continuous
 62
     7
370
    25
100
AcDbLine
 10
898.184871407
 20
87.9788336075
 30
0.0
 11
898.184871407
 21
88.9364430351
 31
0.0
  0
ARC
  5
14C
330
1F
100
AcDbEntity
  8
0
  6
Continuous
 62
     7
370
    25
100
AcDbCircle
 10
898.184871407
 20
110.2127080182
 30
0.0
 40
21.27626498307336
100
AcDbArc
 50
270.0
 51
0.0
  0
LINE
  5
14D
330
1F
100
AcDbEntity
  8
0
  6
Continuous
 62
     7
370
    25
100
AcDbLine
 10
919.46113639
 20
110.2127080182
 30
0.0
 11
919.46113639
 21
329.2127080182
 31
0.0
  0
LINE
  5
14E
330
1F
100
AcDbEntity
  8
0
  6
Continuous
 62
     7
370
    25
100
AcDbLine
 10
920.4187458176
 20
329.2127080182
 30
0.0
 11
919.46113639
 21
329.2127080182
 31
0.0
  0
LINE
  5
14F
330
1F
100
AcDbEntity
  8
0
  6
Continuous
 62
     7
370
    25
100
AcDbLine
 10
920.4187458176
 20
548.2127080182
 30
0.0
 11
919.46113639
 21
548.2127080182
 31
0.0
  0
LINE
  5
150
330
1F
100
AcDbEntity
  8
0
  6
Continuous
 62
     7
370
    25
100
AcDbLine
 10
919.46113639
 20
329.2127080182
 30
0.0
 11
919.46113639
 21
548.2127080182
 31
0.0
  0
ARC
  5
151
330
1F
100
AcDbEntity
  8
0
  6
Continuous
 62
     7
370
    25
100
AcDbCircle
 10
898.184871407
 20
548.2127080182
 30
0.0
 40
21.27626498307336
100
AcDbArc
 50
0.0
 51
90.0
  0
LINE
  5
152
330
1F
100
AcDbEntity
  8
0
  6
Continuous
 62
     7
370
    25
100
AcDbLine
 10
162.184871407
 20
87.9788336075
 30
0.0
 11
162.184871407
 21
88.9364430351
 31
0.0
  0
LINE
  5
153
330
1F
100
AcDbEntity
  8
0
  6
Continuous
 62
     7
370
    25
100
AcDbLine
 10
162.184871407
 20
88.9364430351
 30
0.0
 11
898.184871407
 21
88.9364430351
 31
0.0
  0
LINE
  5
154
330
1F
100
AcDbEntity
  8
0
  6
Continuous
 62
     7
370
    25
100
AcDbLine
 10
139.9509969963
 20
548.2127080182
 30
0.0
 11
140.9086064239
 21
548.2127080182
 31
0.0
  0
ARC
  5
155
330
1F
100
AcDbEntity
  8
0
  6
Continuous
 62
     7
370
    25
100
AcDbCircle
 10
162.184871407
 20
548.2127080182
 30
0.0
 40
21.27626498307336
100
AcDbArc
 50
90.0
 51
180.0
  0
LINE
  5
156
330
1F
100
AcDbEntity
  8
0
  6
Continuous
 62
     7
370
    25
100
AcDbLine
 10
139.9509969963
 20
110.2127080182
 30
0.0
 11
140.9086064239
 21
110.2127080182
 31
0.0
  0
ARC
  5
157
330
1F
100
AcDbEntity
  8
0
  6
Continuous
 62
     7
370
    25
100
AcDbCircle
 10
162.184871407
 20
110.2127080182
 30
0.0
 40
21.27626498307333
100
AcDbArc
 50
180.0
 51
270.0
  0
LINE
  5
158
330
1F
100
AcDbEntity
  8
0
  6
Continuous
 62
     7
370
    25
100
AcDbLine
 10
140.9086064239
 20
548.2127080182
 30
0.0
 11
140.9086064239
 21
110.2127080182
 31
0.0
  0
LINE
  5
159
330
1F
100
AcDbEntity
  8
0
  6
Continuous
 62
     7
370
    25
100
AcDbLine
 10
162.184871407
 20
569.4889730012
 30
0.0
 11
162.184871407
 21
564.126093876
 31
0.0
  0
LINE
  5
15A
330
1F
100
AcDbEntity
  8
0
  6
Continuous
 62
     7
370
    25
100
AcDbLine
 10
898.184871407
 20
569.4889730012
 30
0.0
 11
898.184871407
 21
564.126093876
 31
0.0
  0
LINE
  5
15B
330
1F
100
AcDbEntity
  8
0
  6
Continuous
 62
     7
370
    25
100
AcDbLine
 10
898.184871407
 20
564.126093876
 30
0.0
 11
162.184871407
 21
564.126093876
 31
0.0
  0
LINE
  5
15C
330
1F
100
AcDbEntity
  8
0
  6
Continuous
 62
     7
370
    25
100
AcDbLine
 10
140.9086064239
 20
548.2127080182
 30
0.0
 11
146.2714855491
 21
548.2127080182
 31
0.0
  0
ARC
  5
15D
330
1F
100
AcDbEntity
  8
0
  6
Continuous
 62
     7
370
    25
100
AcDbCircle
 10
162.184871407
 20
548.2127080182
 30
0.0
 40
15.91338585783026
100
AcDbArc
 50
90.0
 51
180.0
  0
LINE
  5
15E
330
1F
100
AcDbEntity
  8
0
  6
Continuous
 62
     7
370
    25
100
AcDbLine
 10
919.46113639
 20
548.2127080182
 30
0.0
 11
914.0982572648
 21
548.2127080182
 31
0.0
  0
LINE
  5
15F
330
1F
100
AcDbEntity
  8
0
  6
Continuous
 62
     7
370
    25
100
AcDbLine
 10
919.46113639
 20
329.2127080182
 30
0.0
 11
914.0982572648
 21
329.2127080182
 31
0.0
  0
LINE
  5
160
330
1F
100
AcDbEntity
  8
0
  6
Continuous
 62
     7
370
    25
100
AcDbLine
 10
914.0982572648
 20
329.2127080182
 30
0.0
 11
914.0982572648
 21
548.2127080182
 31
0.0
  0
LINE
  5
161
330
1F
100
AcDbEntity
  8
0
  6
Continuous
 62
     7
370
    25
100
AcDbLine
 10
162.184871407
 20
88.9364430351
 30
0.0
 11
162.184871407
 21
94.2993221603
 31
0.0
  0
LINE
  5
162
330
1F
100
AcDbEntity
  8
0
  6
Continuous
 62
     7
370
    25
100
AcDbLine
 10
140.9086064239
 20
110.2127080182
 30
0.0
 11
146.2714855491
 21
110.2127080182
 31
0.0
  0
ARC
  5
163
330
1F
100
AcDbEntity
  8
0
  6
Continuous
 62
     7
370
    25
100
AcDbCircle
 10
162.184871407
 20
110.2127080182
 30
0.0
 40
15.91338585783031
100
AcDbArc
 50
180.0
 51
270.0
  0
LINE
  5
164
330
1F
100
AcDbEntity
  8
0
  6
Continuous
 62
     7
370
    25
100
AcDbLine
 10
919.46113639
 20
110.2127080182
 30
0.0
 11
914.0982572648
 21
110.2127080182
 31
0.0
  0
LINE
  5
165
330
1F
100
AcDbEntity
  8
0
  6
Continuous
 62
     7
370
    25
100
AcDbLine
 10
914.0982572648
 20
110.2127080182
 30
0.0
 11
914.0982572648
 21
329.2127080182
 31
0.0
  0
ARC
  5
166
330
1F
100
AcDbEntity
  8
0
  6
Continuous
 62
     7
370
    25
100
AcDbCircle
 10
898.184871407
 20
548.2127080182
 30
0.0
 40
15.91338585783035
100
AcDbArc
 50
0.0
 51
90.0
  0
LINE
  5
167
330
1F
100
AcDbEntity
  8
0
  6
Continuous
 62
     7
370
    25
100
AcDbLine
 10
898.184871407
 20
88.9364430351
 30
0.0
 11
898.184871407
 21
94.2993221603
 31
0.0
  0
LINE
  5
168
330
1F
100
AcDbEntity
  8
0
  6
Continuous
 62
     7
370
    25
100
AcDbLine
 10
162.184871407
 20
94.2993221603
 30
0.0
 11
898.184871407
 21
94.2993221603
 31
0.0
  0
ARC
  5
169
330
1F
100
AcDbEntity
  8
0
  6
Continuous
 62
     7
370
    25
100
AcDbCircle
 10
898.184871407
 20
110.2127080182
 30
0.0
 40
15.91338585783035
100
AcDbArc
 50
270.0
 51
0.0
  0
LINE
  5
16A
330
1F
100
AcDbEntity
  8
0
  6
Continuous
 62
     7
370
    25
100
AcDbLine
 10
146.2714855491
 20
548.2127080182
 30
0.0
 11
146.2714855491
 21
110.2127080182
 31
0.0
  0
LINE
  5
16B
330
1F
100
AcDbEntity
  8
0
  6
Continuous
 62
     7
370
    25
100
AcDbLine
 10
385.684871407
 20
104.2127080182
 30
0.0
 11
504.684871407
 21
104.2127080182
 31
0.0
  0
LINE
  5
16C
330
1F
100
AcDbEntity
  8
0
  6
Continuous
 62
     7
370
    25
100
AcDbLine
 10
504.684871407
 20
99.2127080182
 30
0.0
 11
504.684871407
 21
104.2127080182
 31
0.0
  0
LINE
  5
16D
330
1F
100
AcDbEntity
  8
0
  6
Continuous
 62
     7
370
    25
100
AcDbLine
 10
504.684871407
 20
99.2127080182
 30
0.0
 11
385.684871407
 21
99.2127080182
 31
0.0
  0
LINE
  5
16E
330
1F
100
AcDbEntity
  8
0
  6
Continuous
 62
     7
370
    25
100
AcDbLine
 10
385.684871407
 20
104.2127080182
 30
0.0
 11
385.684871407
 21
99.2127080182
 31
0.0
  0
LINE
  5
16F
330
1F
100
AcDbEntity
  8
0
  6
Continuous
 62
     7
370
    25
100
AcDbLine
 10
504.684871407
 20
491.2127080182
 30
0.0
 11
385.684871407
 21
491.2127080182
 31
0.0
  0
LINE
  5
170
330
1F
100
AcDbEntity
  8
0
  6
Continuous
 62
     7
370
    25
100
AcDbLine
 10
385.684871407
 20
491.2127080182
 30
0.0
 11
385.684871407
 21
496.2127080182
 31
0.0
  0
LINE
  5
171
330
1F
100
AcDbEntity
  8
0
  6
Continuous
 62
     7
370
    25
100
AcDbLine
 10
385.684871407
 20
496.2127080182
 30
0.0
 11
504.684871407
 21
496.2127080182
 31
0.0
  0
LINE
  5
172
330
1F
100
AcDbEntity
  8
0
  6
Continuous
 62
     7
370
    25
100
AcDbLine
 10
504.684871407
 20
496.2127080182
 30
0.0
 11
504.684871407
 21
491.2127080182
 31
0.0
  0
LINE
  5
173
330
1F
100
AcDbEntity
  8
0
  6
Continuous
 62
     7
370
    25
100
AcDbLine
 10
587.684871407
 20
496.2127080182
 30
0.0
 11
876.684871407
 21
496.2127080182
 31
0.0
  0
ARC
  5
174
330
1F
100
AcDbEntity
  8
0
  6
Continuous
 62
     7
370
    25
100
AcDbCircle
 10
587.684871407
 20
464.7127080182
 30
0.0
 40
31.50000000000034
100
AcDbArc
 50
90.0
 51
180.0
  0
LINE
  5
175
330
1F
100
AcDbEntity
  8
0
  6
Continuous
 62
     7
370
    25
100
AcDbLine
 10
556.184871407
 20
130.7127080182
 30
0.0
 11
556.184871407
 21
464.7127080182
 31
0.0
  0
ARC
  5
176
330
1F
100
AcDbEntity
  8
0
  6
Continuous
 62
     7
370
    25
100
AcDbCircle
 10
587.684871407
 20
130.7127080182
 30
0.0
 40
31.50000000000031
100
AcDbArc
 50
180.0
 51
270.0
  0
LINE
  5
177
330
1F
100
AcDbEntity
  8
0
  6
Continuous
 62
     7
370
    25
100
AcDbLine
 10
876.684871407
 20
99.2127080182
 30
0.0
 11
587.684871407
 21
99.2127080182
 31
0.0
  0
ARC
  5
178
330
1F
100
AcDbEntity
  8
0
  6
Continuous
 62
     7
370
    25
100
AcDbCircle
 10
876.684871407
 20
130.7127080182
 30
0.0
 40
31.50000000000034
100
AcDbArc
 50
270.0
 51
0.0
  0
LINE
  5
179
330
1F
100
AcDbEntity
  8
0
  6
Continuous
 62
     7
370
    25
100
AcDbLine
 10
908.184871407
 20
464.7127080182
 30
0.0
 11
908.184871407
 21
130.7127080182
 31
0.0
  0
ARC
  5
17A
330
1F
100
AcDbEntity
  8
0
  6
Continuous
 62
     7
370
    25
100
AcDbCircle
 10
876.684871407
 20
464.7127080182
 30
0.0
 40
31.50000000000023
100
AcDbArc
 50
0.0
 51
90.0
  0
LINE
  5
17B
330
1F
100
AcDbEntity
  8
0
  6
Continuous
 62
     7
370
    25
100
AcDbLine
 10
536.184871407
 20
464.7127080182
 30
0.0
 11
536.184871407
 21
130.7127080182
 31
0.0
  0
ARC
  5
17C
330
1F
100
AcDbEntity
  8
0
  6
Continuous
 62
     7
370
    25
100
AcDbCircle
 10
504.684871407
 20
464.7127080182
 30
0.0
 40
31.50000000000011
100
AcDbArc
 50
0.0
 51
90.0
  0
ARC
  5
17D
330
1F
100
AcDbEntity
  8
0
  6
Continuous
 62
     7
370
    25
100
AcDbCircle
 10
385.684871407
 20
464.7127080182
 30
0.0
 40
31.50000000000017
100
AcDbArc
 50
90.0
 51
180.0
  0
LINE
  5
17E
330
1F
100
AcDbEntity
  8
0
  6
Continuous
 62
     7
370
    25
100
AcDbLine
 10
354.184871407
 20
130.7127080182
 30
0.0
 11
354.184871407
 21
464.7127080182
 31
0.0
  0
ARC
  5
17F
330
1F
100
AcDbEntity
  8
0
  6
Continuous
 62
     7
370
    25
100
AcDbCircle
 10
385.684871407
 20
130.7127080182
 30
0.0
 40
31.5000000000002
100
AcDbArc
 50
180.0
 51
270.0
  0
ARC
  5
180
330
1F
100
AcDbEntity
  8
0
  6
Continuous
 62
     7
370
    25
100
AcDbCircle
 10
504.684871407
 20
130.7127080182
 30
0.0
 40
31.50000000000011
100
AcDbArc
 50
270.0
 51
0.0
  0
CIRCLE
  5
181
330
1F
100
AcDbEntity
  8
0
  6
Continuous
 62
     7
370
    25
100
AcDbCircle
 10
547.184871407
 20
533.2127080182
 30
0.0
 40
17.5
  0
ARC
  5
182
330
1F
100
AcDbEntity
  8
0
  6
Continuous
 62
     7
370
    25
100
AcDbCircle
 10
504.684871407
 20
130.7127080182
 30
0.0
 40
26.5
100
AcDbArc
 50
270.0
 51
0.0
  0
LINE
  5
183
330
1F
100
AcDbEntity
  8
0
  6
Continuous
 62
     7
370
    25
100
AcDbLine
 10
536.184871407
 20
130.7127080182
 30
0.0
 11
531.184871407
 21
130.7127080182
 31
0.0
  0
LINE
  5
184
330
1F
100
AcDbEntity
  8
0
  6
Continuous
 62
     7
370
    25
100
AcDbLine
 10
908.184871407
 20
464.7127080182
 30
0.0
 11
903.184871407
 21
464.7127080182
 31
0.0
  0
ARC
  5
185
330
1F
100
AcDbEntity
  8
0
  6
Continuous
 62
     7
370
    25
100
AcDbCircle
 10
876.684871407
 20
464.7127080182
 30
0.0
 40
26.5
100
AcDbArc
 50
0.0
 51
90.0
  0
LINE
  5
186
330
1F
100
AcDbEntity
  8
0
  6
Continuous
 62
     7
370
    25
100
AcDbLine
 10
876.684871407
 20
496.2127080182
 30
0.0
 11
876.684871407
 21
491.2127080182
 31
0.0
  0
LINE
  5
187
330
1F
100
AcDbEntity
  8
0
  6
Continuous
 62
     7
370
    25
100
AcDbLine
 10
561.184871407
 20
464.7127080182
 30
0.0
 11
561.184871407
 21
130.7127080182
 31
0.0
  0
LINE
  5
188
330
1F
100
AcDbEntity
  8
0
  6
Continuous
 62
     7
370
    25
100
AcDbLine
 10
561.184871407
 20
130.7127080182
 30
0.0
 11
556.184871407
 21
130.7127080182
 31
0.0
  0
LINE
  5
189
330
1F
100
AcDbEntity
  8
0
  6
Continuous
 62
     7
370
    25
100
AcDbLine
 10
556.184871407
 20
464.7127080182
 30
0.0
 11
561.184871407
 21
464.7127080182
 31
0.0
  0
ARC
  5
18A
330
1F
100
AcDbEntity
  8
0
  6
Continuous
 62
     7
370
    25
100
AcDbCircle
 10
587.684871407
 20
130.7127080182
 30
0.0
 40
26.50000000000009
100
AcDbArc
 50
180.0
 51
270.0
  0
LINE
  5
18B
330
1F
100
AcDbEntity
  8
0
  6
Continuous
 62
     7
370
    25
100
AcDbLine
 10
587.684871407
 20
104.2127080182
 30
0.0
 11
587.684871407
 21
99.2127080182
 31
0.0
  0
ARC
  5
18C
330
1F
100
AcDbEntity
  8
0
  6
Continuous
 62
     7
370
    25
100
AcDbCircle
 10
385.684871407
 20
464.7127080182
 30
0.0
 40
26.50000000000006
100
AcDbArc
 50
90.0
 51
180.0
  0
LINE
  5
18D
330
1F
100
AcDbEntity
  8
0
  6
Continuous
 62
     7
370
    25
100
AcDbLine
 10
359.184871407
 20
464.7127080182
 30
0.0
 11
354.184871407
 21
464.7127080182
 31
0.0
  0
LINE
  5
18E
330
1F
100
AcDbEntity
  8
0
  6
Continuous
 62
     7
370
    25
100
AcDbLine
 10
536.184871407
 20
464.7127080182
 30
0.0
 11
531.184871407
 21
464.7127080182
 31
0.0
  0
ARC
  5
18F
330
1F
100
AcDbEntity
  8
0
  6
Continuous
 62
     7
370
    25
100
AcDbCircle
 10
504.684871407
 20
464.7127080182
 30
0.0
 40
26.5
100
AcDbArc
 50
0.0
 51
90.0
  0
LINE
  5
190
330
1F
100
AcDbEntity
  8
0
  6
Continuous
 62
     7
370
    25
100
AcDbLine
 10
359.184871407
 20
464.7127080182
 30
0.0
 11
359.184871407
 21
130.7127080182
 31
0.0
  0
LINE
  5
191
330
1F
100
AcDbEntity
  8
0
  6
Continuous
 62
     7
370
    25
100
AcDbLine
 10
359.184871407
 20
130.7127080182
 30
0.0
 11
354.184871407
 21
130.7127080182
 31
0.0
  0
LINE
  5
192
330
1F
100
AcDbEntity
  8
0
  6
Continuous
 62
     7
370
    25
100
AcDbLine
 10
531.184871407
 20
130.7127080182
 30
0.0
 11
531.184871407
 21
464.7127080182
 31
0.0
  0
ARC
  5
193
330
1F
100
AcDbEntity
  8
0
  6
Continuous
 62
     7
370
    25
100
AcDbCircle
 10
385.684871407
 20
130.7127080182
 30
0.0
 40
26.50000000000009
100
AcDbArc
 50
180.0
 51
270.0
  0
LINE
  5
194
330
1F
100
AcDbEntity
  8
0
  6
Continuous
 62
     7
370
    25
100
AcDbLine
 10
903.184871407
 20
130.7127080182
 30
0.0
 11
903.184871407
 21
464.7127080182
 31
0.0
  0
LINE
  5
195
330
1F
100
AcDbEntity
  8
0
  6
Continuous
 62
     7
370
    25
100
AcDbLine
 10
903.184871407
 20
130.7127080182
 30
0.0
 11
908.184871407
 21
130.7127080182
 31
0.0
  0
ARC
  5
196
330
1F
100
AcDbEntity
  8
0
  6
Continuous
 62
     7
370
    25
100
AcDbCircle
 10
876.684871407
 20
130.7127080182
 30
0.0
 40
26.5
100
AcDbArc
 50
270.0
 51
0.0
  0
LINE
  5
197
330
1F
100
AcDbEntity
  8
0
  6
Continuous
 62
     7
370
    25
100
AcDbLine
 10
876.684871407
 20
104.2127080182
 30
0.0
 11
876.684871407
 21
99.2127080182
 31
0.0
  0
LINE
  5
198
330
1F
100
AcDbEntity
  8
0
  6
Continuous
 62
     7
370
    25
100
AcDbLine
 10
587.684871407
 20
496.2127080182
 30
0.0
 11
587.684871407
 21
491.2127080182
 31
0.0
  0
ARC
  5
199
330
1F
100
AcDbEntity
  8
0
  6
Continuous
 62
     7
370
    25
100
AcDbCircle
 10
587.684871407
 20
464.7127080182
 30
0.0
 40
26.5
100
AcDbArc
 50
90.0
 51
180.0
  0
LINE
  5
19A
330
1F
100
AcDbEntity
  8
0
  6
Continuous
 62
     7
370
    25
100
AcDbLine
 10
587.684871407
 20
104.2127080182
 30
0.0
 11
876.684871407
 21
104.2127080182
 31
0.0
  0
LINE
  5
19B
330
1F
100
AcDbEntity
  8
0
  6
Continuous
 62
     7
370
    25
100
AcDbLine
 10
876.684871407
 20
491.2127080182
 30
0.0
 11
587.684871407
 21
491.2127080182
 31
0.0
  0
LINE
  5
19C
330
1F
100
AcDbEntity
  8
0
  6
Continuous
 62
     8
370
    25
100
AcDbLine
 10
505.184871407
 20
105.2872054702
 30
0.0
 11
505.184871407
 21
104.2174254192
 31
0.0
  0
LINE
  5
19D
330
1F
100
AcDbEntity
  8
0
  6
Continuous
 62
     8
370
    25
100
AcDbLine
 10
385.184871407
 20
105.2872054702
 30
0.0
 11
385.184871407
 21
104.2174254192
 31
0.0
  0
LINE
  5
19E
330
1F
100
AcDbEntity
  8
0
  6
Continuous
 62
     8
370
    25
100
AcDbLine
 10
531.1801540059
 20
130.2127080182
 30
0.0
 11
530.1103739549
 21
130.2127080182
 31
0.0
  0
LINE
  5
19F
330
1F
100
AcDbEntity
  8
0
  6
Continuous
 62
     8
370
    25
100
AcDbLine
 10
531.1801540059
 20
465.2127080182
 30
0.0
 11
530.1103739549
 21
465.2127080182
 31
0.0
  0
LINE
  5
1A0
330
1F
100
AcDbEntity
  8
0
  6
Continuous
 62
     8
370
    25
100
AcDbLine
 10
505.184871407
 20
491.2079906171
 30
0.0
 11
505.184871407
 21
490.1382105661
 31
0.0
  0
LINE
  5
1A1
330
1F
100
AcDbEntity
  8
0
  6
Continuous
 62
     8
370
    25
100
AcDbLine
 10
385.184871407
 20
491.2079906171
 30
0.0
 11
385.184871407
 21
490.1382105661
 31
0.0
  0
LINE
  5
1A2
330
1F
100
AcDbEntity
  8
0
  6
Continuous
 62
     8
370
    25
100
AcDbLine
 10
360.259368859
 20
130.2127080182
 30
0.0
 11
359.189588808
 21
130.2127080182
 31
0.0
  0
LINE
  5
1A3
330
1F
100
AcDbEntity
  8
0
  6
Continuous
 62
     8
370
    25
100
AcDbLine
 10
360.259368859
 20
465.2127080182
 30
0.0
 11
359.189588808
 21
465.2127080182
 31
0.0
  0
LINE
  5
1A4
330
1F
100
AcDbEntity
  8
0
  6
Continuous
 62
     8
370
    25
100
AcDbLine
 10
877.184871407
 20
491.2079906171
 30
0.0
 11
877.184871407
 21
490.1382105661
 31
0.0
  0
LINE
  5
1A5
330
1F
100
AcDbEntity
  8
0
  6
Continuous
 62
     8
370
    25
100
AcDbLine
 10
587.184871407
 20
491.2079906171
 30
0.0
 11
587.184871407
 21
490.1382105661
 31
0.0
  0
LINE
  5
1A6
330
1F
100
AcDbEntity
  8
0
  6
Continuous
 62
     8
370
    25
100
AcDbLine
 10
587.184871407
 20
105.2872054702
 30
0.0
 11
587.184871407
 21
104.2174254192
 31
0.0
  0
LINE
  5
1A7
330
1F
100
AcDbEntity
  8
0
  6
Continuous
 62
     8
370
    25
100
AcDbLine
 10
562.259368859
 20
130.2127080182
 30
0.0
 11
561.189588808
 21
130.2127080182
 31
0.0
  0
LINE
  5
1A8
330
1F
100
AcDbEntity
  8
0
  6
Continuous
 62
     8
370
    25
100
AcDbLine
 10
903.1801540059
 20
465.2127080182
 30
0.0
 11
902.1103739549
 21
465.2127080182
 31
0.0
  0
LINE
  5
1A9
330
1F
100
AcDbEntity
  8
0
  6
Continuous
 62
     8
370
    25
100
AcDbLine
 10
562.259368859
 20
465.2127080182
 30
0.0
 11
561.189588808
 21
465.2127080182
 31
0.0
  0
LINE
  5
1AA
330
1F
100
AcDbEntity
  8
0
  6
Continuous
 62
     8
370
    25
100
AcDbLine
 10
877.184871407
 20
105.2872054702
 30
0.0
 11
877.184871407
 21
104.2174254192
 31
0.0
  0
LINE
  5
1AB
330
1F
100
AcDbEntity
  8
0
  6
Continuous
 62
     8
370
    25
100
AcDbLine
 10
903.1801540059
 20
130.2127080182
 30
0.0
 11
902.1103739549
 21
130.2127080182
 31
0.0
  0
ENDSEC
  0
SECTION
  2
OBJECTS
  0
DICTIONARY
  5
C
330
0
100
AcDbDictionary
281
     1
  3
ACAD_GROUP
350
D
  3
ACAD_LAYOUT
350
1A
  3
ACAD_MLINESTYLE
350
17
  3
ACAD_PLOTSETTINGS
350
19
  3
ACAD_PLOTSTYLENAME
350
E
  3
ACAD_SCALELIST
350
47
  3
DWGPROPS
350
1AC
  0
DICTIONARY
  5
D
102
{ACAD_REACTORS
330
C
102
}
330
C
100
AcDbDictionary
281
     1
  0
DICTIONARY
  5
1A
102
{ACAD_REACTORS
330
C
102
}
330
C
100
AcDbDictionary
281
     1
  3
Layout1
350
1E
  3
Layout2
350
26
  3
Model
350
22
  0
DICTIONARY
  5
17
102
{ACAD_REACTORS
330
C
102
}
330
C
100
AcDbDictionary
281
     1
  3
Standard
350
18
  0
DICTIONARY
  5
19
102
{ACAD_REACTORS
330
C
102
}
330
C
100
AcDbDictionary
281
     1
  0
ACDBDICTIONARYWDFLT
  5
E
102
{ACAD_REACTORS
330
C
102
}
330
C
100
AcDbDictionary
281
     1
  3
Normal
350
F
100
AcDbDictionaryWithDefault
340
F
  0
DICTIONARY
  5
47
102
{ACAD_REACTORS
330
C
102
}
330
C
100
AcDbDictionary
281
     1
  3
A0
350
48
  3
A1
350
49
  3
A2
350
4A
  3
A3
350
4B
  3
A4
350
4C
  3
A5
350
4D
  3
A6
350
4E
  3
A7
350
4F
  3
A8
350
50
  3
A9
350
51
  3
B0
350
52
  3
B1
350
53
  3
B2
350
54
  3
B3
350
55
  3
B4
350
56
  3
B5
350
57
  3
B6
350
58
  3
B7
350
59
  3
B8
350
5A
  3
B9
350
5B
  3
C0
350
5C
  3
C1
350
5D
  3
C2
350
5E
  3
C3
350
5F
  3
C4
350
60
  3
C5
350
61
  3
C6
350
62
  3
C7
350
63
  3
C8
350
64
  3
C9
350
65
  3
D0
350
66
  3
D1
350
67
  3
D2
350
68
  0
XRECORD
  5
1AC
102
{ACAD_REACTORS
330
C
102
}
330
C
100
AcDbXrecord
280
     1
  1
DWGPROPS COOKIE
  2

  3

  4

  6

  7

  8
KalleMourujärvi
  9

300
=
301
=
302
=
303
=
304
=
305
=
306
=
307
=
308
=
309
=
 40
0.0
 41
2460130.406269711
 42
2460130.406270208
  1

 90
        0
  0
LAYOUT
  5
1E
102
{ACAD_REACTORS
330
1A
102
}
330
1A
100
AcDbPlotSettings
  1

  2
none_device
  4

  6

 40
0.0
 41
0.0
 42
0.0
 43
0.0
 44
0.0
 45
0.0
 46
0.0
 47
0.0
 48
0.0
 49
0.0
140
0.0
141
0.0
142
1.0
143
1.0
 70
   688
 72
     1
 73
     0
 74
     5
  7

 75
    16
147
1.0
148
0.0
149
0.0
100
AcDbLayout
  1
Layout1
 70
     1
 71
     1
 10
0.0
 20
0.0
 11
420.0
 21
297.0
 12
0.0
 22
0.0
 32
0.0
 14
1.0000000000E+20
 24
1.0000000000E+20
 34
1.0000000000E+20
 15
-1.0000000000E+20
 25
-1.0000000000E+20
 35
-1.0000000000E+20
146
0.0
 13
0.0
 23
0.0
 33
0.0
 16
1.0
 26
0.0
 36
0.0
 17
0.0
 27
1.0
 37
0.0
 76
     0
330
1B
  0
LAYOUT
  5
26
102
{ACAD_REACTORS
330
1A
102
}
330
1A
100
AcDbPlotSettings
  1

  2
none_device
  4

  6

 40
0.0
 41
0.0
 42
0.0
 43
0.0
 44
0.0
 45
0.0
 46
0.0
 47
0.0
 48
0.0
 49
0.0
140
0.0
141
0.0
142
1.0
143
1.0
 70
   688
 72
     1
 73
     0
 74
     5
  7

 75
    16
147
1.0
148
0.0
149
0.0
100
AcDbLayout
  1
Layout2
 70
     1
 71
     2
 10
0.0
 20
0.0
 11
0.0
 21
0.0
 12
0.0
 22
0.0
 32
0.0
 14
0.0
 24
0.0
 34
0.0
 15
0.0
 25
0.0
 35
0.0
146
0.0
 13
0.0
 23
0.0
 33
0.0
 16
1.0
 26
0.0
 36
0.0
 17
0.0
 27
1.0
 37
0.0
 76
     0
330
23
  0
LAYOUT
  5
22
102
{ACAD_REACTORS
330
1A
102
}
330
1A
100
AcDbPlotSettings
  1

  2
none_device
  4
Letter_(8.50_x_11.00_Inches)
  6

 40
6.35
 41
6.35
 42
6.35000508
 43
6.35000508
 44
215.9
 45
279.4
 46
0.0
 47
0.0
 48
0.0
 49
0.0
140
0.0
141
0.0
142
1.0
143
1.0
 70
  1712
 72
     1
 73
     0
 74
     0
  7

 75
     0
147
1.0
148
0.0
149
0.0
100
AcDbLayout
  1
Model
 70
     1
 71
     0
 10
0.0
 20
0.0
 11
1050.0
 21
650.0
 12
0.0
 22
0.0
 32
0.0
 14
0.0
 24
0.0
 34
0.0
 15
1050.0
 25
650.0
 35
0.0
146
0.0
 13
0.0
 23
0.0
 33
0.0
 16
1.0
 26
0.0
 36
0.0
 17
0.0
 27
1.0
 37
0.0
 76
     0
330
1F
331
29
  0
MLINESTYLE
  5
18
102
{ACAD_REACTORS
330
17
102
}
330
17
100
AcDbMlineStyle
  2
Standard
 70
     0
  3

 62
   256
 51
90.0
 52
90.0
 71
     2
 49
0.5
 62
   256
  6
BYLAYER
 49
-0.5
 62
   256
  6
BYLAYER
  0
ACDBPLACEHOLDER
  5
F
102
{ACAD_REACTORS
330
E
102
}
330
E
  0
SCALE
  5
48
102
{ACAD_REACTORS
330
47
102
}
330
47
100
AcDbScale
 70
     0
300
1:1
140
1.0
141
1.0
290
     1
  0
SCALE
  5
49
102
{ACAD_REACTORS
330
47
102
}
330
47
100
AcDbScale
 70
     0
300
1:2
140
1.0
141
2.0
290
     0
  0
SCALE
  5
4A
102
{ACAD_REACTORS
330
47
102
}
330
47
100
AcDbScale
 70
     0
300
1:4
140
1.0
141
4.0
290
     0
  0
SCALE
  5
4B
102
{ACAD_REACTORS
330
47
102
}
330
47
100
AcDbScale
 70
     0
300
1:5
140
1.0
141
5.0
290
     0
  0
SCALE
  5
4C
102
{ACAD_REACTORS
330
47
102
}
330
47
100
AcDbScale
 70
     0
300
1:8
140
1.0
141
8.0
290
     0
  0
SCALE
  5
4D
102
{ACAD_REACTORS
330
47
102
}
330
47
100
AcDbScale
 70
     0
300
1:10
140
1.0
141
10.0
290
     0
  0
SCALE
  5
4E
102
{ACAD_REACTORS
330
47
102
}
330
47
100
AcDbScale
 70
     0
300
1:16
140
1.0
141
16.0
290
     0
  0
SCALE
  5
4F
102
{ACAD_REACTORS
330
47
102
}
330
47
100
AcDbScale
 70
     0
300
1:20
140
1.0
141
20.0
290
     0
  0
SCALE
  5
50
102
{ACAD_REACTORS
330
47
102
}
330
47
100
AcDbScale
 70
     0
300
1:30
140
1.0
141
30.0
290
     0
  0
SCALE
  5
51
102
{ACAD_REACTORS
330
47
102
}
330
47
100
AcDbScale
 70
     0
300
1:40
140
1.0
141
40.0
290
     0
  0
SCALE
  5
52
102
{ACAD_REACTORS
330
47
102
}
330
47
100
AcDbScale
 70
     0
300
1:50
140
1.0
141
50.0
290
     0
  0
SCALE
  5
53
102
{ACAD_REACTORS
330
47
102
}
330
47
100
AcDbScale
 70
     0
300
1:100
140
1.0
141
100.0
290
     0
  0
SCALE
  5
54
102
{ACAD_REACTORS
330
47
102
}
330
47
100
AcDbScale
 70
     0
300
2:1
140
2.0
141
1.0
290
     0
  0
SCALE
  5
55
102
{ACAD_REACTORS
330
47
102
}
330
47
100
AcDbScale
 70
     0
300
4:1
140
4.0
141
1.0
290
     0
  0
SCALE
  5
56
102
{ACAD_REACTORS
330
47
102
}
330
47
100
AcDbScale
 70
     0
300
8:1
140
8.0
141
1.0
290
     0
  0
SCALE
  5
57
102
{ACAD_REACTORS
330
47
102
}
330
47
100
AcDbScale
 70
     0
300
10:1
140
10.0
141
1.0
290
     0
  0
SCALE
  5
58
102
{ACAD_REACTORS
330
47
102
}
330
47
100
AcDbScale
 70
     0
300
100:1
140
100.0
141
1.0
290
     0
  0
SCALE
  5
59
102
{ACAD_REACTORS
330
47
102
}
330
47
100
AcDbScale
 70
     0
300
1/128" = 1'-0"
140
0.0078125
141
12.0
290
     0
  0
SCALE
  5
5A
102
{ACAD_REACTORS
330
47
102
}
330
47
100
AcDbScale
 70
     0
300
1/64" = 1'-0"
140
0.015625
141
12.0
290
     0
  0
SCALE
  5
5B
102
{ACAD_REACTORS
330
47
102
}
330
47
100
AcDbScale
 70
     0
300
1/32" = 1'-0"
140
0.03125
141
12.0
290
     0
  0
SCALE
  5
5C
102
{ACAD_REACTORS
330
47
102
}
330
47
100
AcDbScale
 70
     0
300
1/16" = 1'-0"
140
0.0625
141
12.0
290
     0
  0
SCALE
  5
5D
102
{ACAD_REACTORS
330
47
102
}
330
47
100
AcDbScale
 70
     0
300
3/32" = 1'-0"
140
0.09375
141
12.0
290
     0
  0
SCALE
  5
5E
102
{ACAD_REACTORS
330
47
102
}
330
47
100
AcDbScale
 70
     0
300
1/8" = 1'-0"
140
0.125
141
12.0
290
     0
  0
SCALE
  5
5F
102
{ACAD_REACTORS
330
47
102
}
330
47
100
AcDbScale
 70
     0
300
3/16" = 1'-0"
140
0.1875
141
12.0
290
     0
  0
SCALE
  5
60
102
{ACAD_REACTORS
330
47
102
}
330
47
100
AcDbScale
 70
     0
300
1/4" = 1'-0"
140
0.25
141
12.0
290
     0
  0
SCALE
  5
61
102
{ACAD_REACTORS
330
47
102
}
330
47
100
AcDbScale
 70
     0
300
3/8" = 1'-0"
140
0.375
141
12.0
290
     0
  0
SCALE
  5
62
102
{ACAD_REACTORS
330
47
102
}
330
47
100
AcDbScale
 70
     0
300
1/2" = 1'-0"
140
0.5
141
12.0
290
     0
  0
SCALE
  5
63
102
{ACAD_REACTORS
330
47
102
}
330
47
100
AcDbScale
 70
     0
300
3/4" = 1'-0"
140
0.75
141
12.0
290
     0
  0
SCALE
  5
64
102
{ACAD_REACTORS
330
47
102
}
330
47
100
AcDbScale
 70
     0
300
1" = 1'-0"
140
1.0
141
12.0
290
     0
  0
SCALE
  5
65
102
{ACAD_REACTORS
330
47
102
}
330
47
100
AcDbScale
 70
     0
300
1-1/2" = 1'-0"
140
1.5
141
12.0
290
     0
  0
SCALE
  5
66
102
{ACAD_REACTORS
330
47
102
}
330
47
100
AcDbScale
 70
     0
300
3" = 1'-0"
140
3.0
141
12.0
290
     0
  0
SCALE
  5
67
102
{ACAD_REACTORS
330
47
102
}
330
47
100
AcDbScale
 70
     0
300
6" = 1'-0"
140
6.0
141
12.0
290
     0
  0
SCALE
  5
68
102
{ACAD_REACTORS
330
47
102
}
330
47
100
AcDbScale
 70
     0
300
1'-0" = 1'-0"
140
12.0
141
12.0
290
     0
  0
ENDSEC
  0
EOF
