  0
SECTION
  2
HEADER
  9
$ACADVER
  1
AC1015
  9
$ACADMAINTVER
 70
     6
  9
$DWGCODEPAGE
  3
ANSI_1252
  9
$INSBASE
 10
0.0
 20
0.0
 30
0.0
  9
$EXTMIN
 10
0.0
 20
0.0
 30
0.0
  9
$EXTMAX
 10
1050.0
 20
650.0
 30
0.0
  9
$LIMMIN
 10
0.0
 20
0.0
  9
$LIMMAX
 10
1050.0
 20
650.0
  9
$ORTHOMODE
 70
     0
  9
$REGENMODE
 70
     1
  9
$FILLMODE
 70
     1
  9
$QTEXTMODE
 70
     0
  9
$MIRRTEXT
 70
     1
  9
$LTSCALE
 40
1.0
  9
$ATTMODE
 70
     1
  9
$TEXTSIZE
 40
3.5
  9
$TRACEWID
 40
1.0
  9
$TEXTSTYLE
  7
Standard
  9
$CLAYER
  8
0
  9
$CELTYPE
  6
ByLayer
  9
$CECOLOR
 62
   256
  9
$CELTSCALE
 40
1.0
  9
$DISPSILH
 70
     0
  9
$DIMSCALE
 40
1.0
  9
$DIMASZ
 40
3.302
  9
$DIMEXO
 40
1.0
  9
$DIMDLI
 40
3.75
  9
$DIMRND
 40
0.0
  9
$DIMDLE
 40
0.0
  9
$DIMEXE
 40
1.0
  9
$DIMTP
 40
0.0
  9
$DIMTM
 40
0.0
  9
$DIMTXT
 40
3.5
  9
$DIMCEN
 40
2.5
  9
$DIMTSZ
 40
0.0
  9
$DIMTOL
 70
     0
  9
$DIMLIM
 70
     0
  9
$DIMTIH
 70
     1
  9
$DIMTOH
 70
     1
  9
$DIMSE1
 70
     0
  9
$DIMSE2
 70
     0
  9
$DIMTAD
 70
     1
  9
$DIMZIN
 70
     1
  9
$DIMBLK
  1

  9
$DIMASO
 70
     1
  9
$DIMSHO
 70
     1
  9
$DIMPOST
  1

  9
$DIMAPOST
  1

  9
$DIMALT
 70
     0
  9
$DIMALTD
 70
     3
  9
$DIMALTF
 40
0.0393700787
  9
$DIMLFAC
 40
1.0
  9
$DIMTOFL
 70
     1
  9
$DIMTVP
 40
0.0
  9
$DIMTIX
 70
     0
  9
$DIMSOXD
 70
     0
  9
$DIMSAH
 70
     0
  9
$DIMBLK1
  1

  9
$DIMBLK2
  1

  9
$DIMSTYLE
  2
ISO-25
  9
$DIMCLRD
 70
     0
  9
$DIMCLRE
 70
     0
  9
$DIMCLRT
 70
     0
  9
$DIMTFAC
 40
1.0
  9
$DIMGAP
 40
1.524
  9
$DIMJUST
 70
     0
  9
$DIMSD1
 70
     0
  9
$DIMSD2
 70
     0
  9
$DIMTOLJ
 70
     0
  9
$DIMTZIN
 70
     1
  9
$DIMALTZ
 70
     0
  9
$DIMALTTZ
 70
     0
  9
$DIMUPT
 70
     0
  9
$DIMDEC
 70
     2
  9
$DIMTDEC
 70
     2
  9
$DIMALTU
 70
     2
  9
$DIMALTTD
 70
     3
  9
$DIMTXSTY
  7
Standard
  9
$DIMAUNIT
 70
     0
  9
$DIMADEC
 70
     2
  9
$DIMALTRND
 40
0.0
  9
$DIMAZIN
 70
     0
  9
$DIMDSEP
 70
    44
  9
$DIMATFIT
 70
     3
  9
$DIMFRAC
 70
     0
  9
$DIMLDRBLK
  1

  9
$DIMLUNIT
 70
     2
  9
$DIMLWD
 70
    -2
  9
$DIMLWE
 70
    -2
  9
$DIMTMOVE
 70
     0
  9
$LUNITS
 70
     2
  9
$LUPREC
 70
     1
  9
$SKETCHINC
 40
1.0
  9
$FILLETRAD
 40
10.0
  9
$AUNITS
 70
     0
  9
$AUPREC
 70
     1
  9
$MENU
  1
.
  9
$ELEVATION
 40
0.0
  9
$PELEVATION
 40
0.0
  9
$THICKNESS
 40
0.0
  9
$LIMCHECK
 70
     0
  9
$CHAMFERA
 40
0.0
  9
$CHAMFERB
 40
0.0
  9
$CHAMFERC
 40
0.0
  9
$CHAMFERD
 40
0.0
  9
$SKPOLY
 70
     0
  9
$TDCREATE
 40
2460130.525055139
  9
$TDUCREATE
 40
2460130.400055139
  9
$TDUPDATE
 40
2460130.525055613
  9
$TDUUPDATE
 40
2460130.400055613
  9
$TDINDWG
 40
0.0000000116
  9
$TDUSRTIMER
 40
0.0000000116
  9
$USRTIMER
 70
     1
  9
$ANGBASE
 50
0.0
  9
$ANGDIR
 70
     0
  9
$PDMODE
 70
     0
  9
$PDSIZE
 40
-1.0
  9
$PLINEWID
 40
0.0
  9
$SPLFRAME
 70
     0
  9
$SPLINETYPE
 70
     6
  9
$SPLINESEGS
 70
     8
  9
$HANDSEED
  5
180
  9
$SURFTAB1
 70
     6
  9
$SURFTAB2
 70
     6
  9
$SURFTYPE
 70
     6
  9
$SURFU
 70
     6
  9
$SURFV
 70
     6
  9
$UCSBASE
  2

  9
$UCSNAME
  2

  9
$UCSORG
 10
0.0
 20
0.0
 30
0.0
  9
$UCSXDIR
 10
1.0
 20
0.0
 30
0.0
  9
$UCSYDIR
 10
0.0
 20
1.0
 30
0.0
  9
$UCSORTHOREF
  2

  9
$UCSORTHOVIEW
 70
     0
  9
$UCSORGTOP
 10
0.0
 20
0.0
 30
0.0
  9
$UCSORGBOTTOM
 10
0.0
 20
0.0
 30
0.0
  9
$UCSORGLEFT
 10
0.0
 20
0.0
 30
0.0
  9
$UCSORGRIGHT
 10
0.0
 20
0.0
 30
0.0
  9
$UCSORGFRONT
 10
0.0
 20
0.0
 30
0.0
  9
$UCSORGBACK
 10
0.0
 20
0.0
 30
0.0
  9
$PUCSBASE
  2

  9
$PUCSNAME
  2

  9
$PUCSORG
 10
0.0
 20
0.0
 30
0.0
  9
$PUCSXDIR
 10
1.0
 20
0.0
 30
0.0
  9
$PUCSYDIR
 10
0.0
 20
1.0
 30
0.0
  9
$PUCSORTHOREF
  2

  9
$PUCSORTHOVIEW
 70
     0
  9
$PUCSORGTOP
 10
0.0
 20
0.0
 30
0.0
  9
$PUCSORGBOTTOM
 10
0.0
 20
0.0
 30
0.0
  9
$PUCSORGLEFT
 10
0.0
 20
0.0
 30
0.0
  9
$PUCSORGRIGHT
 10
0.0
 20
0.0
 30
0.0
  9
$PUCSORGFRONT
 10
0.0
 20
0.0
 30
0.0
  9
$PUCSORGBACK
 10
0.0
 20
0.0
 30
0.0
  9
$USERI1
 70
     0
  9
$USERI2
 70
     0
  9
$USERI3
 70
     0
  9
$USERI4
 70
     0
  9
$USERI5
 70
     0
  9
$USERR1
 40
0.0
  9
$USERR2
 40
0.0
  9
$USERR3
 40
0.0
  9
$USERR4
 40
0.0
  9
$USERR5
 40
0.0
  9
$WORLDVIEW
 70
     1
  9
$SHADEDGE
 70
     3
  9
$SHADEDIF
 70
    70
  9
$TILEMODE
 70
     1
  9
$MAXACTVP
 70
    64
  9
$PINSBASE
 10
0.0
 20
0.0
 30
0.0
  9
$PLIMCHECK
 70
     0
  9
$PEXTMIN
 10
1.0000000000E+20
 20
1.0000000000E+20
 30
1.0000000000E+20
  9
$PEXTMAX
 10
-1.0000000000E+20
 20
-1.0000000000E+20
 30
-1.0000000000E+20
  9
$PLIMMIN
 10
0.0
 20
0.0
  9
$PLIMMAX
 10
420.0
 20
297.0
  9
$UNITMODE
 70
     0
  9
$VISRETAIN
 70
     1
  9
$PLINEGEN
 70
     0
  9
$PSLTSCALE
 70
     1
  9
$TREEDEPTH
 70
  3020
  9
$CMLSTYLE
  2
Standard
  9
$CMLJUST
 70
     0
  9
$CMLSCALE
 40
20.0
  9
$PROXYGRAPHICS
 70
     1
  9
$MEASUREMENT
 70
     1
  9
$CELWEIGHT
370
    -1
  9
$ENDCAPS
280
     0
  9
$JOINSTYLE
280
     0
  9
$LWDISPLAY
290
     1
  9
$INSUNITS
 70
     4
  9
$HYPERLINKBASE
  1

  9
$STYLESHEET
  1

  9
$XEDIT
290
     1
  9
$CEPSNTYPE
380
     0
  9
$PSTYLEMODE
290
     1
  9
$FINGERPRINTGUID
  2
{f7c1827a-8f0f-4005-9a8f-08413ebd89c2}
  9
$VERSIONGUID
  2
{FAEB1C32-E019-11D5-929B-00C0DF256EC4}
  9
$EXTNAMES
290
     1
  9
$PSVPSCALE
 40
0.0
  9
$OLESTARTUP
290
     0
  0
ENDSEC
  0
SECTION
  2
CLASSES
  0
CLASS
  1
ACDBDICTIONARYWDFLT
  2
AcDbDictionaryWithDefault
  3
ObjectDBX Classes
 90
        0
280
     0
281
     0
  0
CLASS
  1
VISUALSTYLE
  2
AcDbVisualStyle
  3
ObjectDBX Classes
 90
     4095
280
     0
281
     0
  0
CLASS
  1
MATERIAL
  2
AcDbMaterial
  3
ObjectDBX Classes
 90
     1153
280
     0
281
     0
  0
CLASS
  1
SCALE
  2
AcDbScale
  3
ObjectDBX Classes
 90
     1153
280
     0
281
     0
  0
CLASS
  1
TABLESTYLE
  2
AcDbTableStyle
  3
ObjectDBX Classes
 90
     4095
280
     0
281
     0
  0
CLASS
  1
MLEADERSTYLE
  2
AcDbMLeaderStyle
  3
ACDB_MLEADERSTYLE_CLASS
 90
     4095
280
     0
281
     0
  0
CLASS
  1
SUN
  2
AcDbSun
  3
SCENEOE
 90
     1153
280
     0
281
     0
  0
CLASS
  1
ACDBPLACEHOLDER
  2
AcDbPlaceHolder
  3
ObjectDBX Classes
 90
        0
280
     0
281
     0
  0
CLASS
  1
LAYOUT
  2
AcDbLayout
  3
ObjectDBX Classes
 90
        0
280
     0
281
     0
  0
ENDSEC
  0
SECTION
  2
TABLES
  0
TABLE
  2
VPORT
  5
8
330
0
100
AcDbSymbolTable
 70
     1
  0
VPORT
  5
29
330
8
100
AcDbSymbolTableRecord
100
AcDbViewportTableRecord
  2
*Active
 70
     0
 10
0.0
 20
0.0
 11
1.0
 21
1.0
 12
525.0
 22
325.0
 13
0.0
 23
0.0
 14
10.0
 24
10.0
 15
10.0
 25
10.0
 16
0.0
 26
0.0
 36
1.0
 17
0.0
 27
0.0
 37
0.0
 40
650.0
 41
1.6153846154
 42
50.0
 43
0.0
 44
0.0
 50
0.0
 51
0.0
 71
     0
 72
  2000
 73
     1
 74
     3
 75
     0
 76
     0
 77
     0
 78
     0
281
     0
 65
     1
110
0.0
120
0.0
130
0.0
111
1.0
121
0.0
131
0.0
112
0.0
122
1.0
132
0.0
 79
     0
146
0.0
  0
ENDTAB
  0
TABLE
  2
LTYPE
  5
5
330
0
100
AcDbSymbolTable
 70
     6
  0
LTYPE
  5
14
330
5
100
AcDbSymbolTableRecord
100
AcDbLinetypeTableRecord
  2
ByBlock
 70
     0
  3

 72
    65
 73
     0
 40
0.0
  0
LTYPE
  5
15
330
5
100
AcDbSymbolTableRecord
100
AcDbLinetypeTableRecord
  2
ByLayer
 70
     0
  3

 72
    65
 73
     0
 40
0.0
  0
LTYPE
  5
16
330
5
100
AcDbSymbolTableRecord
100
AcDbLinetypeTableRecord
  2
Continuous
 70
     0
  3
Solid line
 72
    65
 73
     0
 40
0.0
  0
LTYPE
  5
6E
330
5
100
AcDbSymbolTableRecord
100
AcDbLinetypeTableRecord
  2
HIDDEN
 70
     0
  3
Hidden __ __ __ __ __ __ __ __ __ __ __ __ __ __
 72
    65
 73
     2
 40
1.905
 49
1.27
 74
     0
 49
-0.635
 74
     0
  0
LTYPE
  5
6F
330
5
100
AcDbSymbolTableRecord
100
AcDbLinetypeTableRecord
  2
PHANTOM
 70
     0
  3
Phantom ______  __  __  ______  __  __  ______
 72
    65
 73
     6
 40
12.7
 49
6.35
 74
     0
 49
-1.27
 74
     0
 49
1.27
 74
     0
 49
-1.27
 74
     0
 49
1.27
 74
     0
 49
-1.27
 74
     0
  0
LTYPE
  5
70
330
5
100
AcDbSymbolTableRecord
100
AcDbLinetypeTableRecord
  2
CENTER
 70
     0
  3
Center ____ _ ____ _ ____ _ ____ _ ____ _ ____
 72
    65
 73
     4
 40
10.16
 49
6.35
 74
     0
 49
-1.27
 74
     0
 49
1.27
 74
     0
 49
-1.27
 74
     0
  0
LTYPE
  5
71
330
5
100
AcDbSymbolTableRecord
100
AcDbLinetypeTableRecord
  2
CENTERX2
 70
     0
  3
Center (2x) ________  __  ________  __  _____
 72
    65
 73
     4
 40
20.32
 49
12.7
 74
     0
 49
-2.54
 74
     0
 49
2.54
 74
     0
 49
-2.54
 74
     0
  0
LTYPE
  5
72
330
5
100
AcDbSymbolTableRecord
100
AcDbLinetypeTableRecord
  2
DOT2
 70
     0
  3
Dot (.5x) ........................................
 72
    65
 73
     2
 40
0.635
 49
0.0
 74
     0
 49
-0.635
 74
     0
  0
ENDTAB
  0
TABLE
  2
LAYER
  5
2
330
0
100
AcDbSymbolTable
 70
     1
  0
LAYER
  5
10
330
2
100
AcDbSymbolTableRecord
100
AcDbLayerTableRecord
  2
0
 70
     0
 62
     7
  6
Continuous
370
    -3
390
F
  0
ENDTAB
  0
TABLE
  2
STYLE
  5
3
330
0
100
AcDbSymbolTable
 70
     1
  0
STYLE
  5
11
330
3
100
AcDbSymbolTableRecord
100
AcDbTextStyleTableRecord
  2
Standard
 70
     0
 40
0.0
 41
1.0
 50
0.0
 71
     0
 42
3.5
  3
txt
  4

  0
ENDTAB
  0
TABLE
  2
VIEW
  5
6
330
0
100
AcDbSymbolTable
 70
     0
  0
ENDTAB
  0
TABLE
  2
UCS
  5
7
330
0
100
AcDbSymbolTable
 70
     0
  0
ENDTAB
  0
TABLE
  2
APPID
  5
9
330
0
100
AcDbSymbolTable
 70
     1
  0
APPID
  5
12
330
9
100
AcDbSymbolTableRecord
100
AcDbRegAppTableRecord
  2
ACAD
 70
     0
  0
ENDTAB
  0
TABLE
  2
DIMSTYLE
  5
A
330
0
100
AcDbSymbolTable
 70
     1
100
AcDbDimStyleTable
  0
DIMSTYLE
105
27
330
A
100
AcDbSymbolTableRecord
100
AcDbDimStyleTableRecord
  2
ISO-25
 70
     0
 41
2.5
 42
0.625
 43
3.75
 44
1.25
 73
     0
 74
     0
 77
     1
 78
     8
140
2.5
141
2.5
143
0.0393700787
147
0.625
171
     3
172
     1
178
     0
271
     2
272
     2
274
     3
278
    44
283
     0
284
     8
340
11
  0
ENDTAB
  0
TABLE
  2
BLOCK_RECORD
  5
1
330
0
100
AcDbSymbolTable
 70
     1
  0
BLOCK_RECORD
  5
1F
330
1
100
AcDbSymbolTableRecord
100
AcDbBlockTableRecord
  2
*Model_Space
340
22
  0
BLOCK_RECORD
  5
1B
330
1
100
AcDbSymbolTableRecord
100
AcDbBlockTableRecord
  2
*Paper_Space
340
1E
  0
BLOCK_RECORD
  5
23
330
1
100
AcDbSymbolTableRecord
100
AcDbBlockTableRecord
  2
*Paper_Space0
340
26
  0
ENDTAB
  0
ENDSEC
  0
SECTION
  2
BLOCKS
  0
BLOCK
  5
20
330
1F
100
AcDbEntity
  8
0
100
AcDbBlockBegin
  2
*Model_Space
 70
     0
 10
0.0
 20
0.0
 30
0.0
  3
*Model_Space
  1

  0
ENDBLK
  5
21
330
1F
100
AcDbEntity
  8
0
100
AcDbBlockEnd
  0
BLOCK
  5
1C
330
1B
100
AcDbEntity
 67
     1
  8
0
100
AcDbBlockBegin
  2
*Paper_Space
 70
     0
 10
0.0
 20
0.0
 30
0.0
  3
*Paper_Space
  1

  0
ENDBLK
  5
1D
330
1B
100
AcDbEntity
 67
     1
  8
0
100
AcDbBlockEnd
  0
BLOCK
  5
24
330
23
100
AcDbEntity
  8
0
100
AcDbBlockBegin
  2
*Paper_Space0
 70
     0
 10
0.0
 20
0.0
 30
0.0
  3
*Paper_Space0
  1

  0
ENDBLK
  5
25
330
23
100
AcDbEntity
  8
0
100
AcDbBlockEnd
  0
ENDSEC
  0
SECTION
  2
ENTITIES
  0
ARC
  5
73
330
1F
100
AcDbEntity
  8
0
  6
Continuous
 62
     7
370
    25
100
AcDbCircle
 10
304.4003559135
 20
454.3328194362
 30
0.0
 40
24.92550254794048
100
AcDbArc
 50
90.0
 51
180.0
  0
LINE
  5
74
330
1F
100
AcDbEntity
  8
0
  6
Continuous
 62
     7
370
    25
100
AcDbLine
 10
279.4748533655
 20
454.3328194362
 30
0.0
 11
279.4748533655
 21
119.3328194362
 31
0.0
  0
LINE
  5
75
330
1F
100
AcDbEntity
  8
0
  6
Continuous
 62
     7
370
    25
100
AcDbLine
 10
594.4003559135
 20
479.2583219841
 30
0.0
 11
304.4003559135
 21
479.2583219841
 31
0.0
  0
ARC
  5
76
330
1F
100
AcDbEntity
  8
0
  6
Continuous
 62
     7
370
    25
100
AcDbCircle
 10
304.4003559135
 20
119.3328194362
 30
0.0
 40
24.92550254794048
100
AcDbArc
 50
180.0
 51
270.0
  0
ARC
  5
77
330
1F
100
AcDbEntity
  8
0
  6
Continuous
 62
     7
370
    25
100
AcDbCircle
 10
594.4003559135
 20
454.3328194362
 30
0.0
 40
24.92550254794048
100
AcDbArc
 50
0.0
 51
90.0
  0
LINE
  5
78
330
1F
100
AcDbEntity
  8
0
  6
Continuous
 62
     7
370
    25
100
AcDbLine
 10
619.3258584614
 20
119.3328194362
 30
0.0
 11
619.3258584614
 21
454.3328194362
 31
0.0
  0
LINE
  5
79
330
1F
100
AcDbEntity
  8
0
  6
Continuous
 62
     7
370
    25
100
AcDbLine
 10
304.4003559135
 20
94.4073168883
 30
0.0
 11
594.4003559135
 21
94.4073168883
 31
0.0
  0
ARC
  5
7A
330
1F
100
AcDbEntity
  8
0
  6
Continuous
 62
     7
370
    25
100
AcDbCircle
 10
594.4003559135
 20
119.3328194362
 30
0.0
 40
24.92550254794048
100
AcDbArc
 50
270.0
 51
0.0
  0
LINE
  5
7B
330
1F
100
AcDbEntity
  8
0
  6
Continuous
 62
     7
370
    25
100
AcDbLine
 10
425.1503559135
 20
477.6096317756
 30
0.0
 11
425.1503559135
 21
476.4582407382
 31
0.0
  0
ARC
  5
7C
330
1F
100
AcDbEntity
  8
0
  6
Continuous
 62
     7
370
    25
100
AcDbCircle
 10
425.9010406766
 20
481.2219874015
 30
0.0
 40
4.822531481003618
100
AcDbArc
 50
261.0448095014
 51
272.9633983002
  0
LINE
  5
7D
330
1F
100
AcDbEntity
  8
0
  6
Continuous
 62
     7
370
    25
100
AcDbLine
 10
426.1503559135
 20
476.405904782
 30
0.0
 11
472.6503559135
 21
476.405904782
 31
0.0
  0
ARC
  5
7E
330
1F
100
AcDbEntity
  8
0
  6
Continuous
 62
     7
370
    25
100
AcDbCircle
 10
472.8996711504
 20
481.2219874015
 30
0.0
 40
4.822531480996313
100
AcDbArc
 50
267.0366016997
 51
278.9551904986
  0
LINE
  5
7F
330
1F
100
AcDbEntity
  8
0
  6
Continuous
 62
     7
370
    25
100
AcDbLine
 10
473.6503559135
 20
476.4582407382
 30
0.0
 11
473.6503559135
 21
477.6096317756
 31
0.0
  0
ARC
  5
80
330
1F
100
AcDbEntity
  8
0
  6
Continuous
 62
     7
370
    25
100
AcDbCircle
 10
472.8996711504
 20
472.8458851123
 30
0.0
 40
4.822531481012279
100
AcDbArc
 50
81.0448095014
 51
92.9633983002
  0
LINE
  5
81
330
1F
100
AcDbEntity
  8
0
  6
Continuous
 62
     7
370
    25
100
AcDbLine
 10
472.6503559135
 20
477.6619677318
 30
0.0
 11
426.1503559135
 21
477.6619677318
 31
0.0
  0
ARC
  5
82
330
1F
100
AcDbEntity
  8
0
  6
Continuous
 62
     7
370
    25
100
AcDbCircle
 10
425.9010406766
 20
472.8458851123
 30
0.0
 40
4.822531481003337
100
AcDbArc
 50
87.0366016998
 51
98.9551904986
  0
SPLINE
  5
83
330
1F
100
AcDbEntity
  8
0
  6
Continuous
 62
     7
370
    25
100
AcDbSpline
210
0.0
220
0.0
230
1.0
 70
     8
 71
     3
 72
    14
 73
    10
 74
     0
 42
0.00000001
 43
0.00000001
 40
0.0
 40
0.0
 40
0.0
 40
0.0
 40
0.1416418592737026
 40
0.2832827544648179
 40
0.4250451509087888
 40
0.5668053210537427
 40
0.6750778940077848
 40
0.7833514471234173
 40
1.0
 40
1.0
 40
1.0
 40
1.0
 10
304.4003559134732
 20
471.4152670036357
 30
0.0
 10
318.0832325967108
 20
471.3801905829846
 30
0.0
 10
345.4488928309494
 20
471.3100379804291
 30
0.0
 10
386.5363347475983
 20
471.2377609559168
 30
0.0
 10
427.6504270763575
 20
471.1956147980449
 30
0.0
 10
465.5463077655037
 20
471.1937101215312
 30
0.0
 10
500.1964893304698
 20
471.224023780305
 30
0.0
 10
542.0786736971193
 20
471.2852574907869
 30
0.0
 10
573.469722854588
 20
471.3632583278376
 30
0.0
 10
594.4003559134734
 20
471.4152670036357
 30
0.0
  0
LINE
  5
84
330
1F
100
AcDbEntity
  8
0
  6
Continuous
 62
     7
370
    25
100
AcDbLine
 10
304.4003559135
 20
479.2583219841
 30
0.0
 11
304.4003559135
 21
471.4152670036
 31
0.0
  0
LINE
  5
85
330
1F
100
AcDbEntity
  8
0
  6
Continuous
 62
     7
370
    25
100
AcDbLine
 10
594.4003559135
 20
479.2583219841
 30
0.0
 11
594.4003559135
 21
471.4152670036
 31
0.0
  0
SPLINE
  5
86
330
1F
100
AcDbEntity
  8
0
  6
Continuous
 62
     7
370
    25
100
AcDbSpline
210
0.0
220
0.0
230
1.0
 70
     8
 71
     3
 72
    15
 73
    11
 74
     0
 42
0.00000001
 43
0.00000001
 40
0.0
 40
0.0
 40
0.0
 40
0.0
 40
0.1277272255748725
 40
0.2500006214609046
 40
0.3758169311157527
 40
0.5000000007328544
 40
0.6241812950806355
 40
0.749999379718494
 40
0.8722718134307307
 40
1.0
 40
1.0
 40
1.0
 40
1.0
 10
611.9543019048783
 20
119.3328194361936
 30
0.0
 10
611.8834500518939
 20
118.160624578101
 30
0.0
 10
611.7447716519046
 20
115.8662864549835
 30
0.0
 10
610.6881430166134
 20
112.5527097643327
 30
0.0
 10
609.0737135553978
 20
109.5238024997242
 30
0.0
 10
606.8769302611535
 20
106.856268047227
 30
0.0
 10
604.209386891211
 20
104.6594712139111
 30
0.0
 10
601.1804889569474
 20
103.0450414037871
 30
0.0
 10
597.8668978287229
 20
101.9884056130712
 30
0.0
 10
595.5725596333663
 20
101.8497262984692
 30
0.0
 10
594.4003559134734
 20
101.7788734447889
 30
0.0
  0
LINE
  5
87
330
1F
100
AcDbEntity
  8
0
  6
Continuous
 62
     7
370
    25
100
AcDbLine
 10
619.3258584614
 20
119.3328194362
 30
0.0
 11
611.9543019049
 21
119.3328194362
 31
0.0
  0
LINE
  5
88
330
1F
100
AcDbEntity
  8
0
  6
Continuous
 62
     7
370
    25
100
AcDbLine
 10
594.4003559135
 20
94.4073168883
 30
0.0
 11
594.4003559135
 21
101.7788734448
 31
0.0
  0
SPLINE
  5
89
330
1F
100
AcDbEntity
  8
0
  6
Continuous
 62
     7
370
    25
100
AcDbSpline
210
0.0
220
0.0
230
1.0
 70
     8
 71
     3
 72
    15
 73
    11
 74
     0
 42
0.00000001
 43
0.00000001
 40
0.0
 40
0.0
 40
0.0
 40
0.0
 40
0.1277272124220016
 40
0.2500006214662485
 40
0.3758169059605618
 40
0.500000000741416
 40
0.6241812686443764
 40
0.7499993797240042
 40
0.8722717988525033
 40
1.0
 40
1.0
 40
1.0
 40
1.0
 10
287.3179083460314
 20
454.3328194361936
 30
0.0
 10
287.386857107193
 20
455.4735290601172
 30
0.0
 10
287.5218105976268
 20
457.7062413340782
 30
0.0
 10
288.5500581241386
 20
460.930815261744
 30
0.0
 10
290.1211240550705
 20
463.878366299739
 30
0.0
 10
292.2589016267481
 20
466.4742507308874
 30
0.0
 10
294.8547949880343
 20
468.6120418611043
 30
0.0
 10
297.8023366840927
 20
470.1831081425471
 30
0.0
 10
301.0269250704262
 20
471.2113628343714
 30
0.0
 10
303.2596374169229
 20
471.3463172405532
 30
0.0
 10
304.4003559134732
 20
471.4152670036356
 30
0.0
  0
LINE
  5
8A
330
1F
100
AcDbEntity
  8
0
  6
Continuous
 62
     7
370
    25
100
AcDbLine
 10
279.4748533655
 20
454.3328194362
 30
0.0
 11
287.317908346
 21
454.3328194362
 31
0.0
  0
SPLINE
  5
8B
330
1F
100
AcDbEntity
  8
0
  6
Continuous
 62
     7
370
    25
100
AcDbSpline
210
0.0
220
0.0
230
1.0
 70
     8
 71
     3
 72
    15
 73
    11
 74
     0
 42
0.00000001
 43
0.00000001
 40
0.0
 40
0.0
 40
0.0
 40
0.0
 40
0.1277272117027006
 40
0.2500006214663431
 40
0.3758169053141816
 40
0.5000000007414285
 40
0.624181269247472
 40
0.7499993797239369
 40
0.8722717995237447
 40
1.0
 40
1.0
 40
1.0
 40
1.0
 10
594.4003559134734
 20
471.4152670036357
 30
0.0
 10
595.5410655309446
 20
471.346318243199
 30
0.0
 10
597.7737778048507
 20
471.211364753424
 30
0.0
 10
600.9983517278265
 20
470.1831172303172
 30
0.0
 10
603.9459027720198
 20
468.6120512979079
 30
0.0
 10
606.5417872086822
 20
466.4742737239791
 30
0.0
 10
608.6795783414725
 20
463.8783803569688
 30
0.0
 10
610.2506446242959
 20
460.9308386551259
 30
0.0
 10
611.2788993129421
 20
457.7062502731682
 30
0.0
 10
611.4138537185092
 20
455.4735379267227
 30
0.0
 10
611.4828034809154
 20
454.3328194361937
 30
0.0
  0
LINE
  5
8C
330
1F
100
AcDbEntity
  8
0
  6
Continuous
 62
     7
370
    25
100
AcDbLine
 10
619.3258584614
 20
454.3328194362
 30
0.0
 11
611.4828034809
 21
454.3328194362
 31
0.0
  0
LINE
  5
8D
330
1F
100
AcDbEntity
  8
0
  6
Continuous
 62
     7
370
    25
100
AcDbLine
 10
304.4045321827
 20
101.791760988
 30
0.0
 11
304.4003559135
 21
101.7788734448
 31
0.0
  0
SPLINE
  5
8E
330
1F
100
AcDbEntity
  8
0
  6
Continuous
 62
     7
370
    25
100
AcDbSpline
210
0.0
220
0.0
230
1.0
 70
     8
 71
     3
 72
    13
 73
     9
 74
     0
 42
0.00000001
 43
0.00000001
 40
0.0
 40
0.0
 40
0.0
 40
0.0
 40
0.1664861396825426
 40
0.3329812993316086
 40
0.4994660550566635
 40
0.6663067480585365
 40
0.833157913551422
 40
1.0
 40
1.0
 40
1.0
 40
1.0
 10
594.3961796378399
 20
101.7917609880587
 30
0.0
 10
578.3110299153909
 20
101.8268431467917
 30
0.0
 10
546.1398590014787
 20
101.8970093649561
 30
0.0
 10
497.8523972663687
 20
101.9543733273636
 30
0.0
 10
449.5208430261683
 20
101.9754141499428
 30
0.0
 10
401.1548223816936
 20
101.9545686900258
 30
0.0
 10
352.7640511127786
 20
101.8972109805502
 30
0.0
 10
320.5240794336538
 20
101.8269103479716
 30
0.0
 10
304.4045321827197
 20
101.7917609880434
 30
0.0
  0
LINE
  5
8F
330
1F
100
AcDbEntity
  8
0
  6
Continuous
 62
     7
370
    25
100
AcDbLine
 10
594.4003559135
 20
101.7788734448
 30
0.0
 11
594.3961796378
 21
101.7917609881
 31
0.0
  0
LINE
  5
90
330
1F
100
AcDbEntity
  8
0
  6
Continuous
 62
     7
370
    25
100
AcDbLine
 10
304.4003559135
 20
94.4073168883
 30
0.0
 11
304.4003559135
 21
101.7788734448
 31
0.0
  0
LINE
  5
91
330
1F
100
AcDbEntity
  8
0
  6
Continuous
 62
     7
370
    25
100
AcDbLine
 10
287.3268523407
 20
454.3309214362
 30
0.0
 11
287.317908346
 21
454.3328194362
 31
0.0
  0
SPLINE
  5
92
330
1F
100
AcDbEntity
  8
0
  6
Continuous
 62
     7
370
    25
100
AcDbSpline
210
0.0
220
0.0
230
1.0
 70
     8
 71
     3
 72
    14
 73
    10
 74
     0
 42
0.00000001
 43
0.00000001
 40
0.0
 40
0.0
 40
0.0
 40
0.0
 40
0.1421653558241425
 40
0.2843364374989546
 40
0.426500124123032
 40
0.5689494416617653
 40
0.7114078093302308
 40
0.8538541196898948
 40
1.0
 40
1.0
 40
1.0
 40
1.0
 10
286.8464099220686
 20
119.3328194361937
 30
0.0
 10
286.9087840857795
 20
135.177298368626
 30
0.0
 10
287.0335349253828
 20
166.8668943855904
 30
0.0
 10
287.1794509011722
 20
214.4549344553419
 30
0.0
 10
287.2932004909721
 20
262.1059081299048
 30
0.0
 10
287.368791052292
 20
309.8177484602089
 30
0.0
 10
287.4020112071889
 20
357.578295428017
 30
0.0
 10
287.3934099151804
 20
405.7580302646921
 30
0.0
 10
287.3492269978822
 20
438.0021745117488
 30
0.0
 10
287.32685234066
 20
454.3309214362432
 30
0.0
  0
LINE
  5
93
330
1F
100
AcDbEntity
  8
0
  6
Continuous
 62
     7
370
    25
100
AcDbLine
 10
279.4748533655
 20
119.3328194362
 30
0.0
 11
286.8464099221
 21
119.3328194362
 31
0.0
  0
SPLINE
  5
94
330
1F
100
AcDbEntity
  8
0
  6
Continuous
 62
     7
370
    25
100
AcDbSpline
210
0.0
220
0.0
230
1.0
 70
     8
 71
     3
 72
    15
 73
    11
 74
     0
 42
0.00000001
 43
0.00000001
 40
0.0
 40
0.0
 40
0.0
 40
0.0
 40
0.1277272255720583
 40
0.2500006214609079
 40
0.3758169317197229
 40
0.5000000007328164
 40
0.6241812956716677
 40
0.749999379718506
 40
0.8722718134135469
 40
1.0
 40
1.0
 40
1.0
 40
1.0
 10
304.4003559134734
 20
101.7788734447888
 30
0.0
 10
303.2281610554053
 20
101.8497252977736
 30
0.0
 10
300.9338229322854
 20
101.9884036977669
 30
0.0
 10
297.620246236325
 20
103.0450323347024
 30
0.0
 10
294.5913389722379
 20
104.6594617974929
 30
0.0
 10
291.9238045167809
 20
106.8562450962563
 30
0.0
 10
289.7270076880348
 20
109.5237884631191
 30
0.0
 10
288.1125778795165
 20
112.5526863977769
 30
0.0
 10
287.0559420903752
 20
115.8662775207883
 30
0.0
 10
286.9172627757633
 20
118.1606157161437
 30
0.0
 10
286.8464099220686
 20
119.3328194361937
 30
0.0
  0
SPLINE
  5
95
330
1F
100
AcDbEntity
  8
0
  6
Continuous
 62
     7
370
    25
100
AcDbSpline
210
0.0
220
0.0
230
1.0
 70
     8
 71
     3
 72
    15
 73
    11
 74
     0
 42
0.00000001
 43
0.00000001
 40
0.0
 40
0.0
 40
0.0
 40
0.0
 40
0.1203969716547338
 40
0.240793319058945
 40
0.3612955072028615
 40
0.4817982483628453
 40
0.6113057324163225
 40
0.7408138661147203
 40
0.8704068237473348
 40
1.0
 40
1.0
 40
1.0
 40
1.0
 10
611.4738594863018
 20
454.3309214455839
 30
0.0
 10
611.454936380861
 20
440.8794272208037
 30
0.0
 10
611.4170902680946
 20
413.976508516372
 30
0.0
 10
611.3987260578372
 20
373.5956947478333
 30
0.0
 10
611.4114187003312
 20
333.2031952698318
 30
0.0
 10
611.4571682315319
 20
291.8007393032283
 30
0.0
 10
611.5352503845935
 20
249.4087697593466
 30
0.0
 10
611.6461020435833
 20
206.0267677966415
 30
0.0
 10
611.7831238390947
 20
162.6618558068683
 30
0.0
 10
611.897242517531
 20
133.7758396814087
 30
0.0
 10
611.9543019048782
 20
119.3328194361937
 30
0.0
  0
LINE
  5
96
330
1F
100
AcDbEntity
  8
0
  6
Continuous
 62
     7
370
    25
100
AcDbLine
 10
611.4828034809
 20
454.3328194362
 30
0.0
 11
611.4738594863
 21
454.3309214456
 31
0.0
  0
LINE
  5
97
330
1F
100
AcDbEntity
  8
0
  6
Continuous
 62
     7
370
    25
100
AcDbLine
 10
426.1503559135
 20
476.405904782
 30
0.0
 11
426.1503559135
 21
477.2048084098
 31
0.0
  0
ARC
  5
98
330
1F
100
AcDbEntity
  8
0
  6
Continuous
 62
     7
370
    25
100
AcDbCircle
 10
425.9010406766
 20
482.0208910293
 30
0.0
 40
4.822531481003506
100
AcDbArc
 50
261.0448095014
 51
272.9633983002
  0
LINE
  5
99
330
1F
100
AcDbEntity
  8
0
  6
Continuous
 62
     7
370
    25
100
AcDbLine
 10
472.6503559135
 20
476.405904782
 30
0.0
 11
472.6503559135
 21
477.2048084098
 31
0.0
  0
ARC
  5
9A
330
1F
100
AcDbEntity
  8
0
  6
Continuous
 62
     7
370
    25
100
AcDbCircle
 10
472.8996711504
 20
482.0208910293
 30
0.0
 40
4.822531480996201
100
AcDbArc
 50
267.0366016997
 51
278.9551904986
  0
LINE
  5
9B
330
1F
100
AcDbEntity
  8
0
  6
Continuous
 62
     7
370
    25
100
AcDbLine
 10
426.1503559135
 20
477.2048084098
 30
0.0
 11
472.6503559135
 21
477.2048084098
 31
0.0
  0
LINE
  5
9C
330
1F
100
AcDbEntity
  8
0
  6
Continuous
 62
     7
370
    25
100
AcDbLine
 10
286.8464099221
 20
119.3328194362
 30
0.0
 11
286.9032289742
 21
119.2873149492
 31
0.0
  0
SPLINE
  5
9D
330
1F
100
AcDbEntity
  8
0
  6
Continuous
 62
     7
370
    25
100
AcDbSpline
210
0.0
220
0.0
230
1.0
 70
     8
 71
     3
 72
    20
 73
    16
 74
     0
 42
0.00000001
 43
0.00000001
 40
0.0
 40
0.0
 40
0.0
 40
0.0
 40
0.1238994817808226
 40
0.2498468348127874
 40
0.3327161568940996
 40
0.4158493426865206
 40
0.5003138827337013
 40
0.5610643330988697
 40
0.6244975982562703
 40
0.6852560657042478
 40
0.7501883124678863
 40
0.8087829264722679
 40
0.874487743355592
 40
0.9261458689734473
 40
1.0
 40
1.0
 40
1.0
 40
1.0
 10
287.32685234066
 20
454.3309214362432
 30
0.0
 10
287.4928369621038
 20
454.3247728969367
 30
0.0
 10
287.8275496800205
 20
454.3123741922576
 30
0.0
 10
289.2501583714791
 20
453.9675122164935
 30
0.0
 10
290.9551219555328
 20
453.5019600195487
 30
0.0
 10
292.743737525188
 20
452.9851559354752
 30
0.0
 10
294.632777327939
 20
452.4178795785181
 30
0.0
 10
296.5371827523611
 20
451.8312953665031
 30
0.0
 10
298.3456673294575
 20
451.2648360247856
 30
0.0
 10
300.3010937802951
 20
450.6429667909161
 30
0.0
 10
302.296192649188
 20
450.0014846604397
 30
0.0
 10
304.4175104912764
 20
449.3121519638847
 30
0.0
 10
306.4456126254955
 20
448.6492045796238
 30
0.0
 10
308.687722855911
 20
447.910990813867
 30
0.0
 10
310.1818370995475
 20
447.4179487617761
 30
0.0
 10
311.0610062904162
 20
447.1278321365937
 30
0.0
  0
SPLINE
  5
9E
330
1F
100
AcDbEntity
  8
0
  6
Continuous
 62
     7
370
    25
100
AcDbSpline
210
0.0
220
0.0
230
1.0
 70
     8
 71
     3
 72
    14
 73
    10
 74
     0
 42
0.00000001
 43
0.00000001
 40
0.0
 40
0.0
 40
0.0
 40
0.0
 40
0.1285392505246247
 40
0.2736230611079027
 40
0.4187183190146121
 40
0.5638047450221955
 40
0.7092001461728286
 40
0.8546029035485716
 40
1.0
 40
1.0
 40
1.0
 40
1.0
 10
311.0610062904162
 20
447.1278321365938
 30
0.0
 10
311.0623395624109
 20
433.3123347259428
 30
0.0
 10
311.065177714672
 20
403.9031178773782
 30
0.0
 10
311.0663821551459
 20
358.8837400163149
 30
0.0
 10
311.0696264350224
 20
312.0903048020102
 30
0.0
 10
311.0546924927639
 20
265.2789475592788
 30
0.0
 10
311.0007839777651
 20
218.461281972543
 30
0.0
 10
310.9066914193498
 20
171.6395773298842
 30
0.0
 10
310.8098207132557
 20
140.4587557499352
 30
0.0
 10
310.761386303087
 20
124.8686484543896
 30
0.0
  0
SPLINE
  5
9F
330
1F
100
AcDbEntity
  8
0
  6
Continuous
 62
     7
370
    25
100
AcDbSpline
210
0.0
220
0.0
230
1.0
 70
     8
 71
     3
 72
    17
 73
    13
 74
     0
 42
0.00000001
 43
0.00000001
 40
0.0
 40
0.0
 40
0.0
 40
0.0
 40
0.1266199350159332
 40
0.2500906723957796
 40
0.3749952093690982
 40
0.5003472215493808
 40
0.6244895802648521
 40
0.7500856353975306
 40
0.8087095798011517
 40
0.8744284842896031
 40
0.9260769690972782
 40
1.0
 40
1.0
 40
1.0
 40
1.0
 10
286.9032289741543
 20
119.2873149491701
 30
0.0
 10
287.120532122249
 20
119.228083731255
 30
0.0
 10
287.5497338148092
 20
119.1110944505912
 30
0.0
 10
289.2412413668501
 20
119.2814128246586
 30
0.0
 10
291.6018285115258
 20
119.6946998166394
 30
0.0
 10
294.6265116322465
 20
120.3620765443297
 30
0.0
 10
298.1774908749991
 20
121.2489346207862
 30
0.0
 10
301.4324489019781
 20
122.1316807016609
 30
0.0
 10
304.2027336578429
 20
122.9176514632634
 30
0.0
 10
306.2064468094433
 20
123.4999971617812
 30
0.0
 10
308.4200692853206
 20
124.1574059058695
 30
0.0
 10
309.8938074484477
 20
124.6050963634418
 30
0.0
 10
310.761386303087
 20
124.8686484543977
 30
0.0
  0
SPLINE
  5
A0
330
1F
100
AcDbEntity
  8
0
  6
Continuous
 62
     7
370
    25
100
AcDbSpline
210
0.0
220
0.0
230
1.0
 70
     8
 71
     3
 72
    20
 73
    16
 74
     0
 42
0.00000001
 43
0.00000001
 40
0.0
 40
0.0
 40
0.0
 40
0.0
 40
0.1265688428652104
 40
0.2499873607253519
 40
0.3327598806448895
 40
0.41588003650202
 40
0.5003308538271429
 40
0.5611043053137739
 40
0.6245378460982876
 40
0.6852967388849938
 40
0.7501963666869376
 40
0.8087939128917631
 40
0.8744838204705032
 40
0.926173393658778
 40
0.9999999999999999
 40
0.9999999999999999
 40
0.9999999999999999
 40
0.9999999999999999
 10
304.40453218272
 20
101.7917609880434
 30
0.0
 10
304.3961985490308
 20
101.9576494734198
 30
0.0
 10
304.3797387075398
 20
102.2852974450315
 30
0.0
 10
304.6587545294866
 20
103.662261266279
 30
0.0
 10
305.0471727291112
 20
105.2906457544192
 30
0.0
 10
305.4921272149567
 20
107.0156979681967
 30
0.0
 10
305.9878918221689
 20
108.8417939716862
 30
0.0
 10
306.5057038899857
 20
110.686516331587
 30
0.0
 10
307.0093193215864
 20
112.4415892493536
 30
0.0
 10
307.565493956892
 20
114.3423197481296
 30
0.0
 10
308.1424923232489
 20
116.2854490929938
 30
0.0
 10
308.7657264702876
 20
118.3555285338372
 30
0.0
 10
309.3683618274793
 20
120.3394791065144
 30
0.0
 10
310.0421359313127
 20
122.5365467818309
 30
0.0
 10
310.4950119077168
 20
124.0049545345134
 30
0.0
 10
310.7613863030873
 20
124.8686484543894
 30
0.0
  0
SPLINE
  5
A1
330
1F
100
AcDbEntity
  8
0
  6
Continuous
 62
     7
370
    25
100
AcDbSpline
210
0.0
220
0.0
230
1.0
 70
     8
 71
     3
 72
    13
 73
     9
 74
     0
 42
0.00000001
 43
0.00000001
 40
0.0
 40
0.0
 40
0.0
 40
0.0
 40
0.1532153516038963
 40
0.3335117285126596
 40
0.5138077669700616
 40
0.6942879125043367
 40
0.874768442096907
 40
1.0
 40
1.0
 40
1.0
 40
1.0
 10
310.761386303087
 20
124.8686484543896
 30
0.0
 10
324.9158614368795
 20
124.8889368166883
 30
0.0
 10
355.7266347611147
 20
124.9330995373822
 30
0.0
 10
403.2219236065704
 20
124.9656820681379
 30
0.0
 10
453.2473979269656
 20
124.975871210905
 30
0.0
 10
503.2889270866971
 20
124.961978879547
 30
0.0
 10
548.2287295189856
 20
124.9269529383963
 30
0.0
 10
576.4704277991286
 20
124.88559164741
 30
0.0
 10
588.0393255238597
 20
124.8686484543896
 30
0.0
  0
SPLINE
  5
A2
330
1F
100
AcDbEntity
  8
0
  6
Continuous
 62
     7
370
    25
100
AcDbSpline
210
0.0
220
0.0
230
1.0
 70
     8
 71
     3
 72
    17
 73
    13
 74
     0
 42
0.00000001
 43
0.00000001
 40
0.0
 40
0.0
 40
0.0
 40
0.0
 40
0.1266242002821653
 40
0.2500966973960828
 40
0.3750011391746839
 40
0.5003518892706039
 40
0.6244925771319284
 40
0.7500871058679406
 40
0.808709113510102
 40
0.8744289188915414
 40
0.9261485744346062
 40
1.0
 40
1.0
 40
1.0
 40
1.0
 10
594.3961796378399
 20
101.7917609880587
 30
0.0
 10
594.4044448450471
 20
101.9578822469489
 30
0.0
 10
594.4207695367035
 20
102.2859899714059
 30
0.0
 10
594.1074702211442
 20
103.833674812874
 30
0.0
 10
593.5636909145519
 20
106.0628945790529
 30
0.0
 10
592.7820366787495
 20
108.9724344613868
 30
0.0
 10
591.8003436908103
 20
112.4277837901672
 30
0.0
 10
590.8577816319834
 20
115.6223339929858
 30
0.0
 10
590.0350321448981
 20
118.3554289521714
 30
0.0
 10
589.4323189835218
 20
120.3395679964899
 30
0.0
 10
588.7585537675004
 20
122.5366282013885
 30
0.0
 10
588.3056747538724
 20
124.0050397123072
 30
0.0
 10
588.0393255238597
 20
124.8686484543896
 30
0.0
  0
SPLINE
  5
A3
330
1F
100
AcDbEntity
  8
0
  6
Continuous
 62
     7
370
    25
100
AcDbSpline
210
0.0
220
0.0
230
1.0
 70
     8
 71
     3
 72
    19
 73
    15
 74
     0
 42
0.00000001
 43
0.00000001
 40
0.0
 40
0.0
 40
0.0
 40
0.0
 40
0.0609285033155397
 40
0.1075851967377192
 40
0.1526973776839468
 40
0.203564550732738
 40
0.2498915470303136
 40
0.3355022901934819
 40
0.4181341588157978
 40
0.4997559269722091
 40
0.6250820973863699
 40
0.749960884671103
 40
0.873406167974859
 40
1.0
 40
1.0
 40
1.0
 40
1.0
 10
588.0393255238598
 20
124.8686484543894
 30
0.0
 10
588.7545724589709
 20
124.6511375550425
 30
0.0
 10
590.0175278582107
 20
124.2670652140945
 30
0.0
 10
591.7912117970035
 20
123.7379594765421
 30
0.0
 10
593.4289962797341
 20
123.2565910797016
 30
0.0
 10
595.0363999895012
 20
122.7929563994269
 30
0.0
 10
597.0564572213063
 20
122.2213842889728
 30
0.0
 10
599.3449723849004
 20
121.5944586889922
 30
0.0
 10
601.8459233183406
 20
120.941914882614
 30
0.0
 10
604.5167790647038
 20
120.2865298374052
 30
0.0
 10
607.199133529744
 20
119.6946318474735
 30
0.0
 10
609.5594047500796
 20
119.2814307594179
 30
0.0
 10
611.2509948482636
 20
119.1110899118737
 30
0.0
 10
611.6801853634644
 20
119.2280822098862
 30
0.0
 10
611.897482852766
 20
119.2873149555437
 30
0.0
  0
SPLINE
  5
A4
330
1F
100
AcDbEntity
  8
0
  6
Continuous
 62
     7
370
    25
100
AcDbSpline
210
0.0
220
0.0
230
1.0
 70
     8
 71
     3
 72
    15
 73
    11
 74
     0
 42
0.00000001
 43
0.00000001
 40
0.0
 40
0.0
 40
0.0
 40
0.0
 40
0.1297941873541713
 40
0.2595881683953805
 40
0.3894568310387371
 40
0.5193249251085723
 40
0.6394460709200769
 40
0.7595667430326071
 40
0.8797831318606987
 40
1.0
 40
1.0
 40
1.0
 40
1.0
 10
588.0393255238597
 20
124.8686484543894
 30
0.0
 10
587.9955960568326
 20
138.7854114088001
 30
0.0
 10
587.9081371922877
 20
166.6189151963799
 30
0.0
 10
587.8173946352057
 20
208.4182001365102
 30
0.0
 10
587.7599646725089
 20
250.2496748901457
 30
0.0
 10
587.7361429174841
 20
291.0648956181885
 30
0.0
 10
587.7349198716572
 20
330.8476728802262
 30
0.0
 10
587.7391341856277
 20
369.6007482607698
 30
0.0
 10
587.7340067622036
 20
408.3650659690042
 30
0.0
 10
587.7378059425638
 20
434.2068929085673
 30
0.0
 10
587.7397055365306
 20
447.1278321365937
 30
0.0
  0
SPLINE
  5
A5
330
1F
100
AcDbEntity
  8
0
  6
Continuous
 62
     7
370
    25
100
AcDbSpline
210
0.0
220
0.0
230
1.0
 70
     8
 71
     3
 72
    19
 73
    15
 74
     0
 42
0.00000001
 43
0.00000001
 40
0.0
 40
0.0
 40
0.0
 40
0.0
 40
0.0608916764531288
 40
0.1075592781701929
 40
0.152703816905354
 40
0.2035793155923094
 40
0.2499014344020641
 40
0.3355488354049002
 40
0.4181785294456966
 40
0.4997722410757717
 40
0.6250900273305251
 40
0.7500927226125499
 40
0.8760709826323865
 40
1.0
 40
1.0
 40
1.0
 40
1.0
 10
587.7397055365306
 20
447.1278321365937
 30
0.0
 10
588.464446516571
 20
447.3670400408612
 30
0.0
 10
589.7446316126983
 20
447.7895777506816
 30
0.0
 10
591.5414824542844
 20
448.381449686713
 30
0.0
 10
593.2001678710833
 20
448.9256610932449
 30
0.0
 10
594.8266056504797
 20
449.45637177925
 30
0.0
 10
596.8685573098252
 20
450.1192234801858
 30
0.0
 10
599.178202374947
 20
450.8607326216967
 30
0.0
 10
601.6951344365864
 20
451.6553941797007
 30
0.0
 10
604.3726512767175
 20
452.4825767937822
 30
0.0
 10
607.0443406123942
 20
453.2785066932182
 30
0.0
 10
609.3733628116695
 20
453.924711803531
 30
0.0
 10
610.9724675199434
 20
454.3121662119993
 30
0.0
 10
611.307644983915
 20
454.3247039709801
 30
0.0
 10
611.4738594863019
 20
454.3309214455838
 30
0.0
  0
LINE
  5
A6
330
1F
100
AcDbEntity
  8
0
  6
Continuous
 62
     7
370
    25
100
AcDbLine
 10
611.8974828528
 20
119.2873149555
 30
0.0
 11
611.9543019049
 21
119.3328194362
 31
0.0
  0
SPLINE
  5
A7
330
1F
100
AcDbEntity
  8
0
  6
Continuous
 62
     7
370
    25
100
AcDbSpline
210
0.0
220
0.0
230
1.0
 70
     8
 71
     3
 72
    15
 73
    11
 74
     0
 42
0.00000001
 43
0.00000001
 40
0.0
 40
0.0
 40
0.0
 40
0.0
 40
0.1250485647648276
 40
0.2500560396443413
 40
0.3750352273637312
 40
0.4999999995579349
 40
0.6249647717823638
 40
0.749943959573005
 40
0.8749514385700566
 40
0.9999999999999999
 40
0.9999999999999999
 40
0.9999999999999999
 40
0.9999999999999999
 10
594.3961796378426
 20
101.7917609880588
 30
0.0
 10
595.537095746431
 20
101.8614381076311
 30
0.0
 10
597.8185530683651
 20
102.0007694514724
 30
0.0
 10
601.1102712199041
 20
103.0481643569766
 30
0.0
 10
604.146052685137
 20
104.6679101731633
 30
0.0
 10
606.8091641384339
 20
106.859317486887
 30
0.0
 10
609.0025163395845
 20
109.5227784536095
 30
0.0
 10
610.6264753629009
 20
112.561242392455
 30
0.0
 10
611.6800497614465
 20
115.857712605748
 30
0.0
 10
611.8249972177132
 20
118.1439889659514
 30
0.0
 10
611.897482852766
 20
119.2873149555437
 30
0.0
  0
SPLINE
  5
A8
330
1F
100
AcDbEntity
  8
0
  6
Continuous
 62
     7
370
    25
100
AcDbSpline
210
0.0
220
0.0
230
1.0
 70
     8
 71
     3
 72
    15
 73
    11
 74
     0
 42
0.00000001
 43
0.00000001
 40
0.0
 40
0.0
 40
0.0
 40
0.0
 40
0.1250485637390564
 40
0.250056040433159
 40
0.3750352282041676
 40
0.5000000004149724
 40
0.6249647726227976
 40
0.7499439603618203
 40
0.8749514375442667
 40
1.0
 40
1.0
 40
1.0
 40
1.0
 10
304.4045321827196
 20
101.7917609880436
 30
0.0
 10
303.263616083958
 20
101.8614381065717
 30
0.0
 10
300.9821587557626
 20
102.0007694499068
 30
0.0
 10
297.6904405971164
 20
103.0481643571938
 30
0.0
 10
294.654659119867
 20
104.6679101848398
 30
0.0
 10
291.9915476700433
 20
106.8593175016181
 30
0.0
 10
289.7981954735262
 20
109.5227784698948
 30
0.0
 10
288.1742364628543
 20
112.561242394518
 30
0.0
 10
287.1206620668723
 20
115.8577125982973
 30
0.0
 10
286.975714610222
 20
118.1439889505622
 30
0.0
 10
286.9032289741543
 20
119.2873149491701
 30
0.0
  0
LINE
  5
A9
330
1F
100
AcDbEntity
  8
0
  6
Continuous
 62
     7
370
    25
100
AcDbLine
 10
304.3811600773
 20
471.3811825949
 30
0.0
 11
304.4003559135
 21
471.4152670036
 31
0.0
  0
LINE
  5
AA
330
1F
100
AcDbEntity
  8
0
  6
Continuous
 62
     7
370
    25
100
AcDbLine
 10
594.419551759
 20
471.3811825949
 30
0.0
 11
594.4003559135
 21
471.4152670036
 31
0.0
  0
SPLINE
  5
AB
330
1F
100
AcDbEntity
  8
0
  6
Continuous
 62
     7
370
    25
100
AcDbSpline
210
0.0
220
0.0
230
1.0
 70
     8
 71
     3
 72
    19
 73
    15
 74
     0
 42
0.00000001
 43
0.00000001
 40
0.0
 40
0.0
 40
0.0
 40
0.0
 40
0.0571951907011247
 40
0.1012386229203415
 40
0.1527044771278955
 40
0.2035799468192264
 40
0.2499049111694469
 40
0.3355521358503253
 40
0.4181835141861061
 40
0.4997809440829024
 40
0.6251008314803022
 40
0.7501036376053272
 40
0.8760744652838689
 40
1.0
 40
1.0
 40
1.0
 40
1.0
 10
587.7397055365306
 20
447.1278321365937
 30
0.0
 10
587.962945714759
 20
447.8099053096282
 30
0.0
 10
588.3580930680121
 20
449.0172122164232
 30
0.0
 10
588.9426494544741
 20
450.8232892362795
 30
0.0
 10
589.4917479640061
 20
452.536397476607
 30
0.0
 10
590.0332765502953
 20
454.2472738886344
 30
0.0
 10
590.6773289500334
 20
456.307421367762
 30
0.0
 10
591.3919676406681
 20
458.6433102076427
 30
0.0
 10
592.1485637062667
 20
461.1977269300464
 30
0.0
 10
592.9244754281123
 20
463.9260331777411
 30
0.0
 10
593.6519954039923
 20
466.6658358468509
 30
0.0
 10
594.2097924891933
 20
469.0832481927857
 30
0.0
 10
594.5012540762708
 20
470.7787084372206
 30
0.0
 10
594.44663685869
 20
471.1814566486059
 30
0.0
 10
594.419551758977
 20
471.3811825948885
 30
0.0
  0
SPLINE
  5
AC
330
1F
100
AcDbEntity
  8
0
  6
Continuous
 62
     7
370
    25
100
AcDbSpline
210
0.0
220
0.0
230
1.0
 70
     8
 71
     3
 72
    14
 73
    10
 74
     0
 42
0.00000001
 43
0.00000001
 40
0.0
 40
0.0
 40
0.0
 40
0.0
 40
0.214532213421905
 40
0.3218404806755493
 40
0.4291479606400776
 40
0.5717931378587127
 40
0.7144401314222913
 40
0.8572195843739369
 40
1.0
 40
1.0
 40
1.0
 40
1.0
 10
587.7397055365306
 20
447.1278321365937
 30
0.0
 10
567.9647033394099
 20
447.1075286473919
 30
0.0
 10
538.2983137983434
 20
447.0770694234839
 30
0.0
 10
498.7139814166238
 20
447.1116970049588
 30
0.0
 10
465.7532926560124
 20
447.1534912850892
 30
0.0
 10
429.5258936333807
 20
447.146169995969
 30
0.0
 10
390.0330042878807
 20
447.0974035871014
 30
0.0
 10
350.5409962048077
 20
447.083402307806
 30
0.0
 10
324.2210325050133
 20
447.1130221603798
 30
0.0
 10
311.0610062904162
 20
447.1278321365937
 30
0.0
  0
SPLINE
  5
AD
330
1F
100
AcDbEntity
  8
0
  6
Continuous
 62
     7
370
    25
100
AcDbSpline
210
0.0
220
0.0
230
1.0
 70
     8
 71
     3
 72
    19
 73
    15
 74
     0
 42
0.00000001
 43
0.00000001
 40
0.0
 40
0.0
 40
0.0
 40
0.0
 40
0.0572170919384312
 40
0.1012397191517079
 40
0.1527050890721195
 40
0.2035808683506698
 40
0.2499049067935504
 40
0.3355531512428716
 40
0.4181845737194115
 40
0.4997809419083347
 40
0.6251008305048602
 40
0.7501036373913962
 40
0.8760750143916407
 40
1.0
 40
1.0
 40
1.0
 40
1.0
 10
311.0610062904162
 20
447.1278321365937
 30
0.0
 10
310.8376813543824
 20
447.8101667271599
 30
0.0
 10
310.442531006162
 20
449.0174871269931
 30
0.0
 10
309.8579732580632
 20
450.8235656572185
 30
0.0
 10
309.3089544882239
 20
452.5364283389667
 30
0.0
 10
308.7674295754744
 20
454.2472913690188
 30
0.0
 10
308.1233765364012
 20
456.307443006657
 30
0.0
 10
307.4087369536272
 20
458.6433325535563
 30
0.0
 10
306.6521429735183
 20
461.1977472377871
 30
0.0
 10
305.8762340211111
 20
463.9260419045959
 30
0.0
 10
305.14871681915
 20
466.6658358856982
 30
0.0
 10
304.5909180589169
 20
469.0832517180083
 30
0.0
 10
304.2994598125526
 20
470.7787103797725
 30
0.0
 10
304.3540757382714
 20
471.181457884274
 30
0.0
 10
304.3811600773073
 20
471.3811825948624
 30
0.0
  0
SPLINE
  5
AE
330
1F
100
AcDbEntity
  8
0
  6
Continuous
 62
     7
370
    25
100
AcDbSpline
210
0.0
220
0.0
230
1.0
 70
     8
 71
     3
 72
    15
 73
    11
 74
     0
 42
0.00000001
 43
0.00000001
 40
0.0
 40
0.0
 40
0.0
 40
0.0
 40
0.1250258700962933
 40
0.2500298668122474
 40
0.3750187806357316
 40
0.499999999559928
 40
0.6249812185054348
 40
0.7499701323940438
 40
0.874974132428636
 40
1.0
 40
1.0
 40
1.0
 40
1.0
 10
611.4738594863018
 20
454.3309214455889
 30
0.0
 10
611.4065475877221
 20
455.4436845147269
 30
0.0
 10
611.2719355668361
 20
457.669015974175
 30
0.0
 10
610.2518922844775
 20
460.8796579264135
 30
0.0
 10
608.6730880127803
 20
463.840331627574
 30
0.0
 10
606.5362380081644
 20
466.4366510349047
 30
0.0
 10
603.93878377652
 20
468.5735125333583
 30
0.0
 10
600.9758488684387
 20
470.1535003597746
 30
0.0
 10
597.7619746831922
 20
471.1757712567738
 30
0.0
 10
595.5337576934438
 20
471.3127081566969
 30
0.0
 10
594.419551758977
 20
471.3811825948885
 30
0.0
  0
SPLINE
  5
AF
330
1F
100
AcDbEntity
  8
0
  6
Continuous
 62
     7
370
    25
100
AcDbSpline
210
0.0
220
0.0
230
1.0
 70
     8
 71
     3
 72
    15
 73
    11
 74
     0
 42
0.00000001
 43
0.00000001
 40
0.0
 40
0.0
 40
0.0
 40
0.0
 40
0.1250258690640275
 40
0.2500298676061385
 40
0.3750187814816455
 40
0.5000000004225775
 40
0.6249812193513486
 40
0.749970133187943
 40
0.874974131396379
 40
1.0
 40
1.0
 40
1.0
 40
1.0
 10
287.32685234066
 20
454.3309214362432
 30
0.0
 10
287.3941642382811
 20
455.4436844967495
 30
0.0
 10
287.5287762587893
 20
457.669015964375
 30
0.0
 10
288.5488195438272
 20
460.8796579265224
 30
0.0
 10
290.1276238282108
 20
463.840331642171
 30
0.0
 10
292.2644738377779
 20
466.4366510484535
 30
0.0
 10
294.8619280733176
 20
468.5735125442997
 30
0.0
 10
297.8248629701441
 20
470.1535003597581
 30
0.0
 10
301.0387371489847
 20
471.1757712551885
 30
0.0
 10
303.26695413298
 20
471.3127081556294
 30
0.0
 10
304.3811600773072
 20
471.3811825948625
 30
0.0
  0
CIRCLE
  5
B0
330
1F
100
AcDbEntity
  8
0
  6
Continuous
 62
     7
370
    25
100
AcDbCircle
 10
449.4003559135
 20
369.3328194362
 30
0.0
 40
70.00000000000006
  0
CIRCLE
  5
B1
330
1F
100
AcDbEntity
  8
0
  6
Continuous
 62
     7
370
    25
100
AcDbCircle
 10
449.4003559135
 20
369.3328194362
 30
0.0
 40
58.94765075494621
  0
CIRCLE
  5
B2
330
1F
100
AcDbEntity
  8
0
  6
Continuous
 62
     7
370
    25
100
AcDbCircle
 10
449.4003559135
 20
369.3328194362
 30
0.0
 40
57.5
  0
CIRCLE
  5
B3
330
1F
100
AcDbEntity
  8
0
  6
Continuous
 62
     7
370
    25
100
AcDbCircle
 10
449.4003559135
 20
369.3328194362
 30
0.0
 40
56.58715574274765
  0
CIRCLE
  5
B4
330
1F
100
AcDbEntity
  8
0
  6
Continuous
 62
     7
370
    25
100
AcDbCircle
 10
449.4003559135
 20
369.3328194362
 30
0.0
 40
45.00000000000006
  0
ARC
  5
B5
330
1F
100
AcDbEntity
  8
0
  6
Continuous
 62
     7
370
    25
100
AcDbCircle
 10
678.4003559135
 20
454.3328194362
 30
0.0
 40
24.92550254794048
100
AcDbArc
 50
90.0
 51
180.0
  0
LINE
  5
B6
330
1F
100
AcDbEntity
  8
0
  6
Continuous
 62
     7
370
    25
100
AcDbLine
 10
653.4748533655
 20
454.3328194362
 30
0.0
 11
653.4748533655
 21
119.3328194362
 31
0.0
  0
LINE
  5
B7
330
1F
100
AcDbEntity
  8
0
  6
Continuous
 62
     7
370
    25
100
AcDbLine
 10
968.4003559135
 20
479.2583219841
 30
0.0
 11
678.4003559135
 21
479.2583219841
 31
0.0
  0
ARC
  5
B8
330
1F
100
AcDbEntity
  8
0
  6
Continuous
 62
     7
370
    25
100
AcDbCircle
 10
678.4003559135
 20
119.3328194362
 30
0.0
 40
24.92550254794048
100
AcDbArc
 50
180.0
 51
270.0
  0
ARC
  5
B9
330
1F
100
AcDbEntity
  8
0
  6
Continuous
 62
     7
370
    25
100
AcDbCircle
 10
968.4003559135
 20
454.3328194362
 30
0.0
 40
24.92550254794048
100
AcDbArc
 50
0.0
 51
90.0
  0
LINE
  5
BA
330
1F
100
AcDbEntity
  8
0
  6
Continuous
 62
     7
370
    25
100
AcDbLine
 10
993.3258584614
 20
119.3328194362
 30
0.0
 11
993.3258584614
 21
454.3328194362
 31
0.0
  0
LINE
  5
BB
330
1F
100
AcDbEntity
  8
0
  6
Continuous
 62
     7
370
    25
100
AcDbLine
 10
678.4003559135
 20
94.4073168883
 30
0.0
 11
968.4003559135
 21
94.4073168883
 31
0.0
  0
ARC
  5
BC
330
1F
100
AcDbEntity
  8
0
  6
Continuous
 62
     7
370
    25
100
AcDbCircle
 10
968.4003559135
 20
119.3328194362
 30
0.0
 40
24.92550254794047
100
AcDbArc
 50
270.0
 51
0.0
  0
LINE
  5
BD
330
1F
100
AcDbEntity
  8
0
  6
Continuous
 62
     7
370
    25
100
AcDbLine
 10
678.4045321827
 20
101.791760988
 30
0.0
 11
678.4003559135
 21
101.7788734448
 31
0.0
  0
SPLINE
  5
BE
330
1F
100
AcDbEntity
  8
0
  6
Continuous
 62
     7
370
    25
100
AcDbSpline
210
0.0
220
0.0
230
1.0
 70
     8
 71
     3
 72
    13
 73
     9
 74
     0
 42
0.00000001
 43
0.00000001
 40
0.0
 40
0.0
 40
0.0
 40
0.0
 40
0.1664861396825426
 40
0.3329812993316086
 40
0.4994660550566635
 40
0.6663067480585365
 40
0.8331579135514221
 40
1.0
 40
1.0
 40
1.0
 40
1.0
 10
968.3961796378389
 20
101.7917609880587
 30
0.0
 10
952.3110299153901
 20
101.8268431467917
 30
0.0
 10
920.139859001478
 20
101.8970093649561
 30
0.0
 10
871.8523972663678
 20
101.9543733273636
 30
0.0
 10
823.5208430261674
 20
101.9754141499428
 30
0.0
 10
775.1548223816924
 20
101.9545686900264
 30
0.0
 10
726.7640511127776
 20
101.89721098055
 30
0.0
 10
694.5240794336528
 20
101.8269103479714
 30
0.0
 10
678.4045321827188
 20
101.7917609880434
 30
0.0
  0
LINE
  5
BF
330
1F
100
AcDbEntity
  8
0
  6
Continuous
 62
     7
370
    25
100
AcDbLine
 10
968.4003559135
 20
101.7788734448
 30
0.0
 11
968.3961796378
 21
101.7917609881
 31
0.0
  0
LINE
  5
C0
330
1F
100
AcDbEntity
  8
0
  6
Continuous
 62
     7
370
    25
100
AcDbLine
 10
968.4003559135
 20
94.4073168883
 30
0.0
 11
968.4003559135
 21
101.7788734448
 31
0.0
  0
LINE
  5
C1
330
1F
100
AcDbEntity
  8
0
  6
Continuous
 62
     7
370
    25
100
AcDbLine
 10
678.4003559135
 20
94.4073168883
 30
0.0
 11
678.4003559135
 21
101.7788734448
 31
0.0
  0
LINE
  5
C2
330
1F
100
AcDbEntity
  8
0
  6
Continuous
 62
     7
370
    25
100
AcDbLine
 10
799.1503559135
 20
477.6096317756
 30
0.0
 11
799.1503559135
 21
476.4582407382
 31
0.0
  0
ARC
  5
C3
330
1F
100
AcDbEntity
  8
0
  6
Continuous
 62
     7
370
    25
100
AcDbCircle
 10
799.9010406766
 20
481.2219874015
 30
0.0
 40
4.822531481003627
100
AcDbArc
 50
261.0448095014
 51
272.9633983002
  0
LINE
  5
C4
330
1F
100
AcDbEntity
  8
0
  6
Continuous
 62
     7
370
    25
100
AcDbLine
 10
800.1503559135
 20
476.405904782
 30
0.0
 11
846.6503559135
 21
476.405904782
 31
0.0
  0
ARC
  5
C5
330
1F
100
AcDbEntity
  8
0
  6
Continuous
 62
     7
370
    25
100
AcDbCircle
 10
846.8996711504
 20
481.2219874015
 30
0.0
 40
4.822531480997226
100
AcDbArc
 50
267.0366016997
 51
278.9551904986
  0
LINE
  5
C6
330
1F
100
AcDbEntity
  8
0
  6
Continuous
 62
     7
370
    25
100
AcDbLine
 10
847.6503559135
 20
476.4582407382
 30
0.0
 11
847.6503559135
 21
477.6096317756
 31
0.0
  0
ARC
  5
C7
330
1F
100
AcDbEntity
  8
0
  6
Continuous
 62
     7
370
    25
100
AcDbCircle
 10
846.8996711504
 20
472.8458851123
 30
0.0
 40
4.822531481011711
100
AcDbArc
 50
81.0448095014
 51
92.9633983002
  0
LINE
  5
C8
330
1F
100
AcDbEntity
  8
0
  6
Continuous
 62
     7
370
    25
100
AcDbLine
 10
846.6503559135
 20
477.6619677318
 30
0.0
 11
800.1503559135
 21
477.6619677318
 31
0.0
  0
ARC
  5
C9
330
1F
100
AcDbEntity
  8
0
  6
Continuous
 62
     7
370
    25
100
AcDbCircle
 10
799.9010406766
 20
472.8458851123
 30
0.0
 40
4.822531481003907
100
AcDbArc
 50
87.0366016998
 51
98.9551904986
  0
SPLINE
  5
CA
330
1F
100
AcDbEntity
  8
0
  6
Continuous
 62
     7
370
    25
100
AcDbSpline
210
0.0
220
0.0
230
1.0
 70
     8
 71
     3
 72
    14
 73
    10
 74
     0
 42
0.00000001
 43
0.00000001
 40
0.0
 40
0.0
 40
0.0
 40
0.0
 40
0.1416418592737028
 40
0.2832827544648183
 40
0.4250451509087887
 40
0.5668053210537428
 40
0.6750778940077848
 40
0.7833514471234173
 40
1.0
 40
1.0
 40
1.0
 40
1.0
 10
678.4003559134723
 20
471.4152670036357
 30
0.0
 10
692.0832325967099
 20
471.3801905829846
 30
0.0
 10
719.4488928309482
 20
471.3100379804295
 30
0.0
 10
760.5363347475977
 20
471.2377609559164
 30
0.0
 10
801.6504270763562
 20
471.1956147980451
 30
0.0
 10
839.5463077655031
 20
471.1937101215311
 30
0.0
 10
874.1964893304691
 20
471.2240237803049
 30
0.0
 10
916.0786736971183
 20
471.2852574907869
 30
0.0
 10
947.4697228545871
 20
471.3632583278376
 30
0.0
 10
968.4003559134724
 20
471.4152670036357
 30
0.0
  0
LINE
  5
CB
330
1F
100
AcDbEntity
  8
0
  6
Continuous
 62
     7
370
    25
100
AcDbLine
 10
678.4003559135
 20
479.2583219841
 30
0.0
 11
678.4003559135
 21
471.4152670036
 31
0.0
  0
LINE
  5
CC
330
1F
100
AcDbEntity
  8
0
  6
Continuous
 62
     7
370
    25
100
AcDbLine
 10
968.4003559135
 20
479.2583219841
 30
0.0
 11
968.4003559135
 21
471.4152670036
 31
0.0
  0
SPLINE
  5
CD
330
1F
100
AcDbEntity
  8
0
  6
Continuous
 62
     7
370
    25
100
AcDbSpline
210
0.0
220
0.0
230
1.0
 70
     8
 71
     3
 72
    15
 73
    11
 74
     0
 42
0.00000001
 43
0.00000001
 40
0.0
 40
0.0
 40
0.0
 40
0.0
 40
0.1277272117027025
 40
0.2500006214663449
 40
0.3758169053141832
 40
0.5000000007414299
 40
0.6241812692474732
 40
0.749999379723937
 40
0.8722717995237445
 40
1.0
 40
1.0
 40
1.0
 40
1.0
 10
968.4003559134724
 20
471.4152670036357
 30
0.0
 10
969.5410655309436
 20
471.346318243199
 30
0.0
 10
971.7737778048496
 20
471.2113647534239
 30
0.0
 10
974.998351727826
 20
470.183117230317
 30
0.0
 10
977.9459027720187
 20
468.612051297908
 30
0.0
 10
980.5417872086816
 20
466.474273723979
 30
0.0
 10
982.6795783414715
 20
463.8783803569689
 30
0.0
 10
984.2506446242951
 20
460.9308386551259
 30
0.0
 10
985.2788993129412
 20
457.7062502731681
 30
0.0
 10
985.4138537185084
 20
455.4735379267227
 30
0.0
 10
985.4828034809145
 20
454.3328194361937
 30
0.0
  0
LINE
  5
CE
330
1F
100
AcDbEntity
  8
0
  6
Continuous
 62
     7
370
    25
100
AcDbLine
 10
993.3258584614
 20
454.3328194362
 30
0.0
 11
985.4828034809
 21
454.3328194362
 31
0.0
  0
SPLINE
  5
CF
330
1F
100
AcDbEntity
  8
0
  6
Continuous
 62
     7
370
    25
100
AcDbSpline
210
0.0
220
0.0
230
1.0
 70
     8
 71
     3
 72
    15
 73
    11
 74
     0
 42
0.00000001
 43
0.00000001
 40
0.0
 40
0.0
 40
0.0
 40
0.0
 40
0.1277272255748725
 40
0.2500006214609048
 40
0.3758169311157529
 40
0.5000000007328548
 40
0.6241812950806374
 40
0.749999379718496
 40
0.8722718134307327
 40
1.0
 40
1.0
 40
1.0
 40
1.0
 10
985.9543019048773
 20
119.3328194361937
 30
0.0
 10
985.8834500518927
 20
118.160624578101
 30
0.0
 10
985.7447716519036
 20
115.8662864549836
 30
0.0
 10
984.6881430166123
 20
112.5527097643327
 30
0.0
 10
983.0737135553971
 20
109.5238024997242
 30
0.0
 10
980.8769302611521
 20
106.8562680472273
 30
0.0
 10
978.2093868912109
 20
104.6594712139105
 30
0.0
 10
975.1804889569461
 20
103.0450414037873
 30
0.0
 10
971.8668978287221
 20
101.9884056130712
 30
0.0
 10
969.5725596333655
 20
101.8497262984692
 30
0.0
 10
968.4003559134725
 20
101.7788734447889
 30
0.0
  0
LINE
  5
D0
330
1F
100
AcDbEntity
  8
0
  6
Continuous
 62
     7
370
    25
100
AcDbLine
 10
993.3258584614
 20
119.3328194362
 30
0.0
 11
985.9543019049
 21
119.3328194362
 31
0.0
  0
SPLINE
  5
D1
330
1F
100
AcDbEntity
  8
0
  6
Continuous
 62
     7
370
    25
100
AcDbSpline
210
0.0
220
0.0
230
1.0
 70
     8
 71
     3
 72
    15
 73
    11
 74
     0
 42
0.00000001
 43
0.00000001
 40
0.0
 40
0.0
 40
0.0
 40
0.0
 40
0.1277272124220014
 40
0.2500006214662481
 40
0.3758169059605629
 40
0.5000000007414174
 40
0.6241812686443762
 40
0.7499993797240041
 40
0.8722717988525062
 40
1.0
 40
1.0
 40
1.0
 40
1.0
 10
661.3179083460305
 20
454.3328194361936
 30
0.0
 10
661.3868571071921
 20
455.4735290601171
 30
0.0
 10
661.5218105976259
 20
457.7062413340781
 30
0.0
 10
662.5500581241376
 20
460.930815261744
 30
0.0
 10
664.1211240550695
 20
463.8783662997391
 30
0.0
 10
666.2589016267472
 20
466.4742507308874
 30
0.0
 10
668.8547949880335
 20
468.6120418611043
 30
0.0
 10
671.8023366840919
 20
470.183108142547
 30
0.0
 10
675.0269250704251
 20
471.2113628343715
 30
0.0
 10
677.2596374169221
 20
471.346317240553
 30
0.0
 10
678.4003559134723
 20
471.4152670036357
 30
0.0
  0
LINE
  5
D2
330
1F
100
AcDbEntity
  8
0
  6
Continuous
 62
     7
370
    25
100
AcDbLine
 10
653.4748533655
 20
454.3328194362
 30
0.0
 11
661.317908346
 21
454.3328194362
 31
0.0
  0
LINE
  5
D3
330
1F
100
AcDbEntity
  8
0
  6
Continuous
 62
     7
370
    25
100
AcDbLine
 10
661.3268523407
 20
454.3309214362
 30
0.0
 11
661.317908346
 21
454.3328194362
 31
0.0
  0
SPLINE
  5
D4
330
1F
100
AcDbEntity
  8
0
  6
Continuous
 62
     7
370
    25
100
AcDbSpline
210
0.0
220
0.0
230
1.0
 70
     8
 71
     3
 72
    14
 73
    10
 74
     0
 42
0.00000001
 43
0.00000001
 40
0.0
 40
0.0
 40
0.0
 40
0.0
 40
0.1421653558241425
 40
0.2843364374989546
 40
0.426500124123032
 40
0.5689494416617653
 40
0.7114078093302308
 40
0.8538541196898948
 40
1.0
 40
1.0
 40
1.0
 40
1.0
 10
660.8464099220677
 20
119.3328194361937
 30
0.0
 10
660.9087840857787
 20
135.177298368626
 30
0.0
 10
661.033534925382
 20
166.8668943855904
 30
0.0
 10
661.1794509011713
 20
214.4549344553419
 30
0.0
 10
661.2932004909712
 20
262.1059081299048
 30
0.0
 10
661.3687910522909
 20
309.8177484602089
 30
0.0
 10
661.402011207188
 20
357.578295428017
 30
0.0
 10
661.3934099151796
 20
405.7580302646921
 30
0.0
 10
661.3492269978814
 20
438.0021745117488
 30
0.0
 10
661.3268523406591
 20
454.3309214362432
 30
0.0
  0
LINE
  5
D5
330
1F
100
AcDbEntity
  8
0
  6
Continuous
 62
     7
370
    25
100
AcDbLine
 10
653.4748533655
 20
119.3328194362
 30
0.0
 11
660.8464099221
 21
119.3328194362
 31
0.0
  0
SPLINE
  5
D6
330
1F
100
AcDbEntity
  8
0
  6
Continuous
 62
     7
370
    25
100
AcDbSpline
210
0.0
220
0.0
230
1.0
 70
     8
 71
     3
 72
    15
 73
    11
 74
     0
 42
0.00000001
 43
0.00000001
 40
0.0
 40
0.0
 40
0.0
 40
0.0
 40
0.1277272255720584
 40
0.250000621460908
 40
0.3758169317197221
 40
0.5000000007328164
 40
0.6241812956716678
 40
0.7499993797185063
 40
0.8722718134135469
 40
1.0
 40
1.0
 40
1.0
 40
1.0
 10
678.4003559134725
 20
101.7788734447888
 30
0.0
 10
677.2281610554043
 20
101.8497252977739
 30
0.0
 10
674.9338229322844
 20
101.9884036977668
 30
0.0
 10
671.6202462363241
 20
103.0450323347024
 30
0.0
 10
668.5913389722369
 20
104.6594617974931
 30
0.0
 10
665.9238045167803
 20
106.856245096256
 30
0.0
 10
663.727007688034
 20
109.5237884631191
 30
0.0
 10
662.1125778795156
 20
112.5526863977769
 30
0.0
 10
661.0559420903744
 20
115.8662775207887
 30
0.0
 10
660.9172627757624
 20
118.1606157161437
 30
0.0
 10
660.8464099220677
 20
119.3328194361937
 30
0.0
  0
SPLINE
  5
D7
330
1F
100
AcDbEntity
  8
0
  6
Continuous
 62
     7
370
    25
100
AcDbSpline
210
0.0
220
0.0
230
1.0
 70
     8
 71
     3
 72
    15
 73
    11
 74
     0
 42
0.00000001
 43
0.00000001
 40
0.0
 40
0.0
 40
0.0
 40
0.0
 40
0.1203969716547338
 40
0.240793319058945
 40
0.3612955072028615
 40
0.4817982483628453
 40
0.6113057324163225
 40
0.7408138661147203
 40
0.8704068237473348
 40
1.0
 40
1.0
 40
1.0
 40
1.0
 10
985.4738594863009
 20
454.3309214455839
 30
0.0
 10
985.4549363808597
 20
440.8794272208037
 30
0.0
 10
985.4170902680937
 20
413.976508516372
 30
0.0
 10
985.3987260578364
 20
373.5956947478333
 30
0.0
 10
985.4114187003305
 20
333.2031952698318
 30
0.0
 10
985.4571682315309
 20
291.8007393032283
 30
0.0
 10
985.5352503845927
 20
249.4087697593466
 30
0.0
 10
985.6461020435823
 20
206.0267677966415
 30
0.0
 10
985.7831238390937
 20
162.6618558068683
 30
0.0
 10
985.8972425175301
 20
133.7758396814087
 30
0.0
 10
985.9543019048773
 20
119.3328194361937
 30
0.0
  0
LINE
  5
D8
330
1F
100
AcDbEntity
  8
0
  6
Continuous
 62
     7
370
    25
100
AcDbLine
 10
985.4828034809
 20
454.3328194362
 30
0.0
 11
985.4738594863
 21
454.3309214456
 31
0.0
  0
LINE
  5
D9
330
1F
100
AcDbEntity
  8
0
  6
Continuous
 62
     7
370
    25
100
AcDbLine
 10
846.6503559135
 20
476.405904782
 30
0.0
 11
846.6503559135
 21
477.2048084098
 31
0.0
  0
ARC
  5
DA
330
1F
100
AcDbEntity
  8
0
  6
Continuous
 62
     7
370
    25
100
AcDbCircle
 10
846.8996711504
 20
482.0208910293
 30
0.0
 40
4.822531480997283
100
AcDbArc
 50
267.0366016997
 51
278.9551904986
  0
LINE
  5
DB
330
1F
100
AcDbEntity
  8
0
  6
Continuous
 62
     7
370
    25
100
AcDbLine
 10
800.1503559135
 20
476.405904782
 30
0.0
 11
800.1503559135
 21
477.2048084098
 31
0.0
  0
ARC
  5
DC
330
1F
100
AcDbEntity
  8
0
  6
Continuous
 62
     7
370
    25
100
AcDbCircle
 10
799.9010406766
 20
482.0208910293
 30
0.0
 40
4.822531481003515
100
AcDbArc
 50
261.0448095014
 51
272.9633983002
  0
LINE
  5
DD
330
1F
100
AcDbEntity
  8
0
  6
Continuous
 62
     7
370
    25
100
AcDbLine
 10
800.1503559135
 20
477.2048084098
 30
0.0
 11
846.6503559135
 21
477.2048084098
 31
0.0
  0
LINE
  5
DE
330
1F
100
AcDbEntity
  8
0
  6
Continuous
 62
     7
370
    25
100
AcDbLine
 10
660.8464099221
 20
119.3328194362
 30
0.0
 11
660.9032289742
 21
119.2873149492
 31
0.0
  0
SPLINE
  5
DF
330
1F
100
AcDbEntity
  8
0
  6
Continuous
 62
     7
370
    25
100
AcDbSpline
210
0.0
220
0.0
230
1.0
 70
     8
 71
     3
 72
    20
 73
    16
 74
     0
 42
0.00000001
 43
0.00000001
 40
0.0
 40
0.0
 40
0.0
 40
0.0
 40
0.1238994817808227
 40
0.2498468348127873
 40
0.3327161568941006
 40
0.4158493426865209
 40
0.500313882733702
 40
0.5610643330988706
 40
0.6244975982562713
 40
0.6852560657042495
 40
0.7501883124678874
 40
0.8087829264722685
 40
0.8744877433555933
 40
0.9261458689734472
 40
1.0
 40
1.0
 40
1.0
 40
1.0
 10
661.3268523406591
 20
454.3309214362432
 30
0.0
 10
661.4928369621031
 20
454.3247728969365
 30
0.0
 10
661.8275496800196
 20
454.3123741922577
 30
0.0
 10
663.2501583714783
 20
453.967512216493
 30
0.0
 10
664.9551219555318
 20
453.5019600195488
 30
0.0
 10
666.743737525187
 20
452.9851559354755
 30
0.0
 10
668.632777327938
 20
452.417879578518
 30
0.0
 10
670.5371827523603
 20
451.8312953665033
 30
0.0
 10
672.3456673294567
 20
451.2648360247853
 30
0.0
 10
674.3010937802941
 20
450.6429667909163
 30
0.0
 10
676.2961926491871
 20
450.0014846604397
 30
0.0
 10
678.4175104912755
 20
449.3121519638846
 30
0.0
 10
680.4456126254946
 20
448.6492045796237
 30
0.0
 10
682.6877228559101
 20
447.9109908138669
 30
0.0
 10
684.1818370995464
 20
447.4179487617764
 30
0.0
 10
685.0610062904152
 20
447.1278321365937
 30
0.0
  0
SPLINE
  5
E0
330
1F
100
AcDbEntity
  8
0
  6
Continuous
 62
     7
370
    25
100
AcDbSpline
210
0.0
220
0.0
230
1.0
 70
     8
 71
     3
 72
    14
 73
    10
 74
     0
 42
0.00000001
 43
0.00000001
 40
0.0
 40
0.0
 40
0.0
 40
0.0
 40
0.1285392505246247
 40
0.2736230611079027
 40
0.4187183190146121
 40
0.5638047450221955
 40
0.7092001461728286
 40
0.8546029035485716
 40
1.0
 40
1.0
 40
1.0
 40
1.0
 10
685.0610062904153
 20
447.1278321365938
 30
0.0
 10
685.06233956241
 20
433.3123347259428
 30
0.0
 10
685.0651777146711
 20
403.9031178773782
 30
0.0
 10
685.066382155145
 20
358.8837400163149
 30
0.0
 10
685.0696264350217
 20
312.0903048020102
 30
0.0
 10
685.0546924927628
 20
265.2789475592788
 30
0.0
 10
685.0007839777643
 20
218.461281972543
 30
0.0
 10
684.906691419349
 20
171.6395773298842
 30
0.0
 10
684.809820713255
 20
140.4587557499352
 30
0.0
 10
684.7613863030862
 20
124.8686484543896
 30
0.0
  0
SPLINE
  5
E1
330
1F
100
AcDbEntity
  8
0
  6
Continuous
 62
     7
370
    25
100
AcDbSpline
210
0.0
220
0.0
230
1.0
 70
     8
 71
     3
 72
    17
 73
    13
 74
     0
 42
0.00000001
 43
0.00000001
 40
0.0
 40
0.0
 40
0.0
 40
0.0
 40
0.1266199350159329
 40
0.250090672395779
 40
0.3749952093690975
 40
0.5003472215493816
 40
0.6244895802648529
 40
0.75008563539753
 40
0.8087095798011504
 40
0.8744284842896032
 40
0.9260769690972797
 40
1.0
 40
1.0
 40
1.0
 40
1.0
 10
660.9032289741534
 20
119.2873149491701
 30
0.0
 10
661.120532122248
 20
119.2280837312549
 30
0.0
 10
661.5497338148083
 20
119.1110944505912
 30
0.0
 10
663.241241366849
 20
119.281412824659
 30
0.0
 10
665.6018285115249
 20
119.6946998166391
 30
0.0
 10
668.6265116322458
 20
120.3620765443297
 30
0.0
 10
672.1774908749983
 20
121.2489346207857
 30
0.0
 10
675.432448901977
 20
122.131680701662
 30
0.0
 10
678.2027336578423
 20
122.9176514632624
 30
0.0
 10
680.2064468094424
 20
123.4999971617813
 30
0.0
 10
682.4200692853199
 20
124.1574059058695
 30
0.0
 10
683.8938074484468
 20
124.6050963634419
 30
0.0
 10
684.7613863030862
 20
124.8686484543977
 30
0.0
  0
SPLINE
  5
E2
330
1F
100
AcDbEntity
  8
0
  6
Continuous
 62
     7
370
    25
100
AcDbSpline
210
0.0
220
0.0
230
1.0
 70
     8
 71
     3
 72
    20
 73
    16
 74
     0
 42
0.00000001
 43
0.00000001
 40
0.0
 40
0.0
 40
0.0
 40
0.0
 40
0.1265688428652105
 40
0.2499873607253519
 40
0.3327598806448895
 40
0.41588003650202
 40
0.5003308538271434
 40
0.5611043053137739
 40
0.6245378460982878
 40
0.685296738884994
 40
0.750196366686938
 40
0.8087939128917634
 40
0.8744838204705035
 40
0.926173393658778
 40
1.0
 40
1.0
 40
1.0
 40
1.0
 10
678.4045321827191
 20
101.7917609880434
 30
0.0
 10
678.3961985490298
 20
101.9576494734202
 30
0.0
 10
678.3797387075391
 20
102.2852974450318
 30
0.0
 10
678.6587545294858
 20
103.6622612662787
 30
0.0
 10
679.0471727291103
 20
105.2906457544192
 30
0.0
 10
679.4921272149556
 20
107.0156979681967
 30
0.0
 10
679.9878918221682
 20
108.8417939716861
 30
0.0
 10
680.5057038899847
 20
110.6865163315866
 30
0.0
 10
681.0093193215854
 20
112.4415892493539
 30
0.0
 10
681.5654939568913
 20
114.3423197481294
 30
0.0
 10
682.142492323248
 20
116.2854490929938
 30
0.0
 10
682.7657264702867
 20
118.355528533837
 30
0.0
 10
683.3683618274786
 20
120.3394791065147
 30
0.0
 10
684.0421359313118
 20
122.5365467818305
 30
0.0
 10
684.495011907716
 20
124.0049545345133
 30
0.0
 10
684.7613863030864
 20
124.8686484543894
 30
0.0
  0
SPLINE
  5
E3
330
1F
100
AcDbEntity
  8
0
  6
Continuous
 62
     7
370
    25
100
AcDbSpline
210
0.0
220
0.0
230
1.0
 70
     8
 71
     3
 72
    13
 73
     9
 74
     0
 42
0.00000001
 43
0.00000001
 40
0.0
 40
0.0
 40
0.0
 40
0.0
 40
0.1532153516038963
 40
0.3335117285126596
 40
0.5138077669700614
 40
0.6942879125043366
 40
0.8747684420969071
 40
1.0
 40
1.0
 40
1.0
 40
1.0
 10
684.7613863030862
 20
124.8686484543896
 30
0.0
 10
698.9158614368788
 20
124.8889368166883
 30
0.0
 10
729.7266347611139
 20
124.9330995373822
 30
0.0
 10
777.2219236065695
 20
124.9656820681379
 30
0.0
 10
827.2473979269648
 20
124.9758712109052
 30
0.0
 10
877.288927086696
 20
124.961978879547
 30
0.0
 10
922.2287295189846
 20
124.9269529383963
 30
0.0
 10
950.4704277991276
 20
124.8855916474098
 30
0.0
 10
962.0393255238588
 20
124.8686484543896
 30
0.0
  0
SPLINE
  5
E4
330
1F
100
AcDbEntity
  8
0
  6
Continuous
 62
     7
370
    25
100
AcDbSpline
210
0.0
220
0.0
230
1.0
 70
     8
 71
     3
 72
    17
 73
    13
 74
     0
 42
0.00000001
 43
0.00000001
 40
0.0
 40
0.0
 40
0.0
 40
0.0
 40
0.1266242002821653
 40
0.2500966973960828
 40
0.3750011391746841
 40
0.5003518892706038
 40
0.6244925771319284
 40
0.7500871058679406
 40
0.8087091135101016
 40
0.8744289188915414
 40
0.9261485744346062
 40
1.0
 40
1.0
 40
1.0
 40
1.0
 10
968.3961796378389
 20
101.7917609880587
 30
0.0
 10
968.4044448450466
 20
101.9578822469489
 30
0.0
 10
968.4207695367029
 20
102.2859899714058
 30
0.0
 10
968.1074702211434
 20
103.8336748128742
 30
0.0
 10
967.5636909145509
 20
106.0628945790526
 30
0.0
 10
966.7820366787486
 20
108.9724344613869
 30
0.0
 10
965.8003436908095
 20
112.4277837901669
 30
0.0
 10
964.8577816319827
 20
115.6223339929855
 30
0.0
 10
964.0350321448972
 20
118.3554289521713
 30
0.0
 10
963.432318983521
 20
120.3395679964895
 30
0.0
 10
962.7585537674997
 20
122.5366282013885
 30
0.0
 10
962.3056747538715
 20
124.0050397123073
 30
0.0
 10
962.0393255238588
 20
124.8686484543896
 30
0.0
  0
SPLINE
  5
E5
330
1F
100
AcDbEntity
  8
0
  6
Continuous
 62
     7
370
    25
100
AcDbSpline
210
0.0
220
0.0
230
1.0
 70
     8
 71
     3
 72
    19
 73
    15
 74
     0
 42
0.00000001
 43
0.00000001
 40
0.0
 40
0.0
 40
0.0
 40
0.0
 40
0.0609285033155397
 40
0.1075851967377192
 40
0.1526973776839468
 40
0.203564550732738
 40
0.2498915470303136
 40
0.3355022901934832
 40
0.4181341588157979
 40
0.4997559269722092
 40
0.6250820973863689
 40
0.7499608846711027
 40
0.8734061679748593
 40
1.0
 40
1.0
 40
1.0
 40
1.0
 10
962.0393255238589
 20
124.8686484543894
 30
0.0
 10
962.7545724589701
 20
124.6511375550423
 30
0.0
 10
964.0175278582102
 20
124.2670652140943
 30
0.0
 10
965.7912117970027
 20
123.7379594765425
 30
0.0
 10
967.428996279733
 20
123.2565910797014
 30
0.0
 10
969.0363999895004
 20
122.7929563994268
 30
0.0
 10
971.0564572213054
 20
122.2213842889729
 30
0.0
 10
973.3449723848996
 20
121.594458688992
 30
0.0
 10
975.8459233183397
 20
120.9419148826141
 30
0.0
 10
978.5167790647027
 20
120.286529837405
 30
0.0
 10
981.1991335297428
 20
119.6946318474735
 30
0.0
 10
983.5594047500786
 20
119.281430759418
 30
0.0
 10
985.250994848263
 20
119.1110899118736
 30
0.0
 10
985.6801853634637
 20
119.2280822098861
 30
0.0
 10
985.897482852765
 20
119.2873149555437
 30
0.0
  0
SPLINE
  5
E6
330
1F
100
AcDbEntity
  8
0
  6
Continuous
 62
     7
370
    25
100
AcDbSpline
210
0.0
220
0.0
230
1.0
 70
     8
 71
     3
 72
    15
 73
    11
 74
     0
 42
0.00000001
 43
0.00000001
 40
0.0
 40
0.0
 40
0.0
 40
0.0
 40
0.1297941873541713
 40
0.2595881683953805
 40
0.3894568310387371
 40
0.5193249251085723
 40
0.6394460709200769
 40
0.7595667430326071
 40
0.8797831318606987
 40
1.0
 40
1.0
 40
1.0
 40
1.0
 10
962.0393255238588
 20
124.8686484543894
 30
0.0
 10
961.9955960568315
 20
138.7854114088001
 30
0.0
 10
961.9081371922865
 20
166.6189151963799
 30
0.0
 10
961.8173946352049
 20
208.4182001365102
 30
0.0
 10
961.7599646725081
 20
250.2496748901457
 30
0.0
 10
961.7361429174832
 20
291.0648956181885
 30
0.0
 10
961.7349198716564
 20
330.8476728802262
 30
0.0
 10
961.739134185627
 20
369.6007482607698
 30
0.0
 10
961.7340067622029
 20
408.3650659690042
 30
0.0
 10
961.7378059425629
 20
434.2068929085673
 30
0.0
 10
961.7397055365296
 20
447.1278321365937
 30
0.0
  0
SPLINE
  5
E7
330
1F
100
AcDbEntity
  8
0
  6
Continuous
 62
     7
370
    25
100
AcDbSpline
210
0.0
220
0.0
230
1.0
 70
     8
 71
     3
 72
    19
 73
    15
 74
     0
 42
0.00000001
 43
0.00000001
 40
0.0
 40
0.0
 40
0.0
 40
0.0
 40
0.0608916764531274
 40
0.1075592781701942
 40
0.1527038169053554
 40
0.2035793155923095
 40
0.2499014344020641
 40
0.3355488354049002
 40
0.4181785294456967
 40
0.4997722410757718
 40
0.6250900273305252
 40
0.7500927226125501
 40
0.8760709826323863
 40
1.0
 40
1.0
 40
1.0
 40
1.0
 10
961.7397055365296
 20
447.1278321365937
 30
0.0
 10
962.46444651657
 20
447.3670400408613
 30
0.0
 10
963.744631612697
 20
447.7895777506817
 30
0.0
 10
965.5414824542838
 20
448.3814496867129
 30
0.0
 10
967.200167871082
 20
448.925661093245
 30
0.0
 10
968.8266056504789
 20
449.45637177925
 30
0.0
 10
970.8685573098243
 20
450.1192234801856
 30
0.0
 10
973.1782023749461
 20
450.8607326216969
 30
0.0
 10
975.6951344365854
 20
451.6553941797009
 30
0.0
 10
978.3726512767167
 20
452.4825767937822
 30
0.0
 10
981.0443406123931
 20
453.2785066932179
 30
0.0
 10
983.3733628116687
 20
453.9247118035311
 30
0.0
 10
984.9724675199425
 20
454.3121662119993
 30
0.0
 10
985.3076449839141
 20
454.32470397098
 30
0.0
 10
985.473859486301
 20
454.3309214455838
 30
0.0
  0
LINE
  5
E8
330
1F
100
AcDbEntity
  8
0
  6
Continuous
 62
     7
370
    25
100
AcDbLine
 10
985.8974828528
 20
119.2873149555
 30
0.0
 11
985.9543019049
 21
119.3328194362
 31
0.0
  0
SPLINE
  5
E9
330
1F
100
AcDbEntity
  8
0
  6
Continuous
 62
     7
370
    25
100
AcDbSpline
210
0.0
220
0.0
230
1.0
 70
     8
 71
     3
 72
    15
 73
    11
 74
     0
 42
0.00000001
 43
0.00000001
 40
0.0
 40
0.0
 40
0.0
 40
0.0
 40
0.1250485637390581
 40
0.2500560404331614
 40
0.3750352282041681
 40
0.5000000004149734
 40
0.6249647726227997
 40
0.7499439603618216
 40
0.8749514375442669
 40
0.9999999999999999
 40
0.9999999999999999
 40
0.9999999999999999
 40
0.9999999999999999
 10
678.4045321827188
 20
101.7917609880436
 30
0.0
 10
677.2636160839572
 20
101.8614381065714
 30
0.0
 10
674.9821587557616
 20
102.0007694499068
 30
0.0
 10
671.6904405971154
 20
103.0481643571941
 30
0.0
 10
668.654659119866
 20
104.66791018484
 30
0.0
 10
665.9915476700426
 20
106.8593175016182
 30
0.0
 10
663.7981954735253
 20
109.5227784698948
 30
0.0
 10
662.1742364628532
 20
112.561242394518
 30
0.0
 10
661.1206620668713
 20
115.8577125982974
 30
0.0
 10
660.9757146102211
 20
118.1439889505622
 30
0.0
 10
660.9032289741534
 20
119.2873149491701
 30
0.0
  0
SPLINE
  5
EA
330
1F
100
AcDbEntity
  8
0
  6
Continuous
 62
     7
370
    25
100
AcDbSpline
210
0.0
220
0.0
230
1.0
 70
     8
 71
     3
 72
    15
 73
    11
 74
     0
 42
0.00000001
 43
0.00000001
 40
0.0
 40
0.0
 40
0.0
 40
0.0
 40
0.125048564764826
 40
0.2500560396443399
 40
0.3750352273637283
 40
0.499999999557934
 40
0.6249647717823631
 40
0.7499439595730045
 40
0.874951438570056
 40
1.0
 40
1.0
 40
1.0
 40
1.0
 10
968.3961796378418
 20
101.7917609880588
 30
0.0
 10
969.5370957464302
 20
101.8614381076311
 30
0.0
 10
971.8185530683639
 20
102.0007694514724
 30
0.0
 10
975.1102712199033
 20
103.0481643569767
 30
0.0
 10
978.1460526851359
 20
104.6679101731632
 30
0.0
 10
980.8091641384327
 20
106.8593174868871
 30
0.0
 10
983.0025163395837
 20
109.5227784536095
 30
0.0
 10
984.6264753628999
 20
112.561242392455
 30
0.0
 10
985.6800497614453
 20
115.8577126057482
 30
0.0
 10
985.8249972177123
 20
118.1439889659517
 30
0.0
 10
985.8974828527652
 20
119.2873149555437
 30
0.0
  0
LINE
  5
EB
330
1F
100
AcDbEntity
  8
0
  6
Continuous
 62
     7
370
    25
100
AcDbLine
 10
678.3811600773
 20
471.3811825949
 30
0.0
 11
678.4003559135
 21
471.4152670036
 31
0.0
  0
LINE
  5
EC
330
1F
100
AcDbEntity
  8
0
  6
Continuous
 62
     7
370
    25
100
AcDbLine
 10
968.419551759
 20
471.3811825949
 30
0.0
 11
968.4003559135
 21
471.4152670036
 31
0.0
  0
SPLINE
  5
ED
330
1F
100
AcDbEntity
  8
0
  6
Continuous
 62
     7
370
    25
100
AcDbSpline
210
0.0
220
0.0
230
1.0
 70
     8
 71
     3
 72
    19
 73
    15
 74
     0
 42
0.00000001
 43
0.00000001
 40
0.0
 40
0.0
 40
0.0
 40
0.0
 40
0.0571951907011247
 40
0.1012386229203415
 40
0.1527044771278951
 40
0.2035799468192268
 40
0.2499049111694465
 40
0.3355521358503253
 40
0.4181835141861061
 40
0.4997809440829028
 40
0.625100831480302
 40
0.7501036376053273
 40
0.876074465283869
 40
1.0
 40
1.0
 40
1.0
 40
1.0
 10
961.7397055365296
 20
447.1278321365937
 30
0.0
 10
961.9629457147581
 20
447.8099053096281
 30
0.0
 10
962.3580930680114
 20
449.0172122164227
 30
0.0
 10
962.9426494544733
 20
450.8232892362796
 30
0.0
 10
963.4917479640052
 20
452.5363974766071
 30
0.0
 10
964.0332765502945
 20
454.2472738886344
 30
0.0
 10
964.6773289500326
 20
456.3074213677618
 30
0.0
 10
965.3919676406675
 20
458.6433102076425
 30
0.0
 10
966.148563706266
 20
461.1977269300463
 30
0.0
 10
966.9244754281114
 20
463.926033177741
 30
0.0
 10
967.6519954039911
 20
466.6658358468509
 30
0.0
 10
968.2097924891928
 20
469.0832481927857
 30
0.0
 10
968.5012540762699
 20
470.7787084372206
 30
0.0
 10
968.4466368586892
 20
471.1814566486058
 30
0.0
 10
968.4195517589761
 20
471.3811825948885
 30
0.0
  0
SPLINE
  5
EE
330
1F
100
AcDbEntity
  8
0
  6
Continuous
 62
     7
370
    25
100
AcDbSpline
210
0.0
220
0.0
230
1.0
 70
     8
 71
     3
 72
    14
 73
    10
 74
     0
 42
0.00000001
 43
0.00000001
 40
0.0
 40
0.0
 40
0.0
 40
0.0
 40
0.2145322134219052
 40
0.3218404806755493
 40
0.4291479606400774
 40
0.5717931378587124
 40
0.7144401314222916
 40
0.8572195843739369
 40
1.0
 40
1.0
 40
1.0
 40
1.0
 10
961.7397055365298
 20
447.1278321365936
 30
0.0
 10
941.9647033394091
 20
447.1075286473917
 30
0.0
 10
912.2983137983427
 20
447.0770694234836
 30
0.0
 10
872.7139814166228
 20
447.111697004959
 30
0.0
 10
839.7532926560114
 20
447.1534912850892
 30
0.0
 10
803.5258936333796
 20
447.1461699959693
 30
0.0
 10
764.03300428788
 20
447.0974035871012
 30
0.0
 10
724.5409962048068
 20
447.0834023078057
 30
0.0
 10
698.2210325050124
 20
447.1130221603797
 30
0.0
 10
685.0610062904152
 20
447.1278321365937
 30
0.0
  0
SPLINE
  5
EF
330
1F
100
AcDbEntity
  8
0
  6
Continuous
 62
     7
370
    25
100
AcDbSpline
210
0.0
220
0.0
230
1.0
 70
     8
 71
     3
 72
    19
 73
    15
 74
     0
 42
0.00000001
 43
0.00000001
 40
0.0
 40
0.0
 40
0.0
 40
0.0
 40
0.0572170919384306
 40
0.1012397191517073
 40
0.152705089072119
 40
0.2035808683506698
 40
0.2499049067935498
 40
0.3355531512428713
 40
0.4181845737194113
 40
0.4997809419083346
 40
0.6251008305048602
 40
0.750103637391396
 40
0.8760750143916406
 40
1.0
 40
1.0
 40
1.0
 40
1.0
 10
685.0610062904152
 20
447.1278321365937
 30
0.0
 10
684.8376813543815
 20
447.81016672716
 30
0.0
 10
684.4425310061612
 20
449.0174871269933
 30
0.0
 10
683.8579732580622
 20
450.8235656572186
 30
0.0
 10
683.3089544882231
 20
452.5364283389665
 30
0.0
 10
682.7674295754733
 20
454.2472913690191
 30
0.0
 10
682.1233765364005
 20
456.307443006657
 30
0.0
 10
681.4087369536265
 20
458.6433325535561
 30
0.0
 10
680.6521429735172
 20
461.1977472377872
 30
0.0
 10
679.8762340211102
 20
463.9260419045959
 30
0.0
 10
679.148716819149
 20
466.665835885698
 30
0.0
 10
678.5909180589161
 20
469.0832517180086
 30
0.0
 10
678.2994598125516
 20
470.7787103797724
 30
0.0
 10
678.3540757382707
 20
471.1814578842739
 30
0.0
 10
678.3811600773065
 20
471.3811825948624
 30
0.0
  0
SPLINE
  5
F0
330
1F
100
AcDbEntity
  8
0
  6
Continuous
 62
     7
370
    25
100
AcDbSpline
210
0.0
220
0.0
230
1.0
 70
     8
 71
     3
 72
    15
 73
    11
 74
     0
 42
0.00000001
 43
0.00000001
 40
0.0
 40
0.0
 40
0.0
 40
0.0
 40
0.1250258700962934
 40
0.2500298668122481
 40
0.3750187806357314
 40
0.4999999995599279
 40
0.6249812185054348
 40
0.7499701323940438
 40
0.8749741324286381
 40
1.0
 40
1.0
 40
1.0
 40
1.0
 10
985.4738594863009
 20
454.3309214455889
 30
0.0
 10
985.4065475877217
 20
455.4436845147269
 30
0.0
 10
985.2719355668355
 20
457.669015974175
 30
0.0
 10
984.2518922844763
 20
460.8796579264135
 30
0.0
 10
982.6730880127794
 20
463.8403316275738
 30
0.0
 10
980.5362380081637
 20
466.4366510349048
 30
0.0
 10
977.9387837765192
 20
468.5735125333582
 30
0.0
 10
974.9758488684374
 20
470.1535003597747
 30
0.0
 10
971.7619746831916
 20
471.1757712567736
 30
0.0
 10
969.533757693443
 20
471.3127081566969
 30
0.0
 10
968.4195517589761
 20
471.3811825948885
 30
0.0
  0
SPLINE
  5
F1
330
1F
100
AcDbEntity
  8
0
  6
Continuous
 62
     7
370
    25
100
AcDbSpline
210
0.0
220
0.0
230
1.0
 70
     8
 71
     3
 72
    15
 73
    11
 74
     0
 42
0.00000001
 43
0.00000001
 40
0.0
 40
0.0
 40
0.0
 40
0.0
 40
0.1250258690640274
 40
0.2500298676061385
 40
0.3750187814816459
 40
0.5000000004225766
 40
0.6249812193513476
 40
0.7499701331879439
 40
0.874974131396378
 40
1.0
 40
1.0
 40
1.0
 40
1.0
 10
661.3268523406591
 20
454.3309214362432
 30
0.0
 10
661.3941642382803
 20
455.4436844967494
 30
0.0
 10
661.5287762587884
 20
457.6690159643749
 30
0.0
 10
662.5488195438263
 20
460.8796579265224
 30
0.0
 10
664.1276238282098
 20
463.8403316421711
 30
0.0
 10
666.2644738377771
 20
466.4366510484534
 30
0.0
 10
668.8619280733166
 20
468.5735125442998
 30
0.0
 10
671.8248629701434
 20
470.1535003597579
 30
0.0
 10
675.0387371489836
 20
471.1757712551885
 30
0.0
 10
677.266954132979
 20
471.3127081556293
 30
0.0
 10
678.3811600773063
 20
471.3811825948625
 30
0.0
  0
CIRCLE
  5
F2
330
1F
100
AcDbEntity
  8
0
  6
Continuous
 62
     7
370
    25
100
AcDbCircle
 10
823.4003559135
 20
369.3328194362
 30
0.0
 40
70.00000000000006
  0
CIRCLE
  5
F3
330
1F
100
AcDbEntity
  8
0
  6
Continuous
 62
     7
370
    25
100
AcDbCircle
 10
823.4003559135
 20
369.3328194362
 30
0.0
 40
58.94765075494621
  0
CIRCLE
  5
F4
330
1F
100
AcDbEntity
  8
0
  6
Continuous
 62
     7
370
    25
100
AcDbCircle
 10
823.4003559135
 20
369.3328194362
 30
0.0
 40
57.5
  0
CIRCLE
  5
F5
330
1F
100
AcDbEntity
  8
0
  6
Continuous
 62
     7
370
    25
100
AcDbCircle
 10
823.4003559135
 20
369.3328194362
 30
0.0
 40
56.58715574274765
  0
CIRCLE
  5
F6
330
1F
100
AcDbEntity
  8
0
  6
Continuous
 62
     7
370
    25
100
AcDbCircle
 10
823.4003559135
 20
369.3328194362
 30
0.0
 40
45.00000000000006
  0
LINE
  5
F7
330
1F
100
AcDbEntity
  8
0
  6
Continuous
 62
     7
370
    25
100
AcDbLine
 10
59.4003559135
 20
99.3328194362
 30
0.0
 11
60.1664815028
 21
99.3328194362
 31
0.0
  0
LINE
  5
F8
330
1F
100
AcDbEntity
  8
0
  6
Continuous
 62
     7
370
    25
100
AcDbLine
 10
59.4003559135
 20
537.3328194362
 30
0.0
 11
59.4003559135
 21
99.3328194362
 31
0.0
  0
LINE
  5
F9
330
1F
100
AcDbEntity
  8
0
  6
Continuous
 62
     7
370
    25
100
AcDbLine
 10
59.4003559135
 20
537.3328194362
 30
0.0
 11
60.1664815028
 21
537.3328194362
 31
0.0
  0
LINE
  5
FA
330
1F
100
AcDbEntity
  8
0
  6
Continuous
 62
     7
370
    25
100
AcDbLine
 10
60.1664815028
 20
537.3328194362
 30
0.0
 11
60.1664815028
 21
99.3328194362
 31
0.0
  0
LINE
  5
FB
330
1F
100
AcDbEntity
  8
0
  6
Continuous
 62
     7
370
    25
100
AcDbLine
 10
1011.4003559135
 20
537.3328194362
 30
0.0
 11
1010.6342303242
 21
537.3328194362
 31
0.0
  0
LINE
  5
FC
330
1F
100
AcDbEntity
  8
0
  6
Continuous
 62
     7
370
    25
100
AcDbLine
 10
1011.4003559135
 20
318.3328194362
 30
0.0
 11
1011.4003559135
 21
537.3328194362
 31
0.0
  0
LINE
  5
FD
330
1F
100
AcDbEntity
  8
0
  6
Continuous
 62
     7
370
    25
100
AcDbLine
 10
1011.4003559135
 20
318.3328194362
 30
0.0
 11
1010.6342303242
 21
318.3328194362
 31
0.0
  0
LINE
  5
FE
330
1F
100
AcDbEntity
  8
0
  6
Continuous
 62
     7
370
    25
100
AcDbLine
 10
1010.6342303242
 20
318.3328194362
 30
0.0
 11
1010.6342303242
 21
537.3328194362
 31
0.0
  0
ARC
  5
FF
330
1F
100
AcDbEntity
  8
0
  6
Continuous
 62
     7
370
    25
100
AcDbCircle
 10
82.4003559135
 20
537.3328194362
 30
0.0
 40
23.00000000000001
100
AcDbArc
 50
90.0
 51
180.0
  0
LINE
  5
100
330
1F
100
AcDbEntity
  8
0
  6
Continuous
 62
     7
370
    25
100
AcDbLine
 10
82.4003559135
 20
560.3328194362
 30
0.0
 11
82.4003559135
 21
559.5666938469
 31
0.0
  0
ARC
  5
101
330
1F
100
AcDbEntity
  8
0
  6
Continuous
 62
     7
370
    25
100
AcDbCircle
 10
82.4003559135
 20
537.3328194362
 30
0.0
 40
22.23387441067958
100
AcDbArc
 50
90.0
 51
180.0
  0
LINE
  5
102
330
1F
100
AcDbEntity
  8
0
  6
Continuous
 62
     7
370
    25
100
AcDbLine
 10
988.4003559135
 20
76.3328194362
 30
0.0
 11
988.4003559135
 21
77.0989450255
 31
0.0
  0
LINE
  5
103
330
1F
100
AcDbEntity
  8
0
  6
Continuous
 62
     7
370
    25
100
AcDbLine
 10
82.4003559135
 20
76.3328194362
 30
0.0
 11
988.4003559135
 21
76.3328194362
 31
0.0
  0
LINE
  5
104
330
1F
100
AcDbEntity
  8
0
  6
Continuous
 62
     7
370
    25
100
AcDbLine
 10
82.4003559135
 20
76.3328194362
 30
0.0
 11
82.4003559135
 21
77.0989450255
 31
0.0
  0
LINE
  5
105
330
1F
100
AcDbEntity
  8
0
  6
Continuous
 62
     7
370
    25
100
AcDbLine
 10
82.4003559135
 20
77.0989450255
 30
0.0
 11
988.4003559135
 21
77.0989450255
 31
0.0
  0
LINE
  5
106
330
1F
100
AcDbEntity
  8
0
  6
Continuous
 62
     7
370
    25
100
AcDbLine
 10
988.4003559135
 20
560.3328194362
 30
0.0
 11
988.4003559135
 21
559.5666938469
 31
0.0
  0
ARC
  5
107
330
1F
100
AcDbEntity
  8
0
  6
Continuous
 62
     7
370
    25
100
AcDbCircle
 10
988.4003559135
 20
537.3328194362
 30
0.0
 40
23.0
100
AcDbArc
 50
0.0
 51
90.0
  0
ARC
  5
108
330
1F
100
AcDbEntity
  8
0
  6
Continuous
 62
     7
370
    25
100
AcDbCircle
 10
988.4003559135
 20
537.3328194362
 30
0.0
 40
22.23387441067962
100
AcDbArc
 50
0.0
 51
90.0
  0
LINE
  5
109
330
1F
100
AcDbEntity
  8
0
  6
Continuous
 62
     7
370
    25
100
AcDbLine
 10
1011.4003559135
 20
99.3328194362
 30
0.0
 11
1010.6342303242
 21
99.3328194362
 31
0.0
  0
ARC
  5
10A
330
1F
100
AcDbEntity
  8
0
  6
Continuous
 62
     7
370
    25
100
AcDbCircle
 10
988.4003559135
 20
99.3328194362
 30
0.0
 40
23.00000000000023
100
AcDbArc
 50
270.0
 51
0.0
  0
ARC
  5
10B
330
1F
100
AcDbEntity
  8
0
  6
Continuous
 62
     7
370
    25
100
AcDbCircle
 10
988.4003559135
 20
99.3328194362
 30
0.0
 40
22.23387441067962
100
AcDbArc
 50
270.0
 51
0.0
  0
LINE
  5
10C
330
1F
100
AcDbEntity
  8
0
  6
Continuous
 62
     7
370
    25
100
AcDbLine
 10
988.4003559135
 20
560.3328194362
 30
0.0
 11
82.4003559135
 21
560.3328194362
 31
0.0
  0
LINE
  5
10D
330
1F
100
AcDbEntity
  8
0
  6
Continuous
 62
     7
370
    25
100
AcDbLine
 10
988.4003559135
 20
559.5666938469
 30
0.0
 11
82.4003559135
 21
559.5666938469
 31
0.0
  0
LINE
  5
10E
330
1F
100
AcDbEntity
  8
0
  6
Continuous
 62
     7
370
    25
100
AcDbLine
 10
1010.6342303242
 20
99.3328194362
 30
0.0
 11
1010.6342303242
 21
318.3328194362
 31
0.0
  0
LINE
  5
10F
330
1F
100
AcDbEntity
  8
0
  6
Continuous
 62
     7
370
    25
100
AcDbLine
 10
1011.4003559135
 20
99.3328194362
 30
0.0
 11
1011.4003559135
 21
318.3328194362
 31
0.0
  0
ARC
  5
110
330
1F
100
AcDbEntity
  8
0
  6
Continuous
 62
     7
370
    25
100
AcDbCircle
 10
82.4003559135
 20
99.3328194362
 30
0.0
 40
23.00000000000003
100
AcDbArc
 50
180.0
 51
270.0
  0
ARC
  5
111
330
1F
100
AcDbEntity
  8
0
  6
Continuous
 62
     7
370
    25
100
AcDbCircle
 10
82.4003559135
 20
99.3328194362
 30
0.0
 40
22.23387441067959
100
AcDbArc
 50
180.0
 51
270.0
  0
ARC
  5
112
330
1F
100
AcDbEntity
  8
0
  6
Continuous
 62
     7
370
    25
100
AcDbCircle
 10
1019.4003559135
 20
68.3328194362
 30
0.0
 40
10.00000000000001
100
AcDbArc
 50
270.0
 51
0.0
  0
ARC
  5
113
330
1F
100
AcDbEntity
  8
0
  6
Continuous
 62
     7
370
    25
100
AcDbCircle
 10
1019.4003559135
 20
568.3328194362
 30
0.0
 40
10.0
100
AcDbArc
 50
0.0
 51
90.0
  0
ARC
  5
114
330
1F
100
AcDbEntity
  8
0
  6
Continuous
 62
     7
370
    25
100
AcDbCircle
 10
51.4003559135
 20
568.3328194362
 30
0.0
 40
10.00000000000001
100
AcDbArc
 50
90.0
 51
180.0
  0
ARC
  5
115
330
1F
100
AcDbEntity
  8
0
  6
Continuous
 62
     7
370
    25
100
AcDbCircle
 10
51.4003559135
 20
68.3328194362
 30
0.0
 40
10.00000000000001
100
AcDbArc
 50
180.0
 51
270.0
  0
LINE
  5
116
330
1F
100
AcDbEntity
  8
0
  6
Continuous
 62
     7
370
    25
100
AcDbLine
 10
1019.4003559135
 20
578.3328194362
 30
0.0
 11
51.4003559135
 21
578.3328194362
 31
0.0
  0
LINE
  5
117
330
1F
100
AcDbEntity
  8
0
  6
Continuous
 62
     7
370
    25
100
AcDbLine
 10
1029.4003559135
 20
68.3328194362
 30
0.0
 11
1029.4003559135
 21
568.3328194362
 31
0.0
  0
LINE
  5
118
330
1F
100
AcDbEntity
  8
0
  6
Continuous
 62
     7
370
    25
100
AcDbLine
 10
51.4003559135
 20
58.3328194362
 30
0.0
 11
1019.4003559135
 21
58.3328194362
 31
0.0
  0
LINE
  5
119
330
1F
100
AcDbEntity
  8
0
  6
Continuous
 62
     7
370
    25
100
AcDbLine
 10
41.4003559135
 20
568.3328194362
 30
0.0
 11
41.4003559135
 21
68.3328194362
 31
0.0
  0
LINE
  5
11A
330
1F
100
AcDbEntity
  8
0
  6
Continuous
 62
     7
370
    25
100
AcDbLine
 10
82.4003559135
 20
77.0989450255
 30
0.0
 11
82.4003559135
 21
78.0565544531
 31
0.0
  0
LINE
  5
11B
330
1F
100
AcDbEntity
  8
0
  6
Continuous
 62
     7
370
    25
100
AcDbLine
 10
60.1664815028
 20
99.3328194362
 30
0.0
 11
61.1240909304
 21
99.3328194362
 31
0.0
  0
ARC
  5
11C
330
1F
100
AcDbEntity
  8
0
  6
Continuous
 62
     7
370
    25
100
AcDbCircle
 10
82.4003559135
 20
99.3328194362
 30
0.0
 40
21.27626498307333
100
AcDbArc
 50
180.0
 51
270.0
  0
LINE
  5
11D
330
1F
100
AcDbEntity
  8
0
  6
Continuous
 62
     7
370
    25
100
AcDbLine
 10
1010.6342303242
 20
537.3328194362
 30
0.0
 11
1009.6766208965
 21
537.3328194362
 31
0.0
  0
LINE
  5
11E
330
1F
100
AcDbEntity
  8
0
  6
Continuous
 62
     7
370
    25
100
AcDbLine
 10
1010.6342303242
 20
318.3328194362
 30
0.0
 11
1009.6766208965
 21
318.3328194362
 31
0.0
  0
LINE
  5
11F
330
1F
100
AcDbEntity
  8
0
  6
Continuous
 62
     7
370
    25
100
AcDbLine
 10
1009.6766208965
 20
318.3328194362
 30
0.0
 11
1009.6766208965
 21
537.3328194362
 31
0.0
  0
LINE
  5
120
330
1F
100
AcDbEntity
  8
0
  6
Continuous
 62
     7
370
    25
100
AcDbLine
 10
60.1664815028
 20
537.3328194362
 30
0.0
 11
61.1240909304
 21
537.3328194362
 31
0.0
  0
LINE
  5
121
330
1F
100
AcDbEntity
  8
0
  6
Continuous
 62
     7
370
    25
100
AcDbLine
 10
82.4003559135
 20
559.5666938469
 30
0.0
 11
82.4003559135
 21
558.6090844193
 31
0.0
  0
ARC
  5
122
330
1F
100
AcDbEntity
  8
0
  6
Continuous
 62
     7
370
    25
100
AcDbCircle
 10
82.4003559135
 20
537.3328194362
 30
0.0
 40
21.27626498307333
100
AcDbArc
 50
90.0
 51
180.0
  0
LINE
  5
123
330
1F
100
AcDbEntity
  8
0
  6
Continuous
 62
     7
370
    25
100
AcDbLine
 10
988.4003559135
 20
77.0989450255
 30
0.0
 11
988.4003559135
 21
78.0565544531
 31
0.0
  0
LINE
  5
124
330
1F
100
AcDbEntity
  8
0
  6
Continuous
 62
     7
370
    25
100
AcDbLine
 10
82.4003559135
 20
78.0565544531
 30
0.0
 11
988.4003559135
 21
78.0565544531
 31
0.0
  0
LINE
  5
125
330
1F
100
AcDbEntity
  8
0
  6
Continuous
 62
     7
370
    25
100
AcDbLine
 10
61.1240909304
 20
537.3328194362
 30
0.0
 11
61.1240909304
 21
99.3328194362
 31
0.0
  0
LINE
  5
126
330
1F
100
AcDbEntity
  8
0
  6
Continuous
 62
     7
370
    25
100
AcDbLine
 10
1010.6342303242
 20
99.3328194362
 30
0.0
 11
1009.6766208965
 21
99.3328194362
 31
0.0
  0
LINE
  5
127
330
1F
100
AcDbEntity
  8
0
  6
Continuous
 62
     7
370
    25
100
AcDbLine
 10
1009.6766208965
 20
99.3328194362
 30
0.0
 11
1009.6766208965
 21
318.3328194362
 31
0.0
  0
LINE
  5
128
330
1F
100
AcDbEntity
  8
0
  6
Continuous
 62
     7
370
    25
100
AcDbLine
 10
988.4003559135
 20
559.5666938469
 30
0.0
 11
988.4003559135
 21
558.6090844193
 31
0.0
  0
LINE
  5
129
330
1F
100
AcDbEntity
  8
0
  6
Continuous
 62
     7
370
    25
100
AcDbLine
 10
988.4003559135
 20
558.6090844193
 30
0.0
 11
82.4003559135
 21
558.6090844193
 31
0.0
  0
ARC
  5
12A
330
1F
100
AcDbEntity
  8
0
  6
Continuous
 62
     7
370
    25
100
AcDbCircle
 10
988.4003559135
 20
99.3328194362
 30
0.0
 40
21.27626498307336
100
AcDbArc
 50
270.0
 51
0.0
  0
ARC
  5
12B
330
1F
100
AcDbEntity
  8
0
  6
Continuous
 62
     7
370
    25
100
AcDbCircle
 10
988.4003559135
 20
537.3328194362
 30
0.0
 40
21.27626498307336
100
AcDbArc
 50
0.0
 51
90.0
  0
LINE
  5
12C
330
1F
100
AcDbEntity
  8
0
  6
Continuous
 62
     7
370
    25
100
AcDbLine
 10
1009.6766208965
 20
537.3328194362
 30
0.0
 11
1004.3137417713
 21
537.3328194362
 31
0.0
  0
LINE
  5
12D
330
1F
100
AcDbEntity
  8
0
  6
Continuous
 62
     7
370
    25
100
AcDbLine
 10
1009.6766208965
 20
318.3328194362
 30
0.0
 11
1004.3137417713
 21
318.3328194362
 31
0.0
  0
LINE
  5
12E
330
1F
100
AcDbEntity
  8
0
  6
Continuous
 62
     7
370
    25
100
AcDbLine
 10
1004.3137417713
 20
318.3328194362
 30
0.0
 11
1004.3137417713
 21
537.3328194362
 31
0.0
  0
LINE
  5
12F
330
1F
100
AcDbEntity
  8
0
  6
Continuous
 62
     7
370
    25
100
AcDbLine
 10
1009.6766208965
 20
99.3328194362
 30
0.0
 11
1004.3137417713
 21
99.3328194362
 31
0.0
  0
LINE
  5
130
330
1F
100
AcDbEntity
  8
0
  6
Continuous
 62
     7
370
    25
100
AcDbLine
 10
1004.3137417713
 20
99.3328194362
 30
0.0
 11
1004.3137417713
 21
318.3328194362
 31
0.0
  0
LINE
  5
131
330
1F
100
AcDbEntity
  8
0
  6
Continuous
 62
     7
370
    25
100
AcDbLine
 10
61.1240909304
 20
537.3328194362
 30
0.0
 11
66.4869700556
 21
537.3328194362
 31
0.0
  0
LINE
  5
132
330
1F
100
AcDbEntity
  8
0
  6
Continuous
 62
     7
370
    25
100
AcDbLine
 10
82.4003559135
 20
558.6090844193
 30
0.0
 11
82.4003559135
 21
553.246205294
 31
0.0
  0
ARC
  5
133
330
1F
100
AcDbEntity
  8
0
  6
Continuous
 62
     7
370
    25
100
AcDbCircle
 10
82.4003559135
 20
537.3328194362
 30
0.0
 40
15.91338585783031
100
AcDbArc
 50
90.0
 51
180.0
  0
LINE
  5
134
330
1F
100
AcDbEntity
  8
0
  6
Continuous
 62
     7
370
    25
100
AcDbLine
 10
988.4003559135
 20
78.0565544531
 30
0.0
 11
988.4003559135
 21
83.4194335784
 31
0.0
  0
ARC
  5
135
330
1F
100
AcDbEntity
  8
0
  6
Continuous
 62
     7
370
    25
100
AcDbCircle
 10
988.4003559135
 20
99.3328194362
 30
0.0
 40
15.91338585783046
100
AcDbArc
 50
270.0
 51
0.0
  0
LINE
  5
136
330
1F
100
AcDbEntity
  8
0
  6
Continuous
 62
     7
370
    25
100
AcDbLine
 10
82.4003559135
 20
78.0565544531
 30
0.0
 11
82.4003559135
 21
83.4194335784
 31
0.0
  0
LINE
  5
137
330
1F
100
AcDbEntity
  8
0
  6
Continuous
 62
     7
370
    25
100
AcDbLine
 10
61.1240909304
 20
99.3328194362
 30
0.0
 11
66.4869700556
 21
99.3328194362
 31
0.0
  0
ARC
  5
138
330
1F
100
AcDbEntity
  8
0
  6
Continuous
 62
     7
370
    25
100
AcDbCircle
 10
82.4003559135
 20
99.3328194362
 30
0.0
 40
15.91338585783032
100
AcDbArc
 50
180.0
 51
270.0
  0
LINE
  5
139
330
1F
100
AcDbEntity
  8
0
  6
Continuous
 62
     7
370
    25
100
AcDbLine
 10
988.4003559135
 20
558.6090844193
 30
0.0
 11
988.4003559135
 21
553.246205294
 31
0.0
  0
LINE
  5
13A
330
1F
100
AcDbEntity
  8
0
  6
Continuous
 62
     7
370
    25
100
AcDbLine
 10
988.4003559135
 20
553.246205294
 30
0.0
 11
82.4003559135
 21
553.246205294
 31
0.0
  0
LINE
  5
13B
330
1F
100
AcDbEntity
  8
0
  6
Continuous
 62
     7
370
    25
100
AcDbLine
 10
66.4869700556
 20
537.3328194362
 30
0.0
 11
66.4869700556
 21
99.3328194362
 31
0.0
  0
LINE
  5
13C
330
1F
100
AcDbEntity
  8
0
  6
Continuous
 62
     7
370
    25
100
AcDbLine
 10
82.4003559135
 20
83.4194335784
 30
0.0
 11
988.4003559135
 21
83.4194335784
 31
0.0
  0
ARC
  5
13D
330
1F
100
AcDbEntity
  8
0
  6
Continuous
 62
     7
370
    25
100
AcDbCircle
 10
988.4003559135
 20
537.3328194362
 30
0.0
 40
15.91338585783024
100
AcDbArc
 50
0.0
 51
90.0
  0
LINE
  5
13E
330
1F
100
AcDbEntity
  8
0
  6
Continuous
 62
     7
370
    25
100
AcDbLine
 10
304.9003559135
 20
93.3328194362
 30
0.0
 11
593.9003559135
 21
93.3328194362
 31
0.0
  0
LINE
  5
13F
330
1F
100
AcDbEntity
  8
0
  6
Continuous
 62
     7
370
    25
100
AcDbLine
 10
593.9003559135
 20
88.3328194362
 30
0.0
 11
593.9003559135
 21
93.3328194362
 31
0.0
  0
LINE
  5
140
330
1F
100
AcDbEntity
  8
0
  6
Continuous
 62
     7
370
    25
100
AcDbLine
 10
593.9003559135
 20
88.3328194362
 30
0.0
 11
304.9003559135
 21
88.3328194362
 31
0.0
  0
LINE
  5
141
330
1F
100
AcDbEntity
  8
0
  6
Continuous
 62
     7
370
    25
100
AcDbLine
 10
304.9003559135
 20
93.3328194362
 30
0.0
 11
304.9003559135
 21
88.3328194362
 31
0.0
  0
ARC
  5
142
330
1F
100
AcDbEntity
  8
0
  6
Continuous
 62
     7
370
    25
100
AcDbCircle
 10
678.9003559135
 20
453.8328194362
 30
0.0
 40
31.5
100
AcDbArc
 50
90.0
 51
180.0
  0
LINE
  5
143
330
1F
100
AcDbEntity
  8
0
  6
Continuous
 62
     7
370
    25
100
AcDbLine
 10
678.9003559135
 20
485.3328194362
 30
0.0
 11
678.9003559135
 21
480.3328194362
 31
0.0
  0
ARC
  5
144
330
1F
100
AcDbEntity
  8
0
  6
Continuous
 62
     7
370
    25
100
AcDbCircle
 10
678.9003559135
 20
453.8328194362
 30
0.0
 40
26.5
100
AcDbArc
 50
90.0
 51
180.0
  0
LINE
  5
145
330
1F
100
AcDbEntity
  8
0
  6
Continuous
 62
     7
370
    25
100
AcDbLine
 10
652.4003559135
 20
453.8328194362
 30
0.0
 11
647.4003559135
 21
453.8328194362
 31
0.0
  0
LINE
  5
146
330
1F
100
AcDbEntity
  8
0
  6
Continuous
 62
     7
370
    25
100
AcDbLine
 10
625.4003559135
 20
453.8328194362
 30
0.0
 11
625.4003559135
 21
119.8328194362
 31
0.0
  0
ARC
  5
147
330
1F
100
AcDbEntity
  8
0
  6
Continuous
 62
     7
370
    25
100
AcDbCircle
 10
593.9003559135
 20
453.8328194362
 30
0.0
 40
31.49999999999989
100
AcDbArc
 50
0.0
 51
90.0
  0
LINE
  5
148
330
1F
100
AcDbEntity
  8
0
  6
Continuous
 62
     7
370
    25
100
AcDbLine
 10
304.9003559135
 20
485.3328194362
 30
0.0
 11
593.9003559135
 21
485.3328194362
 31
0.0
  0
ARC
  5
149
330
1F
100
AcDbEntity
  8
0
  6
Continuous
 62
     7
370
    25
100
AcDbCircle
 10
304.9003559135
 20
453.8328194362
 30
0.0
 40
31.49999999999989
100
AcDbArc
 50
90.0
 51
180.0
  0
LINE
  5
14A
330
1F
100
AcDbEntity
  8
0
  6
Continuous
 62
     7
370
    25
100
AcDbLine
 10
273.4003559135
 20
119.8328194362
 30
0.0
 11
273.4003559135
 21
453.8328194362
 31
0.0
  0
ARC
  5
14B
330
1F
100
AcDbEntity
  8
0
  6
Continuous
 62
     7
370
    25
100
AcDbCircle
 10
304.9003559135
 20
119.8328194362
 30
0.0
 40
31.5
100
AcDbArc
 50
180.0
 51
270.0
  0
ARC
  5
14C
330
1F
100
AcDbEntity
  8
0
  6
Continuous
 62
     7
370
    25
100
AcDbCircle
 10
593.9003559135
 20
119.8328194362
 30
0.0
 40
31.49999999999989
100
AcDbArc
 50
270.0
 51
0.0
  0
ARC
  5
14D
330
1F
100
AcDbEntity
  8
0
  6
Continuous
 62
     7
370
    25
100
AcDbCircle
 10
967.9003559135
 20
453.8328194362
 30
0.0
 40
31.50000000000011
100
AcDbArc
 50
0.0
 51
90.0
  0
LINE
  5
14E
330
1F
100
AcDbEntity
  8
0
  6
Continuous
 62
     7
370
    25
100
AcDbLine
 10
678.9003559135
 20
485.3328194362
 30
0.0
 11
967.9003559135
 21
485.3328194362
 31
0.0
  0
LINE
  5
14F
330
1F
100
AcDbEntity
  8
0
  6
Continuous
 62
     7
370
    25
100
AcDbLine
 10
647.4003559135
 20
119.8328194362
 30
0.0
 11
647.4003559135
 21
453.8328194362
 31
0.0
  0
ARC
  5
150
330
1F
100
AcDbEntity
  8
0
  6
Continuous
 62
     7
370
    25
100
AcDbCircle
 10
678.9003559135
 20
119.8328194362
 30
0.0
 40
31.50000000000009
100
AcDbArc
 50
180.0
 51
270.0
  0
LINE
  5
151
330
1F
100
AcDbEntity
  8
0
  6
Continuous
 62
     7
370
    25
100
AcDbLine
 10
967.9003559135
 20
88.3328194362
 30
0.0
 11
678.9003559135
 21
88.3328194362
 31
0.0
  0
ARC
  5
152
330
1F
100
AcDbEntity
  8
0
  6
Continuous
 62
     7
370
    25
100
AcDbCircle
 10
967.9003559135
 20
119.8328194362
 30
0.0
 40
31.5
100
AcDbArc
 50
270.0
 51
0.0
  0
LINE
  5
153
330
1F
100
AcDbEntity
  8
0
  6
Continuous
 62
     7
370
    25
100
AcDbLine
 10
999.4003559135
 20
453.8328194362
 30
0.0
 11
999.4003559135
 21
119.8328194362
 31
0.0
  0
CIRCLE
  5
154
330
1F
100
AcDbEntity
  8
0
  6
Continuous
 62
     7
370
    25
100
AcDbCircle
 10
637.4003559135
 20
522.3328194362
 30
0.0
 40
17.49999999999989
  0
LINE
  5
155
330
1F
100
AcDbEntity
  8
0
  6
Continuous
 62
     7
370
    25
100
AcDbLine
 10
999.4003559135
 20
119.8328194362
 30
0.0
 11
994.4003559135
 21
119.8328194362
 31
0.0
  0
LINE
  5
156
330
1F
100
AcDbEntity
  8
0
  6
Continuous
 62
     7
370
    25
100
AcDbLine
 10
994.4003559135
 20
119.8328194362
 30
0.0
 11
994.4003559135
 21
453.8328194362
 31
0.0
  0
LINE
  5
157
330
1F
100
AcDbEntity
  8
0
  6
Continuous
 62
     7
370
    25
100
AcDbLine
 10
999.4003559135
 20
453.8328194362
 30
0.0
 11
994.4003559135
 21
453.8328194362
 31
0.0
  0
LINE
  5
158
330
1F
100
AcDbEntity
  8
0
  6
Continuous
 62
     7
370
    25
100
AcDbLine
 10
678.9003559135
 20
93.3328194362
 30
0.0
 11
967.9003559135
 21
93.3328194362
 31
0.0
  0
LINE
  5
159
330
1F
100
AcDbEntity
  8
0
  6
Continuous
 62
     7
370
    25
100
AcDbLine
 10
967.9003559135
 20
93.3328194362
 30
0.0
 11
967.9003559135
 21
88.3328194362
 31
0.0
  0
LINE
  5
15A
330
1F
100
AcDbEntity
  8
0
  6
Continuous
 62
     7
370
    25
100
AcDbLine
 10
678.9003559135
 20
93.3328194362
 30
0.0
 11
678.9003559135
 21
88.3328194362
 31
0.0
  0
ARC
  5
15B
330
1F
100
AcDbEntity
  8
0
  6
Continuous
 62
     7
370
    25
100
AcDbCircle
 10
967.9003559135
 20
119.8328194362
 30
0.0
 40
26.5
100
AcDbArc
 50
270.0
 51
0.0
  0
LINE
  5
15C
330
1F
100
AcDbEntity
  8
0
  6
Continuous
 62
     7
370
    25
100
AcDbLine
 10
593.9003559135
 20
480.3328194362
 30
0.0
 11
304.9003559135
 21
480.3328194362
 31
0.0
  0
LINE
  5
15D
330
1F
100
AcDbEntity
  8
0
  6
Continuous
 62
     7
370
    25
100
AcDbLine
 10
304.9003559135
 20
480.3328194362
 30
0.0
 11
304.9003559135
 21
485.3328194362
 31
0.0
  0
LINE
  5
15E
330
1F
100
AcDbEntity
  8
0
  6
Continuous
 62
     7
370
    25
100
AcDbLine
 10
593.9003559135
 20
485.3328194362
 30
0.0
 11
593.9003559135
 21
480.3328194362
 31
0.0
  0
LINE
  5
15F
330
1F
100
AcDbEntity
  8
0
  6
Continuous
 62
     7
370
    25
100
AcDbLine
 10
967.9003559135
 20
485.3328194362
 30
0.0
 11
967.9003559135
 21
480.3328194362
 31
0.0
  0
LINE
  5
160
330
1F
100
AcDbEntity
  8
0
  6
Continuous
 62
     7
370
    25
100
AcDbLine
 10
967.9003559135
 20
480.3328194362
 30
0.0
 11
678.9003559135
 21
480.3328194362
 31
0.0
  0
LINE
  5
161
330
1F
100
AcDbEntity
  8
0
  6
Continuous
 62
     7
370
    25
100
AcDbLine
 10
652.4003559135
 20
453.8328194362
 30
0.0
 11
652.4003559135
 21
119.8328194362
 31
0.0
  0
LINE
  5
162
330
1F
100
AcDbEntity
  8
0
  6
Continuous
 62
     7
370
    25
100
AcDbLine
 10
652.4003559135
 20
119.8328194362
 30
0.0
 11
647.4003559135
 21
119.8328194362
 31
0.0
  0
ARC
  5
163
330
1F
100
AcDbEntity
  8
0
  6
Continuous
 62
     7
370
    25
100
AcDbCircle
 10
967.9003559135
 20
453.8328194362
 30
0.0
 40
26.5
100
AcDbArc
 50
0.0
 51
90.0
  0
ARC
  5
164
330
1F
100
AcDbEntity
  8
0
  6
Continuous
 62
     7
370
    25
100
AcDbCircle
 10
678.9003559135
 20
119.8328194362
 30
0.0
 40
26.50000000000009
100
AcDbArc
 50
180.0
 51
270.0
  0
ARC
  5
165
330
1F
100
AcDbEntity
  8
0
  6
Continuous
 62
     7
370
    25
100
AcDbCircle
 10
304.9003559135
 20
119.8328194362
 30
0.0
 40
26.50000000000006
100
AcDbArc
 50
180.0
 51
270.0
  0
LINE
  5
166
330
1F
100
AcDbEntity
  8
0
  6
Continuous
 62
     7
370
    25
100
AcDbLine
 10
278.4003559135
 20
119.8328194362
 30
0.0
 11
273.4003559135
 21
119.8328194362
 31
0.0
  0
ARC
  5
167
330
1F
100
AcDbEntity
  8
0
  6
Continuous
 62
     7
370
    25
100
AcDbCircle
 10
593.9003559135
 20
119.8328194362
 30
0.0
 40
26.50000000000009
100
AcDbArc
 50
270.0
 51
0.0
  0
LINE
  5
168
330
1F
100
AcDbEntity
  8
0
  6
Continuous
 62
     7
370
    25
100
AcDbLine
 10
625.4003559135
 20
119.8328194362
 30
0.0
 11
620.4003559135
 21
119.8328194362
 31
0.0
  0
LINE
  5
169
330
1F
100
AcDbEntity
  8
0
  6
Continuous
 62
     7
370
    25
100
AcDbLine
 10
278.4003559135
 20
453.8328194362
 30
0.0
 11
278.4003559135
 21
119.8328194362
 31
0.0
  0
LINE
  5
16A
330
1F
100
AcDbEntity
  8
0
  6
Continuous
 62
     7
370
    25
100
AcDbLine
 10
278.4003559135
 20
453.8328194362
 30
0.0
 11
273.4003559135
 21
453.8328194362
 31
0.0
  0
LINE
  5
16B
330
1F
100
AcDbEntity
  8
0
  6
Continuous
 62
     7
370
    25
100
AcDbLine
 10
620.4003559135
 20
119.8328194362
 30
0.0
 11
620.4003559135
 21
453.8328194362
 31
0.0
  0
LINE
  5
16C
330
1F
100
AcDbEntity
  8
0
  6
Continuous
 62
     7
370
    25
100
AcDbLine
 10
625.4003559135
 20
453.8328194362
 30
0.0
 11
620.4003559135
 21
453.8328194362
 31
0.0
  0
ARC
  5
16D
330
1F
100
AcDbEntity
  8
0
  6
Continuous
 62
     7
370
    25
100
AcDbCircle
 10
304.9003559135
 20
453.8328194362
 30
0.0
 40
26.5
100
AcDbArc
 50
90.0
 51
180.0
  0
ARC
  5
16E
330
1F
100
AcDbEntity
  8
0
  6
Continuous
 62
     7
370
    25
100
AcDbCircle
 10
593.9003559135
 20
453.8328194362
 30
0.0
 40
26.5
100
AcDbArc
 50
0.0
 51
90.0
  0
LINE
  5
16F
330
1F
100
AcDbEntity
  8
0
  6
Continuous
 62
     8
370
    25
100
AcDbLine
 10
279.4748533655
 20
454.3328194362
 30
0.0
 11
278.4050733145
 21
454.3328194362
 31
0.0
  0
LINE
  5
170
330
1F
100
AcDbEntity
  8
0
  6
Continuous
 62
     8
370
    25
100
AcDbLine
 10
304.4003559135
 20
480.3281020352
 30
0.0
 11
304.4003559135
 21
479.2583219841
 31
0.0
  0
LINE
  5
171
330
1F
100
AcDbEntity
  8
0
  6
Continuous
 62
     8
370
    25
100
AcDbLine
 10
279.4748533655
 20
119.3328194362
 30
0.0
 11
278.4050733145
 21
119.3328194362
 31
0.0
  0
LINE
  5
172
330
1F
100
AcDbEntity
  8
0
  6
Continuous
 62
     8
370
    25
100
AcDbLine
 10
594.4003559135
 20
480.3281020352
 30
0.0
 11
594.4003559135
 21
479.2583219841
 31
0.0
  0
LINE
  5
173
330
1F
100
AcDbEntity
  8
0
  6
Continuous
 62
     8
370
    25
100
AcDbLine
 10
304.4003559135
 20
94.4073168883
 30
0.0
 11
304.4003559135
 21
93.3375368372
 31
0.0
  0
LINE
  5
174
330
1F
100
AcDbEntity
  8
0
  6
Continuous
 62
     8
370
    25
100
AcDbLine
 10
620.3956385125
 20
454.3328194362
 30
0.0
 11
619.3258584614
 21
454.3328194362
 31
0.0
  0
LINE
  5
175
330
1F
100
AcDbEntity
  8
0
  6
Continuous
 62
     8
370
    25
100
AcDbLine
 10
620.3956385125
 20
119.3328194362
 30
0.0
 11
619.3258584614
 21
119.3328194362
 31
0.0
  0
LINE
  5
176
330
1F
100
AcDbEntity
  8
0
  6
Continuous
 62
     8
370
    25
100
AcDbLine
 10
594.4003559135
 20
94.4073168883
 30
0.0
 11
594.4003559135
 21
93.3375368372
 31
0.0
  0
LINE
  5
177
330
1F
100
AcDbEntity
  8
0
  6
Continuous
 62
     8
370
    25
100
AcDbLine
 10
653.4748533655
 20
454.3328194362
 30
0.0
 11
652.4050733145
 21
454.3328194362
 31
0.0
  0
LINE
  5
178
330
1F
100
AcDbEntity
  8
0
  6
Continuous
 62
     8
370
    25
100
AcDbLine
 10
678.4003559135
 20
480.3281020352
 30
0.0
 11
678.4003559135
 21
479.2583219841
 31
0.0
  0
LINE
  5
179
330
1F
100
AcDbEntity
  8
0
  6
Continuous
 62
     8
370
    25
100
AcDbLine
 10
653.4748533655
 20
119.3328194362
 30
0.0
 11
652.4050733145
 21
119.3328194362
 31
0.0
  0
LINE
  5
17A
330
1F
100
AcDbEntity
  8
0
  6
Continuous
 62
     8
370
    25
100
AcDbLine
 10
968.4003559135
 20
480.3281020352
 30
0.0
 11
968.4003559135
 21
479.2583219841
 31
0.0
  0
LINE
  5
17B
330
1F
100
AcDbEntity
  8
0
  6
Continuous
 62
     8
370
    25
100
AcDbLine
 10
678.4003559135
 20
94.4073168883
 30
0.0
 11
678.4003559135
 21
93.3375368372
 31
0.0
  0
LINE
  5
17C
330
1F
100
AcDbEntity
  8
0
  6
Continuous
 62
     8
370
    25
100
AcDbLine
 10
994.3956385125
 20
454.3328194362
 30
0.0
 11
993.3258584614
 21
454.3328194362
 31
0.0
  0
LINE
  5
17D
330
1F
100
AcDbEntity
  8
0
  6
Continuous
 62
     8
370
    25
100
AcDbLine
 10
994.3956385125
 20
119.3328194362
 30
0.0
 11
993.3258584614
 21
119.3328194362
 31
0.0
  0
LINE
  5
17E
330
1F
100
AcDbEntity
  8
0
  6
Continuous
 62
     8
370
    25
100
AcDbLine
 10
968.4003559135
 20
94.4073168883
 30
0.0
 11
968.4003559135
 21
93.3375368372
 31
0.0
  0
ENDSEC
  0
SECTION
  2
OBJECTS
  0
DICTIONARY
  5
C
330
0
100
AcDbDictionary
281
     1
  3
ACAD_GROUP
350
D
  3
ACAD_LAYOUT
350
1A
  3
ACAD_MLINESTYLE
350
17
  3
ACAD_PLOTSETTINGS
350
19
  3
ACAD_PLOTSTYLENAME
350
E
  3
ACAD_SCALELIST
350
47
  3
DWGPROPS
350
17F
  0
DICTIONARY
  5
D
102
{ACAD_REACTORS
330
C
102
}
330
C
100
AcDbDictionary
281
     1
  0
DICTIONARY
  5
1A
102
{ACAD_REACTORS
330
C
102
}
330
C
100
AcDbDictionary
281
     1
  3
Layout1
350
1E
  3
Layout2
350
26
  3
Model
350
22
  0
DICTIONARY
  5
17
102
{ACAD_REACTORS
330
C
102
}
330
C
100
AcDbDictionary
281
     1
  3
Standard
350
18
  0
DICTIONARY
  5
19
102
{ACAD_REACTORS
330
C
102
}
330
C
100
AcDbDictionary
281
     1
  0
ACDBDICTIONARYWDFLT
  5
E
102
{ACAD_REACTORS
330
C
102
}
330
C
100
AcDbDictionary
281
     1
  3
Normal
350
F
100
AcDbDictionaryWithDefault
340
F
  0
DICTIONARY
  5
47
102
{ACAD_REACTORS
330
C
102
}
330
C
100
AcDbDictionary
281
     1
  3
A0
350
48
  3
A1
350
49
  3
A2
350
4A
  3
A3
350
4B
  3
A4
350
4C
  3
A5
350
4D
  3
A6
350
4E
  3
A7
350
4F
  3
A8
350
50
  3
A9
350
51
  3
B0
350
52
  3
B1
350
53
  3
B2
350
54
  3
B3
350
55
  3
B4
350
56
  3
B5
350
57
  3
B6
350
58
  3
B7
350
59
  3
B8
350
5A
  3
B9
350
5B
  3
C0
350
5C
  3
C1
350
5D
  3
C2
350
5E
  3
C3
350
5F
  3
C4
350
60
  3
C5
350
61
  3
C6
350
62
  3
C7
350
63
  3
C8
350
64
  3
C9
350
65
  3
D0
350
66
  3
D1
350
67
  3
D2
350
68
  0
XRECORD
  5
17F
102
{ACAD_REACTORS
330
C
102
}
330
C
100
AcDbXrecord
280
     1
  1
DWGPROPS COOKIE
  2

  3

  4

  6

  7

  8
KalleMourujärvi
  9

300
=
301
=
302
=
303
=
304
=
305
=
306
=
307
=
308
=
309
=
 40
0.0
 41
2460130.400055139
 42
2460130.400055613
  1

 90
        0
  0
LAYOUT
  5
1E
102
{ACAD_REACTORS
330
1A
102
}
330
1A
100
AcDbPlotSettings
  1

  2
none_device
  4

  6

 40
0.0
 41
0.0
 42
0.0
 43
0.0
 44
0.0
 45
0.0
 46
0.0
 47
0.0
 48
0.0
 49
0.0
140
0.0
141
0.0
142
1.0
143
1.0
 70
   688
 72
     1
 73
     0
 74
     5
  7

 75
    16
147
1.0
148
0.0
149
0.0
100
AcDbLayout
  1
Layout1
 70
     1
 71
     1
 10
0.0
 20
0.0
 11
420.0
 21
297.0
 12
0.0
 22
0.0
 32
0.0
 14
1.0000000000E+20
 24
1.0000000000E+20
 34
1.0000000000E+20
 15
-1.0000000000E+20
 25
-1.0000000000E+20
 35
-1.0000000000E+20
146
0.0
 13
0.0
 23
0.0
 33
0.0
 16
1.0
 26
0.0
 36
0.0
 17
0.0
 27
1.0
 37
0.0
 76
     0
330
1B
  0
LAYOUT
  5
26
102
{ACAD_REACTORS
330
1A
102
}
330
1A
100
AcDbPlotSettings
  1

  2
none_device
  4

  6

 40
0.0
 41
0.0
 42
0.0
 43
0.0
 44
0.0
 45
0.0
 46
0.0
 47
0.0
 48
0.0
 49
0.0
140
0.0
141
0.0
142
1.0
143
1.0
 70
   688
 72
     1
 73
     0
 74
     5
  7

 75
    16
147
1.0
148
0.0
149
0.0
100
AcDbLayout
  1
Layout2
 70
     1
 71
     2
 10
0.0
 20
0.0
 11
0.0
 21
0.0
 12
0.0
 22
0.0
 32
0.0
 14
0.0
 24
0.0
 34
0.0
 15
0.0
 25
0.0
 35
0.0
146
0.0
 13
0.0
 23
0.0
 33
0.0
 16
1.0
 26
0.0
 36
0.0
 17
0.0
 27
1.0
 37
0.0
 76
     0
330
23
  0
LAYOUT
  5
22
102
{ACAD_REACTORS
330
1A
102
}
330
1A
100
AcDbPlotSettings
  1

  2
none_device
  4
Letter_(8.50_x_11.00_Inches)
  6

 40
6.35
 41
6.35
 42
6.35000508
 43
6.35000508
 44
215.9
 45
279.4
 46
0.0
 47
0.0
 48
0.0
 49
0.0
140
0.0
141
0.0
142
1.0
143
1.0
 70
  1712
 72
     1
 73
     0
 74
     0
  7

 75
     0
147
1.0
148
0.0
149
0.0
100
AcDbLayout
  1
Model
 70
     1
 71
     0
 10
0.0
 20
0.0
 11
1050.0
 21
650.0
 12
0.0
 22
0.0
 32
0.0
 14
0.0
 24
0.0
 34
0.0
 15
1050.0
 25
650.0
 35
0.0
146
0.0
 13
0.0
 23
0.0
 33
0.0
 16
1.0
 26
0.0
 36
0.0
 17
0.0
 27
1.0
 37
0.0
 76
     0
330
1F
331
29
  0
MLINESTYLE
  5
18
102
{ACAD_REACTORS
330
17
102
}
330
17
100
AcDbMlineStyle
  2
Standard
 70
     0
  3

 62
   256
 51
90.0
 52
90.0
 71
     2
 49
0.5
 62
   256
  6
BYLAYER
 49
-0.5
 62
   256
  6
BYLAYER
  0
ACDBPLACEHOLDER
  5
F
102
{ACAD_REACTORS
330
E
102
}
330
E
  0
SCALE
  5
48
102
{ACAD_REACTORS
330
47
102
}
330
47
100
AcDbScale
 70
     0
300
1:1
140
1.0
141
1.0
290
     1
  0
SCALE
  5
49
102
{ACAD_REACTORS
330
47
102
}
330
47
100
AcDbScale
 70
     0
300
1:2
140
1.0
141
2.0
290
     0
  0
SCALE
  5
4A
102
{ACAD_REACTORS
330
47
102
}
330
47
100
AcDbScale
 70
     0
300
1:4
140
1.0
141
4.0
290
     0
  0
SCALE
  5
4B
102
{ACAD_REACTORS
330
47
102
}
330
47
100
AcDbScale
 70
     0
300
1:5
140
1.0
141
5.0
290
     0
  0
SCALE
  5
4C
102
{ACAD_REACTORS
330
47
102
}
330
47
100
AcDbScale
 70
     0
300
1:8
140
1.0
141
8.0
290
     0
  0
SCALE
  5
4D
102
{ACAD_REACTORS
330
47
102
}
330
47
100
AcDbScale
 70
     0
300
1:10
140
1.0
141
10.0
290
     0
  0
SCALE
  5
4E
102
{ACAD_REACTORS
330
47
102
}
330
47
100
AcDbScale
 70
     0
300
1:16
140
1.0
141
16.0
290
     0
  0
SCALE
  5
4F
102
{ACAD_REACTORS
330
47
102
}
330
47
100
AcDbScale
 70
     0
300
1:20
140
1.0
141
20.0
290
     0
  0
SCALE
  5
50
102
{ACAD_REACTORS
330
47
102
}
330
47
100
AcDbScale
 70
     0
300
1:30
140
1.0
141
30.0
290
     0
  0
SCALE
  5
51
102
{ACAD_REACTORS
330
47
102
}
330
47
100
AcDbScale
 70
     0
300
1:40
140
1.0
141
40.0
290
     0
  0
SCALE
  5
52
102
{ACAD_REACTORS
330
47
102
}
330
47
100
AcDbScale
 70
     0
300
1:50
140
1.0
141
50.0
290
     0
  0
SCALE
  5
53
102
{ACAD_REACTORS
330
47
102
}
330
47
100
AcDbScale
 70
     0
300
1:100
140
1.0
141
100.0
290
     0
  0
SCALE
  5
54
102
{ACAD_REACTORS
330
47
102
}
330
47
100
AcDbScale
 70
     0
300
2:1
140
2.0
141
1.0
290
     0
  0
SCALE
  5
55
102
{ACAD_REACTORS
330
47
102
}
330
47
100
AcDbScale
 70
     0
300
4:1
140
4.0
141
1.0
290
     0
  0
SCALE
  5
56
102
{ACAD_REACTORS
330
47
102
}
330
47
100
AcDbScale
 70
     0
300
8:1
140
8.0
141
1.0
290
     0
  0
SCALE
  5
57
102
{ACAD_REACTORS
330
47
102
}
330
47
100
AcDbScale
 70
     0
300
10:1
140
10.0
141
1.0
290
     0
  0
SCALE
  5
58
102
{ACAD_REACTORS
330
47
102
}
330
47
100
AcDbScale
 70
     0
300
100:1
140
100.0
141
1.0
290
     0
  0
SCALE
  5
59
102
{ACAD_REACTORS
330
47
102
}
330
47
100
AcDbScale
 70
     0
300
1/128" = 1'-0"
140
0.0078125
141
12.0
290
     0
  0
SCALE
  5
5A
102
{ACAD_REACTORS
330
47
102
}
330
47
100
AcDbScale
 70
     0
300
1/64" = 1'-0"
140
0.015625
141
12.0
290
     0
  0
SCALE
  5
5B
102
{ACAD_REACTORS
330
47
102
}
330
47
100
AcDbScale
 70
     0
300
1/32" = 1'-0"
140
0.03125
141
12.0
290
     0
  0
SCALE
  5
5C
102
{ACAD_REACTORS
330
47
102
}
330
47
100
AcDbScale
 70
     0
300
1/16" = 1'-0"
140
0.0625
141
12.0
290
     0
  0
SCALE
  5
5D
102
{ACAD_REACTORS
330
47
102
}
330
47
100
AcDbScale
 70
     0
300
3/32" = 1'-0"
140
0.09375
141
12.0
290
     0
  0
SCALE
  5
5E
102
{ACAD_REACTORS
330
47
102
}
330
47
100
AcDbScale
 70
     0
300
1/8" = 1'-0"
140
0.125
141
12.0
290
     0
  0
SCALE
  5
5F
102
{ACAD_REACTORS
330
47
102
}
330
47
100
AcDbScale
 70
     0
300
3/16" = 1'-0"
140
0.1875
141
12.0
290
     0
  0
SCALE
  5
60
102
{ACAD_REACTORS
330
47
102
}
330
47
100
AcDbScale
 70
     0
300
1/4" = 1'-0"
140
0.25
141
12.0
290
     0
  0
SCALE
  5
61
102
{ACAD_REACTORS
330
47
102
}
330
47
100
AcDbScale
 70
     0
300
3/8" = 1'-0"
140
0.375
141
12.0
290
     0
  0
SCALE
  5
62
102
{ACAD_REACTORS
330
47
102
}
330
47
100
AcDbScale
 70
     0
300
1/2" = 1'-0"
140
0.5
141
12.0
290
     0
  0
SCALE
  5
63
102
{ACAD_REACTORS
330
47
102
}
330
47
100
AcDbScale
 70
     0
300
3/4" = 1'-0"
140
0.75
141
12.0
290
     0
  0
SCALE
  5
64
102
{ACAD_REACTORS
330
47
102
}
330
47
100
AcDbScale
 70
     0
300
1" = 1'-0"
140
1.0
141
12.0
290
     0
  0
SCALE
  5
65
102
{ACAD_REACTORS
330
47
102
}
330
47
100
AcDbScale
 70
     0
300
1-1/2" = 1'-0"
140
1.5
141
12.0
290
     0
  0
SCALE
  5
66
102
{ACAD_REACTORS
330
47
102
}
330
47
100
AcDbScale
 70
     0
300
3" = 1'-0"
140
3.0
141
12.0
290
     0
  0
SCALE
  5
67
102
{ACAD_REACTORS
330
47
102
}
330
47
100
AcDbScale
 70
     0
300
6" = 1'-0"
140
6.0
141
12.0
290
     0
  0
SCALE
  5
68
102
{ACAD_REACTORS
330
47
102
}
330
47
100
AcDbScale
 70
     0
300
1'-0" = 1'-0"
140
12.0
141
12.0
290
     0
  0
ENDSEC
  0
EOF
