  0
SECTION
  2
HEADER
  9
$ACADVER
  1
AC1015
  9
$ACADMAINTVER
 70
     6
  9
$DWGCODEPAGE
  3
ANSI_1252
  9
$INSBASE
 10
0.0
 20
0.0
 30
0.0
  9
$EXTMIN
 10
0.0
 20
0.0
 30
0.0
  9
$EXTMAX
 10
800.0
 20
650.0
 30
0.0
  9
$LIMMIN
 10
0.0
 20
0.0
  9
$LIMMAX
 10
800.0
 20
650.0
  9
$ORTHOMODE
 70
     0
  9
$REGENMODE
 70
     1
  9
$FILLMODE
 70
     1
  9
$QTEXTMODE
 70
     0
  9
$MIRRTEXT
 70
     1
  9
$LTSCALE
 40
1.0
  9
$ATTMODE
 70
     1
  9
$TEXTSIZE
 40
3.5
  9
$TRACEWID
 40
1.0
  9
$TEXTSTYLE
  7
Standard
  9
$CLAYER
  8
0
  9
$CELTYPE
  6
ByLayer
  9
$CECOLOR
 62
   256
  9
$CELTSCALE
 40
1.0
  9
$DISPSILH
 70
     0
  9
$DIMSCALE
 40
1.0
  9
$DIMASZ
 40
3.302
  9
$DIMEXO
 40
1.0
  9
$DIMDLI
 40
3.75
  9
$DIMRND
 40
0.0
  9
$DIMDLE
 40
0.0
  9
$DIMEXE
 40
1.0
  9
$DIMTP
 40
0.0
  9
$DIMTM
 40
0.0
  9
$DIMTXT
 40
3.5
  9
$DIMCEN
 40
2.5
  9
$DIMTSZ
 40
0.0
  9
$DIMTOL
 70
     0
  9
$DIMLIM
 70
     0
  9
$DIMTIH
 70
     1
  9
$DIMTOH
 70
     1
  9
$DIMSE1
 70
     0
  9
$DIMSE2
 70
     0
  9
$DIMTAD
 70
     1
  9
$DIMZIN
 70
     1
  9
$DIMBLK
  1

  9
$DIMASO
 70
     1
  9
$DIMSHO
 70
     1
  9
$DIMPOST
  1

  9
$DIMAPOST
  1

  9
$DIMALT
 70
     0
  9
$DIMALTD
 70
     3
  9
$DIMALTF
 40
0.0393700787
  9
$DIMLFAC
 40
1.0
  9
$DIMTOFL
 70
     1
  9
$DIMTVP
 40
0.0
  9
$DIMTIX
 70
     0
  9
$DIMSOXD
 70
     0
  9
$DIMSAH
 70
     0
  9
$DIMBLK1
  1

  9
$DIMBLK2
  1

  9
$DIMSTYLE
  2
ISO-25
  9
$DIMCLRD
 70
     0
  9
$DIMCLRE
 70
     0
  9
$DIMCLRT
 70
     0
  9
$DIMTFAC
 40
1.0
  9
$DIMGAP
 40
1.524
  9
$DIMJUST
 70
     0
  9
$DIMSD1
 70
     0
  9
$DIMSD2
 70
     0
  9
$DIMTOLJ
 70
     0
  9
$DIMTZIN
 70
     1
  9
$DIMALTZ
 70
     0
  9
$DIMALTTZ
 70
     0
  9
$DIMUPT
 70
     0
  9
$DIMDEC
 70
     2
  9
$DIMTDEC
 70
     2
  9
$DIMALTU
 70
     2
  9
$DIMALTTD
 70
     3
  9
$DIMTXSTY
  7
Standard
  9
$DIMAUNIT
 70
     0
  9
$DIMADEC
 70
     2
  9
$DIMALTRND
 40
0.0
  9
$DIMAZIN
 70
     0
  9
$DIMDSEP
 70
    44
  9
$DIMATFIT
 70
     3
  9
$DIMFRAC
 70
     0
  9
$DIMLDRBLK
  1

  9
$DIMLUNIT
 70
     2
  9
$DIMLWD
 70
    -2
  9
$DIMLWE
 70
    -2
  9
$DIMTMOVE
 70
     0
  9
$LUNITS
 70
     2
  9
$LUPREC
 70
     1
  9
$SKETCHINC
 40
1.0
  9
$FILLETRAD
 40
10.0
  9
$AUNITS
 70
     0
  9
$AUPREC
 70
     1
  9
$MENU
  1
.
  9
$ELEVATION
 40
0.0
  9
$PELEVATION
 40
0.0
  9
$THICKNESS
 40
0.0
  9
$LIMCHECK
 70
     0
  9
$CHAMFERA
 40
0.0
  9
$CHAMFERB
 40
0.0
  9
$CHAMFERC
 40
0.0
  9
$CHAMFERD
 40
0.0
  9
$SKPOLY
 70
     0
  9
$TDCREATE
 40
2460130.549728496
  9
$TDUCREATE
 40
2460130.424728496
  9
$TDUPDATE
 40
2460130.549728773
  9
$TDUUPDATE
 40
2460130.424728773
  9
$TDINDWG
 40
0.0000000116
  9
$TDUSRTIMER
 40
0.0000000116
  9
$USRTIMER
 70
     1
  9
$ANGBASE
 50
0.0
  9
$ANGDIR
 70
     0
  9
$PDMODE
 70
     0
  9
$PDSIZE
 40
-1.0
  9
$PLINEWID
 40
0.0
  9
$SPLFRAME
 70
     0
  9
$SPLINETYPE
 70
     6
  9
$SPLINESEGS
 70
     8
  9
$HANDSEED
  5
126
  9
$SURFTAB1
 70
     6
  9
$SURFTAB2
 70
     6
  9
$SURFTYPE
 70
     6
  9
$SURFU
 70
     6
  9
$SURFV
 70
     6
  9
$UCSBASE
  2

  9
$UCSNAME
  2

  9
$UCSORG
 10
0.0
 20
0.0
 30
0.0
  9
$UCSXDIR
 10
1.0
 20
0.0
 30
0.0
  9
$UCSYDIR
 10
0.0
 20
1.0
 30
0.0
  9
$UCSORTHOREF
  2

  9
$UCSORTHOVIEW
 70
     0
  9
$UCSORGTOP
 10
0.0
 20
0.0
 30
0.0
  9
$UCSORGBOTTOM
 10
0.0
 20
0.0
 30
0.0
  9
$UCSORGLEFT
 10
0.0
 20
0.0
 30
0.0
  9
$UCSORGRIGHT
 10
0.0
 20
0.0
 30
0.0
  9
$UCSORGFRONT
 10
0.0
 20
0.0
 30
0.0
  9
$UCSORGBACK
 10
0.0
 20
0.0
 30
0.0
  9
$PUCSBASE
  2

  9
$PUCSNAME
  2

  9
$PUCSORG
 10
0.0
 20
0.0
 30
0.0
  9
$PUCSXDIR
 10
1.0
 20
0.0
 30
0.0
  9
$PUCSYDIR
 10
0.0
 20
1.0
 30
0.0
  9
$PUCSORTHOREF
  2

  9
$PUCSORTHOVIEW
 70
     0
  9
$PUCSORGTOP
 10
0.0
 20
0.0
 30
0.0
  9
$PUCSORGBOTTOM
 10
0.0
 20
0.0
 30
0.0
  9
$PUCSORGLEFT
 10
0.0
 20
0.0
 30
0.0
  9
$PUCSORGRIGHT
 10
0.0
 20
0.0
 30
0.0
  9
$PUCSORGFRONT
 10
0.0
 20
0.0
 30
0.0
  9
$PUCSORGBACK
 10
0.0
 20
0.0
 30
0.0
  9
$USERI1
 70
     0
  9
$USERI2
 70
     0
  9
$USERI3
 70
     0
  9
$USERI4
 70
     0
  9
$USERI5
 70
     0
  9
$USERR1
 40
0.0
  9
$USERR2
 40
0.0
  9
$USERR3
 40
0.0
  9
$USERR4
 40
0.0
  9
$USERR5
 40
0.0
  9
$WORLDVIEW
 70
     1
  9
$SHADEDGE
 70
     3
  9
$SHADEDIF
 70
    70
  9
$TILEMODE
 70
     1
  9
$MAXACTVP
 70
    64
  9
$PINSBASE
 10
0.0
 20
0.0
 30
0.0
  9
$PLIMCHECK
 70
     0
  9
$PEXTMIN
 10
1.0000000000E+20
 20
1.0000000000E+20
 30
1.0000000000E+20
  9
$PEXTMAX
 10
-1.0000000000E+20
 20
-1.0000000000E+20
 30
-1.0000000000E+20
  9
$PLIMMIN
 10
0.0
 20
0.0
  9
$PLIMMAX
 10
420.0
 20
297.0
  9
$UNITMODE
 70
     0
  9
$VISRETAIN
 70
     1
  9
$PLINEGEN
 70
     0
  9
$PSLTSCALE
 70
     1
  9
$TREEDEPTH
 70
  3020
  9
$CMLSTYLE
  2
Standard
  9
$CMLJUST
 70
     0
  9
$CMLSCALE
 40
20.0
  9
$PROXYGRAPHICS
 70
     1
  9
$MEASUREMENT
 70
     1
  9
$CELWEIGHT
370
    -1
  9
$ENDCAPS
280
     0
  9
$JOINSTYLE
280
     0
  9
$LWDISPLAY
290
     1
  9
$INSUNITS
 70
     4
  9
$HYPERLINKBASE
  1

  9
$STYLESHEET
  1

  9
$XEDIT
290
     1
  9
$CEPSNTYPE
380
     0
  9
$PSTYLEMODE
290
     1
  9
$FINGERPRINTGUID
  2
{7b3df1f1-f16d-42af-ba4a-140cd0540f87}
  9
$VERSIONGUID
  2
{FAEB1C32-E019-11D5-929B-00C0DF256EC4}
  9
$EXTNAMES
290
     1
  9
$PSVPSCALE
 40
0.0
  9
$OLESTARTUP
290
     0
  0
ENDSEC
  0
SECTION
  2
CLASSES
  0
CLASS
  1
ACDBDICTIONARYWDFLT
  2
AcDbDictionaryWithDefault
  3
ObjectDBX Classes
 90
        0
280
     0
281
     0
  0
CLASS
  1
VISUALSTYLE
  2
AcDbVisualStyle
  3
ObjectDBX Classes
 90
     4095
280
     0
281
     0
  0
CLASS
  1
MATERIAL
  2
AcDbMaterial
  3
ObjectDBX Classes
 90
     1153
280
     0
281
     0
  0
CLASS
  1
SCALE
  2
AcDbScale
  3
ObjectDBX Classes
 90
     1153
280
     0
281
     0
  0
CLASS
  1
TABLESTYLE
  2
AcDbTableStyle
  3
ObjectDBX Classes
 90
     4095
280
     0
281
     0
  0
CLASS
  1
MLEADERSTYLE
  2
AcDbMLeaderStyle
  3
ACDB_MLEADERSTYLE_CLASS
 90
     4095
280
     0
281
     0
  0
CLASS
  1
SUN
  2
AcDbSun
  3
SCENEOE
 90
     1153
280
     0
281
     0
  0
CLASS
  1
ACDBPLACEHOLDER
  2
AcDbPlaceHolder
  3
ObjectDBX Classes
 90
        0
280
     0
281
     0
  0
CLASS
  1
LAYOUT
  2
AcDbLayout
  3
ObjectDBX Classes
 90
        0
280
     0
281
     0
  0
ENDSEC
  0
SECTION
  2
TABLES
  0
TABLE
  2
VPORT
  5
8
330
0
100
AcDbSymbolTable
 70
     1
  0
VPORT
  5
29
330
8
100
AcDbSymbolTableRecord
100
AcDbViewportTableRecord
  2
*Active
 70
     0
 10
0.0
 20
0.0
 11
1.0
 21
1.0
 12
400.0
 22
325.0
 13
0.0
 23
0.0
 14
10.0
 24
10.0
 15
10.0
 25
10.0
 16
0.0
 26
0.0
 36
1.0
 17
0.0
 27
0.0
 37
0.0
 40
650.0
 41
1.2307692308
 42
50.0
 43
0.0
 44
0.0
 50
0.0
 51
0.0
 71
     0
 72
  2000
 73
     1
 74
     3
 75
     0
 76
     0
 77
     0
 78
     0
281
     0
 65
     1
110
0.0
120
0.0
130
0.0
111
1.0
121
0.0
131
0.0
112
0.0
122
1.0
132
0.0
 79
     0
146
0.0
  0
ENDTAB
  0
TABLE
  2
LTYPE
  5
5
330
0
100
AcDbSymbolTable
 70
     6
  0
LTYPE
  5
14
330
5
100
AcDbSymbolTableRecord
100
AcDbLinetypeTableRecord
  2
ByBlock
 70
     0
  3

 72
    65
 73
     0
 40
0.0
  0
LTYPE
  5
15
330
5
100
AcDbSymbolTableRecord
100
AcDbLinetypeTableRecord
  2
ByLayer
 70
     0
  3

 72
    65
 73
     0
 40
0.0
  0
LTYPE
  5
16
330
5
100
AcDbSymbolTableRecord
100
AcDbLinetypeTableRecord
  2
Continuous
 70
     0
  3
Solid line
 72
    65
 73
     0
 40
0.0
  0
LTYPE
  5
6E
330
5
100
AcDbSymbolTableRecord
100
AcDbLinetypeTableRecord
  2
HIDDEN
 70
     0
  3
Hidden __ __ __ __ __ __ __ __ __ __ __ __ __ __
 72
    65
 73
     2
 40
1.905
 49
1.27
 74
     0
 49
-0.635
 74
     0
  0
LTYPE
  5
6F
330
5
100
AcDbSymbolTableRecord
100
AcDbLinetypeTableRecord
  2
PHANTOM
 70
     0
  3
Phantom ______  __  __  ______  __  __  ______
 72
    65
 73
     6
 40
12.7
 49
6.35
 74
     0
 49
-1.27
 74
     0
 49
1.27
 74
     0
 49
-1.27
 74
     0
 49
1.27
 74
     0
 49
-1.27
 74
     0
  0
LTYPE
  5
70
330
5
100
AcDbSymbolTableRecord
100
AcDbLinetypeTableRecord
  2
CENTER
 70
     0
  3
Center ____ _ ____ _ ____ _ ____ _ ____ _ ____
 72
    65
 73
     4
 40
10.16
 49
6.35
 74
     0
 49
-1.27
 74
     0
 49
1.27
 74
     0
 49
-1.27
 74
     0
  0
LTYPE
  5
71
330
5
100
AcDbSymbolTableRecord
100
AcDbLinetypeTableRecord
  2
CENTERX2
 70
     0
  3
Center (2x) ________  __  ________  __  _____
 72
    65
 73
     4
 40
20.32
 49
12.7
 74
     0
 49
-2.54
 74
     0
 49
2.54
 74
     0
 49
-2.54
 74
     0
  0
LTYPE
  5
72
330
5
100
AcDbSymbolTableRecord
100
AcDbLinetypeTableRecord
  2
DOT2
 70
     0
  3
Dot (.5x) ........................................
 72
    65
 73
     2
 40
0.635
 49
0.0
 74
     0
 49
-0.635
 74
     0
  0
ENDTAB
  0
TABLE
  2
LAYER
  5
2
330
0
100
AcDbSymbolTable
 70
     1
  0
LAYER
  5
10
330
2
100
AcDbSymbolTableRecord
100
AcDbLayerTableRecord
  2
0
 70
     0
 62
     7
  6
Continuous
370
    -3
390
F
  0
ENDTAB
  0
TABLE
  2
STYLE
  5
3
330
0
100
AcDbSymbolTable
 70
     1
  0
STYLE
  5
11
330
3
100
AcDbSymbolTableRecord
100
AcDbTextStyleTableRecord
  2
Standard
 70
     0
 40
0.0
 41
1.0
 50
0.0
 71
     0
 42
3.5
  3
txt
  4

  0
ENDTAB
  0
TABLE
  2
VIEW
  5
6
330
0
100
AcDbSymbolTable
 70
     0
  0
ENDTAB
  0
TABLE
  2
UCS
  5
7
330
0
100
AcDbSymbolTable
 70
     0
  0
ENDTAB
  0
TABLE
  2
APPID
  5
9
330
0
100
AcDbSymbolTable
 70
     1
  0
APPID
  5
12
330
9
100
AcDbSymbolTableRecord
100
AcDbRegAppTableRecord
  2
ACAD
 70
     0
  0
ENDTAB
  0
TABLE
  2
DIMSTYLE
  5
A
330
0
100
AcDbSymbolTable
 70
     1
100
AcDbDimStyleTable
  0
DIMSTYLE
105
27
330
A
100
AcDbSymbolTableRecord
100
AcDbDimStyleTableRecord
  2
ISO-25
 70
     0
 41
2.5
 42
0.625
 43
3.75
 44
1.25
 73
     0
 74
     0
 77
     1
 78
     8
140
2.5
141
2.5
143
0.0393700787
147
0.625
171
     3
172
     1
178
     0
271
     2
272
     2
274
     3
278
    44
283
     0
284
     8
340
11
  0
ENDTAB
  0
TABLE
  2
BLOCK_RECORD
  5
1
330
0
100
AcDbSymbolTable
 70
     1
  0
BLOCK_RECORD
  5
1F
330
1
100
AcDbSymbolTableRecord
100
AcDbBlockTableRecord
  2
*Model_Space
340
22
  0
BLOCK_RECORD
  5
1B
330
1
100
AcDbSymbolTableRecord
100
AcDbBlockTableRecord
  2
*Paper_Space
340
1E
  0
BLOCK_RECORD
  5
23
330
1
100
AcDbSymbolTableRecord
100
AcDbBlockTableRecord
  2
*Paper_Space0
340
26
  0
ENDTAB
  0
ENDSEC
  0
SECTION
  2
BLOCKS
  0
BLOCK
  5
20
330
1F
100
AcDbEntity
  8
0
100
AcDbBlockBegin
  2
*Model_Space
 70
     0
 10
0.0
 20
0.0
 30
0.0
  3
*Model_Space
  1

  0
ENDBLK
  5
21
330
1F
100
AcDbEntity
  8
0
100
AcDbBlockEnd
  0
BLOCK
  5
1C
330
1B
100
AcDbEntity
 67
     1
  8
0
100
AcDbBlockBegin
  2
*Paper_Space
 70
     0
 10
0.0
 20
0.0
 30
0.0
  3
*Paper_Space
  1

  0
ENDBLK
  5
1D
330
1B
100
AcDbEntity
 67
     1
  8
0
100
AcDbBlockEnd
  0
BLOCK
  5
24
330
23
100
AcDbEntity
  8
0
100
AcDbBlockBegin
  2
*Paper_Space0
 70
     0
 10
0.0
 20
0.0
 30
0.0
  3
*Paper_Space0
  1

  0
ENDBLK
  5
25
330
23
100
AcDbEntity
  8
0
100
AcDbBlockEnd
  0
ENDSEC
  0
SECTION
  2
ENTITIES
  0
ARC
  5
73
330
1F
100
AcDbEntity
  8
0
  6
Continuous
 62
     7
370
    25
100
AcDbCircle
 10
646.496
 20
464.808
 30
0.0
 40
26.42344685007242
100
AcDbArc
 50
0.0
 51
90.0
  0
LINE
  5
74
330
1F
100
AcDbEntity
  8
0
  6
Continuous
 62
     7
370
    25
100
AcDbLine
 10
356.496
 20
491.2314468501
 30
0.0
 11
646.496
 21
491.2314468501
 31
0.0
  0
ARC
  5
75
330
1F
100
AcDbEntity
  8
0
  6
Continuous
 62
     7
370
    25
100
AcDbCircle
 10
356.496
 20
464.808
 30
0.0
 40
26.42344685007225
100
AcDbArc
 50
90.0
 51
180.0
  0
LINE
  5
76
330
1F
100
AcDbEntity
  8
0
  6
Continuous
 62
     7
370
    25
100
AcDbLine
 10
330.0725531499
 20
129.808
 30
0.0
 11
330.0725531499
 21
464.808
 31
0.0
  0
ARC
  5
77
330
1F
100
AcDbEntity
  8
0
  6
Continuous
 62
     7
370
    25
100
AcDbCircle
 10
356.496
 20
129.808
 30
0.0
 40
26.42344685007231
100
AcDbArc
 50
180.0
 51
270.0
  0
LINE
  5
78
330
1F
100
AcDbEntity
  8
0
  6
Continuous
 62
     7
370
    25
100
AcDbLine
 10
646.496
 20
103.3845531499
 30
0.0
 11
356.496
 21
103.3845531499
 31
0.0
  0
ARC
  5
79
330
1F
100
AcDbEntity
  8
0
  6
Continuous
 62
     7
370
    25
100
AcDbCircle
 10
646.496
 20
129.808
 30
0.0
 40
26.42344685007242
100
AcDbArc
 50
270.0
 51
0.0
  0
LINE
  5
7A
330
1F
100
AcDbEntity
  8
0
  6
Continuous
 62
     7
370
    25
100
AcDbLine
 10
672.9194468501
 20
464.808
 30
0.0
 11
672.9194468501
 21
129.808
 31
0.0
  0
LINE
  5
7B
330
1F
100
AcDbEntity
  8
0
  6
Continuous
 62
     7
370
    25
100
AcDbLine
 10
672.9194468501
 20
464.808
 30
0.0
 11
671.4215025479
 21
464.808
 31
0.0
  0
ARC
  5
7C
330
1F
100
AcDbEntity
  8
0
  6
Continuous
 62
     7
370
    25
100
AcDbCircle
 10
646.496
 20
464.808
 30
0.0
 40
24.92550254794037
100
AcDbArc
 50
0.0
 51
90.0
  0
LINE
  5
7D
330
1F
100
AcDbEntity
  8
0
  6
Continuous
 62
     7
370
    25
100
AcDbLine
 10
646.496
 20
491.2314468501
 30
0.0
 11
646.496
 21
489.7335025479
 31
0.0
  0
ARC
  5
7E
330
1F
100
AcDbEntity
  8
0
  6
Continuous
 62
     7
370
    25
100
AcDbCircle
 10
356.496
 20
464.808
 30
0.0
 40
24.92550254794037
100
AcDbArc
 50
90.0
 51
180.0
  0
LINE
  5
7F
330
1F
100
AcDbEntity
  8
0
  6
Continuous
 62
     7
370
    25
100
AcDbLine
 10
331.5704974521
 20
464.808
 30
0.0
 11
330.0725531499
 21
464.808
 31
0.0
  0
LINE
  5
80
330
1F
100
AcDbEntity
  8
0
  6
Continuous
 62
     7
370
    25
100
AcDbLine
 10
356.496
 20
491.2314468501
 30
0.0
 11
356.496
 21
489.7335025479
 31
0.0
  0
LINE
  5
81
330
1F
100
AcDbEntity
  8
0
  6
Continuous
 62
     7
370
    25
100
AcDbLine
 10
331.5704974521
 20
464.808
 30
0.0
 11
331.5704974521
 21
129.808
 31
0.0
  0
LINE
  5
82
330
1F
100
AcDbEntity
  8
0
  6
Continuous
 62
     7
370
    25
100
AcDbLine
 10
331.5704974521
 20
129.808
 30
0.0
 11
330.0725531499
 21
129.808
 31
0.0
  0
LINE
  5
83
330
1F
100
AcDbEntity
  8
0
  6
Continuous
 62
     7
370
    25
100
AcDbLine
 10
646.496
 20
489.7335025479
 30
0.0
 11
356.496
 21
489.7335025479
 31
0.0
  0
ARC
  5
84
330
1F
100
AcDbEntity
  8
0
  6
Continuous
 62
     7
370
    25
100
AcDbCircle
 10
356.496
 20
129.808
 30
0.0
 40
24.92550254794045
100
AcDbArc
 50
180.0
 51
270.0
  0
LINE
  5
85
330
1F
100
AcDbEntity
  8
0
  6
Continuous
 62
     7
370
    25
100
AcDbLine
 10
356.496
 20
104.8824974521
 30
0.0
 11
356.496
 21
103.3845531499
 31
0.0
  0
LINE
  5
86
330
1F
100
AcDbEntity
  8
0
  6
Continuous
 62
     7
370
    25
100
AcDbLine
 10
356.496
 20
104.8824974521
 30
0.0
 11
646.496
 21
104.8824974521
 31
0.0
  0
LINE
  5
87
330
1F
100
AcDbEntity
  8
0
  6
Continuous
 62
     7
370
    25
100
AcDbLine
 10
646.496
 20
104.8824974521
 30
0.0
 11
646.496
 21
103.3845531499
 31
0.0
  0
ARC
  5
88
330
1F
100
AcDbEntity
  8
0
  6
Continuous
 62
     7
370
    25
100
AcDbCircle
 10
646.496
 20
129.808
 30
0.0
 40
24.92550254794037
100
AcDbArc
 50
270.0
 51
0.0
  0
LINE
  5
89
330
1F
100
AcDbEntity
  8
0
  6
Continuous
 62
     7
370
    25
100
AcDbLine
 10
672.9194468501
 20
129.808
 30
0.0
 11
671.4215025479
 21
129.808
 31
0.0
  0
LINE
  5
8A
330
1F
100
AcDbEntity
  8
0
  6
Continuous
 62
     7
370
    25
100
AcDbLine
 10
671.4215025479
 20
129.808
 30
0.0
 11
671.4215025479
 21
464.808
 31
0.0
  0
LINE
  5
8B
330
1F
100
AcDbEntity
  8
0
  6
Continuous
 62
     7
370
    25
100
AcDbLine
 10
339.4224964272
 20
464.8061020001
 30
0.0
 11
339.4135524326
 21
464.808
 31
0.0
  0
SPLINE
  5
8C
330
1F
100
AcDbEntity
  8
0
  6
Continuous
 62
     7
370
    25
100
AcDbSpline
210
0.0
220
0.0
230
1.0
 70
     8
 71
     3
 72
    14
 73
    10
 74
     0
 42
0.00000001
 43
0.00000001
 40
0.0
 40
0.0
 40
0.0
 40
0.0
 40
0.1421653558241428
 40
0.2843364374989548
 40
0.4265001241230322
 40
0.5689494416617654
 40
0.711407809330231
 40
0.8538541196898948
 40
1.0
 40
1.0
 40
1.0
 40
1.0
 10
338.942054008594
 20
129.8080000000025
 30
0.0
 10
339.004428172305
 20
145.6524789324349
 30
0.0
 10
339.1291790119083
 20
177.3420749493991
 30
0.0
 10
339.2750949876978
 20
224.9301150191505
 30
0.0
 10
339.3888445774975
 20
272.581088693714
 30
0.0
 10
339.4644351388175
 20
320.2929290240176
 30
0.0
 10
339.4976552937143
 20
368.053475991826
 30
0.0
 10
339.4890540017059
 20
416.2332108285009
 30
0.0
 10
339.4448710844077
 20
448.4773550755575
 30
0.0
 10
339.4224964271855
 20
464.8061020000519
 30
0.0
  0
LINE
  5
8D
330
1F
100
AcDbEntity
  8
0
  6
Continuous
 62
     7
370
    25
100
AcDbLine
 10
331.5704974521
 20
129.808
 30
0.0
 11
338.9420540086
 21
129.808
 31
0.0
  0
LINE
  5
8E
330
1F
100
AcDbEntity
  8
0
  6
Continuous
 62
     7
370
    25
100
AcDbLine
 10
331.5704974521
 20
464.808
 30
0.0
 11
339.4135524326
 21
464.808
 31
0.0
  0
SPLINE
  5
8F
330
1F
100
AcDbEntity
  8
0
  6
Continuous
 62
     7
370
    25
100
AcDbSpline
210
0.0
220
0.0
230
1.0
 70
     8
 71
     3
 72
    15
 73
    11
 74
     0
 42
0.00000001
 43
0.00000001
 40
0.0
 40
0.0
 40
0.0
 40
0.0
 40
0.1277272117027009
 40
0.250000621466343
 40
0.3758169053141832
 40
0.5000000007414304
 40
0.6241812692474716
 40
0.7499993797239405
 40
0.8722717995237483
 40
1.0
 40
1.0
 40
1.0
 40
1.0
 10
646.4959999999988
 20
481.8904475674445
 30
0.0
 10
647.63670961747
 20
481.8214988070077
 30
0.0
 10
649.8694218913761
 20
481.6865453172327
 30
0.0
 10
653.093995814352
 20
480.6582977941262
 30
0.0
 10
656.0415468585454
 20
479.0872318617164
 30
0.0
 10
658.6374312952076
 20
476.9494542877881
 30
0.0
 10
660.775222427998
 20
474.3535609207777
 30
0.0
 10
662.3462887108213
 20
471.4060192189347
 30
0.0
 10
663.3745433994677
 20
468.1814308369769
 30
0.0
 10
663.5094978050348
 20
465.9487184905314
 30
0.0
 10
663.5784475674409
 20
464.8080000000026
 30
0.0
  0
LINE
  5
90
330
1F
100
AcDbEntity
  8
0
  6
Continuous
 62
     7
370
    25
100
AcDbLine
 10
646.496
 20
489.7335025479
 30
0.0
 11
646.496
 21
481.8904475674
 31
0.0
  0
LINE
  5
91
330
1F
100
AcDbEntity
  8
0
  6
Continuous
 62
     7
370
    25
100
AcDbLine
 10
671.4215025479
 20
464.808
 30
0.0
 11
663.5784475674
 21
464.808
 31
0.0
  0
SPLINE
  5
92
330
1F
100
AcDbEntity
  8
0
  6
Continuous
 62
     7
370
    25
100
AcDbSpline
210
0.0
220
0.0
230
1.0
 70
     8
 71
     3
 72
    15
 73
    11
 74
     0
 42
0.00000001
 43
0.00000001
 40
0.0
 40
0.0
 40
0.0
 40
0.0
 40
0.1277272124220018
 40
0.2500006214662489
 40
0.3758169059605587
 40
0.5000000007414147
 40
0.624181268644376
 40
0.7499993797240044
 40
0.872271798852503
 40
0.9999999999999999
 40
0.9999999999999999
 40
0.9999999999999999
 40
0.9999999999999999
 10
339.4135524325569
 20
464.8080000000024
 30
0.0
 10
339.4825011937185
 20
465.948709623926
 30
0.0
 10
339.6174546841523
 20
468.1814218978871
 30
0.0
 10
340.6457022106641
 20
471.4059958255526
 30
0.0
 10
342.2167681415959
 20
474.353546863548
 30
0.0
 10
344.3545457132736
 20
476.9494312946959
 30
0.0
 10
346.9504390745598
 20
479.0872224249133
 30
0.0
 10
349.8979807706182
 20
480.6582887063558
 30
0.0
 10
353.1225691569517
 20
481.6865433981803
 30
0.0
 10
355.3552815034485
 20
481.8214978043619
 30
0.0
 10
356.4959999999987
 20
481.8904475674445
 30
0.0
  0
LINE
  5
93
330
1F
100
AcDbEntity
  8
0
  6
Continuous
 62
     7
370
    25
100
AcDbLine
 10
356.496
 20
489.7335025479
 30
0.0
 11
356.496
 21
481.8904475674
 31
0.0
  0
SPLINE
  5
94
330
1F
100
AcDbEntity
  8
0
  6
Continuous
 62
     7
370
    25
100
AcDbSpline
210
0.0
220
0.0
230
1.0
 70
     8
 71
     3
 72
    15
 73
    11
 74
     0
 42
0.00000001
 43
0.00000001
 40
0.0
 40
0.0
 40
0.0
 40
0.0
 40
0.1277272255748722
 40
0.2500006214609079
 40
0.3758169311157556
 40
0.500000000732854
 40
0.6241812950806372
 40
0.7499993797184954
 40
0.8722718134307307
 40
1.0
 40
1.0
 40
1.0
 40
1.0
 10
664.0499459914038
 20
129.8080000000026
 30
0.0
 10
663.9790941384192
 20
128.6358051419099
 30
0.0
 10
663.8404157384299
 20
126.3414670187925
 30
0.0
 10
662.7837871031392
 20
123.0278903281412
 30
0.0
 10
661.1693576419234
 20
119.9989830635331
 30
0.0
 10
658.9725743476786
 20
117.3314486110362
 30
0.0
 10
656.3050309777368
 20
115.1346517777196
 30
0.0
 10
653.2761330434731
 20
113.5202219675958
 30
0.0
 10
649.9625419152484
 20
112.4635861768802
 30
0.0
 10
647.6682037198917
 20
112.3249068622779
 30
0.0
 10
646.4959999999988
 20
112.2540540085977
 30
0.0
  0
LINE
  5
95
330
1F
100
AcDbEntity
  8
0
  6
Continuous
 62
     7
370
    25
100
AcDbLine
 10
671.4215025479
 20
129.808
 30
0.0
 11
664.0499459914
 21
129.808
 31
0.0
  0
LINE
  5
96
330
1F
100
AcDbEntity
  8
0
  6
Continuous
 62
     7
370
    25
100
AcDbLine
 10
646.496
 20
104.8824974521
 30
0.0
 11
646.496
 21
112.2540540086
 31
0.0
  0
LINE
  5
97
330
1F
100
AcDbEntity
  8
0
  6
Continuous
 62
     7
370
    25
100
AcDbLine
 10
356.5001762692
 20
112.2669415519
 30
0.0
 11
356.496
 21
112.2540540086
 31
0.0
  0
SPLINE
  5
98
330
1F
100
AcDbEntity
  8
0
  6
Continuous
 62
     7
370
    25
100
AcDbSpline
210
0.0
220
0.0
230
1.0
 70
     8
 71
     3
 72
    13
 73
     9
 74
     0
 42
0.00000001
 43
0.00000001
 40
0.0
 40
0.0
 40
0.0
 40
0.0
 40
0.1664861396825426
 40
0.3329812993316086
 40
0.4994660550566635
 40
0.6663067480585365
 40
0.833157913551422
 40
1.0
 40
1.0
 40
1.0
 40
1.0
 10
646.4918237243653
 20
112.2669415518676
 30
0.0
 10
630.4066740019165
 20
112.3020237106006
 30
0.0
 10
598.2355030880044
 20
112.3721899287649
 30
0.0
 10
549.948041352894
 20
112.4295538911727
 30
0.0
 10
501.6164871126938
 20
112.4505947137515
 30
0.0
 10
453.2504664682191
 20
112.4297492538349
 30
0.0
 10
404.8596951993041
 20
112.3723915443587
 30
0.0
 10
372.6197235201793
 20
112.3020909117802
 30
0.0
 10
356.5001762692452
 20
112.2669415518521
 30
0.0
  0
LINE
  5
99
330
1F
100
AcDbEntity
  8
0
  6
Continuous
 62
     7
370
    25
100
AcDbLine
 10
646.496
 20
112.2540540086
 30
0.0
 11
646.4918237244
 21
112.2669415519
 31
0.0
  0
LINE
  5
9A
330
1F
100
AcDbEntity
  8
0
  6
Continuous
 62
     7
370
    25
100
AcDbLine
 10
356.496
 20
104.8824974521
 30
0.0
 11
356.496
 21
112.2540540086
 31
0.0
  0
SPLINE
  5
9B
330
1F
100
AcDbEntity
  8
0
  6
Continuous
 62
     7
370
    25
100
AcDbSpline
210
0.0
220
0.0
230
1.0
 70
     8
 71
     3
 72
    15
 73
    11
 74
     0
 42
0.00000001
 43
0.00000001
 40
0.0
 40
0.0
 40
0.0
 40
0.0
 40
0.1277272255720587
 40
0.2500006214609074
 40
0.3758169317197245
 40
0.5000000007328183
 40
0.6241812956716669
 40
0.7499993797185056
 40
0.8722718134135505
 40
1.0
 40
1.0
 40
1.0
 40
1.0
 10
356.4959999999988
 20
112.2540540085977
 30
0.0
 10
355.3238051419308
 20
112.3249058615825
 30
0.0
 10
353.0294670188109
 20
112.4635842615757
 30
0.0
 10
349.7158903228506
 20
113.520212898511
 30
0.0
 10
346.6869830587634
 20
115.1346423613018
 30
0.0
 10
344.0194486033064
 20
117.3314256600654
 30
0.0
 10
341.8226517745603
 20
119.9989690269279
 30
0.0
 10
340.2082219660419
 20
123.0278669615857
 30
0.0
 10
339.1515861769008
 20
126.3414580845972
 30
0.0
 10
339.0129068622889
 20
128.6357962799525
 30
0.0
 10
338.942054008594
 20
129.8080000000025
 30
0.0
  0
LINE
  5
9C
330
1F
100
AcDbEntity
  8
0
  6
Continuous
 62
     7
370
    25
100
AcDbLine
 10
477.246
 20
488.0848123394
 30
0.0
 11
477.246
 21
486.933421302
 31
0.0
  0
ARC
  5
9D
330
1F
100
AcDbEntity
  8
0
  6
Continuous
 62
     7
370
    25
100
AcDbCircle
 10
477.9966847631
 20
491.6971679653
 30
0.0
 40
4.822531481003128
100
AcDbArc
 50
261.0448095014
 51
272.9633983003
  0
LINE
  5
9E
330
1F
100
AcDbEntity
  8
0
  6
Continuous
 62
     7
370
    25
100
AcDbLine
 10
478.246
 20
486.8810853458
 30
0.0
 11
524.746
 21
486.8810853458
 31
0.0
  0
ARC
  5
9F
330
1F
100
AcDbEntity
  8
0
  6
Continuous
 62
     7
370
    25
100
AcDbCircle
 10
524.9953152369
 20
491.6971679653
 30
0.0
 40
4.822531481006757
100
AcDbArc
 50
267.0366016998
 51
278.9551904986
  0
LINE
  5
A0
330
1F
100
AcDbEntity
  8
0
  6
Continuous
 62
     7
370
    25
100
AcDbLine
 10
525.746
 20
486.933421302
 30
0.0
 11
525.746
 21
488.0848123394
 31
0.0
  0
ARC
  5
A1
330
1F
100
AcDbEntity
  8
0
  6
Continuous
 62
     7
370
    25
100
AcDbCircle
 10
524.9953152369
 20
483.3210656761
 30
0.0
 40
4.822531481022377
100
AcDbArc
 50
81.0448095015
 51
92.9633983002
  0
LINE
  5
A2
330
1F
100
AcDbEntity
  8
0
  6
Continuous
 62
     7
370
    25
100
AcDbLine
 10
524.746
 20
488.1371482956
 30
0.0
 11
478.246
 21
488.1371482956
 31
0.0
  0
ARC
  5
A3
330
1F
100
AcDbEntity
  8
0
  6
Continuous
 62
     7
370
    25
100
AcDbCircle
 10
477.9966847631
 20
483.3210656761
 30
0.0
 40
4.822531481007427
100
AcDbArc
 50
87.0366016998
 51
98.9551904986
  0
SPLINE
  5
A4
330
1F
100
AcDbEntity
  8
0
  6
Continuous
 62
     7
370
    25
100
AcDbSpline
210
0.0
220
0.0
230
1.0
 70
     8
 71
     3
 72
    14
 73
    10
 74
     0
 42
0.00000001
 43
0.00000001
 40
0.0
 40
0.0
 40
0.0
 40
0.0
 40
0.1416418592737026
 40
0.2832827544648179
 40
0.4250451509087888
 40
0.5668053210537427
 40
0.6750778940077848
 40
0.7833514471234173
 40
1.0
 40
1.0
 40
1.0
 40
1.0
 10
356.4959999999987
 20
481.8904475674445
 30
0.0
 10
370.1788766832363
 20
481.8553711467933
 30
0.0
 10
397.5445369174748
 20
481.7852185442381
 30
0.0
 10
438.6319788341239
 20
481.7129415197255
 30
0.0
 10
479.7460711628829
 20
481.6707953618538
 30
0.0
 10
517.6419518520294
 20
481.6688906853399
 30
0.0
 10
552.2921334169953
 20
481.6992043441138
 30
0.0
 10
594.1743177836448
 20
481.7604380545959
 30
0.0
 10
625.5653669411136
 20
481.8384388916464
 30
0.0
 10
646.4959999999988
 20
481.8904475674445
 30
0.0
  0
SPLINE
  5
A5
330
1F
100
AcDbEntity
  8
0
  6
Continuous
 62
     7
370
    25
100
AcDbSpline
210
0.0
220
0.0
230
1.0
 70
     8
 71
     3
 72
    15
 73
    11
 74
     0
 42
0.00000001
 43
0.00000001
 40
0.0
 40
0.0
 40
0.0
 40
0.0
 40
0.1203969716547335
 40
0.2407933190589451
 40
0.3612955072028615
 40
0.4817982483628453
 40
0.6113057324163225
 40
0.7408138661147202
 40
0.870406823747335
 40
1.0
 40
1.0
 40
1.0
 40
1.0
 10
663.5695035728273
 20
464.8061020093926
 30
0.0
 10
663.5505804673867
 20
451.3546077846123
 30
0.0
 10
663.5127343546201
 20
424.4516890801807
 30
0.0
 10
663.4943701443625
 20
384.0708753116422
 30
0.0
 10
663.5070627868569
 20
343.6783758336405
 30
0.0
 10
663.5528123180575
 20
302.275919867037
 30
0.0
 10
663.6308944711191
 20
259.8839503231554
 30
0.0
 10
663.7417461301088
 20
216.5019483604503
 30
0.0
 10
663.8787679256202
 20
173.137036370677
 30
0.0
 10
663.9928866040566
 20
144.2510202452174
 30
0.0
 10
664.0499459914038
 20
129.8080000000026
 30
0.0
  0
LINE
  5
A6
330
1F
100
AcDbEntity
  8
0
  6
Continuous
 62
     7
370
    25
100
AcDbLine
 10
663.5784475674
 20
464.808
 30
0.0
 11
663.5695035728
 21
464.8061020094
 31
0.0
  0
LINE
  5
A7
330
1F
100
AcDbEntity
  8
0
  6
Continuous
 62
     7
370
    25
100
AcDbLine
 10
478.246
 20
486.8810853458
 30
0.0
 11
478.246
 21
487.6799889736
 31
0.0
  0
ARC
  5
A8
330
1F
100
AcDbEntity
  8
0
  6
Continuous
 62
     7
370
    25
100
AcDbCircle
 10
477.9966847631
 20
492.4960715931
 30
0.0
 40
4.822531481003135
100
AcDbArc
 50
261.0448095014
 51
272.9633983003
  0
LINE
  5
A9
330
1F
100
AcDbEntity
  8
0
  6
Continuous
 62
     7
370
    25
100
AcDbLine
 10
524.746
 20
486.8810853458
 30
0.0
 11
524.746
 21
487.6799889736
 31
0.0
  0
ARC
  5
AA
330
1F
100
AcDbEntity
  8
0
  6
Continuous
 62
     7
370
    25
100
AcDbCircle
 10
524.9953152369
 20
492.4960715931
 30
0.0
 40
4.82253148100682
100
AcDbArc
 50
267.0366016998
 51
278.9551904986
  0
LINE
  5
AB
330
1F
100
AcDbEntity
  8
0
  6
Continuous
 62
     7
370
    25
100
AcDbLine
 10
478.246
 20
487.6799889736
 30
0.0
 11
524.746
 21
487.6799889736
 31
0.0
  0
LINE
  5
AC
330
1F
100
AcDbEntity
  8
0
  6
Continuous
 62
     7
370
    25
100
AcDbLine
 10
338.9420540086
 20
129.808
 30
0.0
 11
338.9988730607
 21
129.762495513
 31
0.0
  0
SPLINE
  5
AD
330
1F
100
AcDbEntity
  8
0
  6
Continuous
 62
     7
370
    25
100
AcDbSpline
210
0.0
220
0.0
230
1.0
 70
     8
 71
     3
 72
    20
 73
    16
 74
     0
 42
0.00000001
 43
0.00000001
 40
0.0
 40
0.0
 40
0.0
 40
0.0
 40
0.1238994817808226
 40
0.2498468348127874
 40
0.3327161568940997
 40
0.4158493426865203
 40
0.5003138827337009
 40
0.5610643330988702
 40
0.6244975982562699
 40
0.6852560657042482
 40
0.7501883124678864
 40
0.8087829264722685
 40
0.8744877433555925
 40
0.9261458689734473
 40
1.0
 40
1.0
 40
1.0
 40
1.0
 10
339.4224964271856
 20
464.8061020000519
 30
0.0
 10
339.5884810486293
 20
464.7999534607453
 30
0.0
 10
339.923193766546
 20
464.7875547560664
 30
0.0
 10
341.3458024580046
 20
464.4426927803021
 30
0.0
 10
343.0507660420583
 20
463.9771405833574
 30
0.0
 10
344.8393816117135
 20
463.4603364992844
 30
0.0
 10
346.7284214144645
 20
462.8930601423269
 30
0.0
 10
348.6328268388865
 20
462.306475930312
 30
0.0
 10
350.4413114159831
 20
461.7400165885944
 30
0.0
 10
352.3967378668206
 20
461.1181473547247
 30
0.0
 10
354.3918367357135
 20
460.4766652242486
 30
0.0
 10
356.5131545778019
 20
459.7873325276934
 30
0.0
 10
358.541256712021
 20
459.1243851434326
 30
0.0
 10
360.7833669424365
 20
458.3861713776757
 30
0.0
 10
362.277481186073
 20
457.8931293255849
 30
0.0
 10
363.1566503769417
 20
457.6030127004025
 30
0.0
  0
SPLINE
  5
AE
330
1F
100
AcDbEntity
  8
0
  6
Continuous
 62
     7
370
    25
100
AcDbSpline
210
0.0
220
0.0
230
1.0
 70
     8
 71
     3
 72
    14
 73
    10
 74
     0
 42
0.00000001
 43
0.00000001
 40
0.0
 40
0.0
 40
0.0
 40
0.0
 40
0.1285392505246245
 40
0.2736230611079024
 40
0.4187183190146121
 40
0.5638047450221955
 40
0.7092001461728282
 40
0.8546029035485716
 40
1.0
 40
1.0
 40
1.0
 40
1.0
 10
363.1566503769417
 20
457.6030127004026
 30
0.0
 10
363.1579836489365
 20
443.7875152897515
 30
0.0
 10
363.1608218011974
 20
414.378298441187
 30
0.0
 10
363.1620262416715
 20
369.3589205801234
 30
0.0
 10
363.1652705215478
 20
322.5654853658197
 30
0.0
 10
363.1503365792893
 20
275.7541281230873
 30
0.0
 10
363.0964280642906
 20
228.9364625363517
 30
0.0
 10
363.0023355058752
 20
182.1147578936933
 30
0.0
 10
362.9054647997813
 20
150.9339363137441
 30
0.0
 10
362.8570303896125
 20
135.3438290181983
 30
0.0
  0
SPLINE
  5
AF
330
1F
100
AcDbEntity
  8
0
  6
Continuous
 62
     7
370
    25
100
AcDbSpline
210
0.0
220
0.0
230
1.0
 70
     8
 71
     3
 72
    17
 73
    13
 74
     0
 42
0.00000001
 43
0.00000001
 40
0.0
 40
0.0
 40
0.0
 40
0.0
 40
0.1266199350159332
 40
0.2500906723957796
 40
0.3749952093690983
 40
0.5003472215493809
 40
0.6244895802648516
 40
0.75008563539753
 40
0.8087095798011511
 40
0.8744284842896023
 40
0.9260769690972782
 40
1.0
 40
1.0
 40
1.0
 40
1.0
 10
338.9988730606798
 20
129.7624955129788
 30
0.0
 10
339.2161762087744
 20
129.7032642950639
 30
0.0
 10
339.6453779013348
 20
129.5862750144
 30
0.0
 10
341.3368854533756
 20
129.7565933884672
 30
0.0
 10
343.6974725980513
 20
130.1698803804485
 30
0.0
 10
346.7221557187721
 20
130.8372571081387
 30
0.0
 10
350.2731349615246
 20
131.7241151845947
 30
0.0
 10
353.5280929885035
 20
132.6068612654703
 30
0.0
 10
356.2983777443685
 20
133.3928320270716
 30
0.0
 10
358.3020908959688
 20
133.9751777255901
 30
0.0
 10
360.5157133718462
 20
134.6325864696784
 30
0.0
 10
361.9894515349731
 20
135.0802769272507
 30
0.0
 10
362.8570303896125
 20
135.3438290182065
 30
0.0
  0
SPLINE
  5
B0
330
1F
100
AcDbEntity
  8
0
  6
Continuous
 62
     7
370
    25
100
AcDbSpline
210
0.0
220
0.0
230
1.0
 70
     8
 71
     3
 72
    20
 73
    16
 74
     0
 42
0.00000001
 43
0.00000001
 40
0.0
 40
0.0
 40
0.0
 40
0.0
 40
0.1265688428652102
 40
0.2499873607253525
 40
0.33275988064489
 40
0.4158800365020203
 40
0.5003308538271412
 40
0.5611043053137721
 40
0.6245378460982857
 40
0.6852967388849942
 40
0.7501963666869352
 40
0.8087939128917634
 40
0.8744838204705035
 40
0.9261733936587783
 40
1.0
 40
1.0
 40
1.0
 40
1.0
 10
356.5001762692456
 20
112.2669415518521
 30
0.0
 10
356.4918426355562
 20
112.4328300372287
 30
0.0
 10
356.4753827940654
 20
112.7604780088406
 30
0.0
 10
356.7543986160122
 20
114.1374418300875
 30
0.0
 10
357.1428168156368
 20
115.765826318228
 30
0.0
 10
357.5877713014821
 20
117.4908785320057
 30
0.0
 10
358.0835359086944
 20
119.3169745354948
 30
0.0
 10
358.6013479765111
 20
121.1616968953957
 30
0.0
 10
359.1049634081119
 20
122.9167698131626
 30
0.0
 10
359.6611380434175
 20
124.8175003119383
 30
0.0
 10
360.2381364097744
 20
126.7606296568027
 30
0.0
 10
360.8613705568131
 20
128.8307090976459
 30
0.0
 10
361.4640059140048
 20
130.8146596703235
 30
0.0
 10
362.1377800178382
 20
133.0117273456396
 30
0.0
 10
362.5906559942424
 20
134.4801350983223
 30
0.0
 10
362.8570303896128
 20
135.3438290181983
 30
0.0
  0
SPLINE
  5
B1
330
1F
100
AcDbEntity
  8
0
  6
Continuous
 62
     7
370
    25
100
AcDbSpline
210
0.0
220
0.0
230
1.0
 70
     8
 71
     3
 72
    13
 73
     9
 74
     0
 42
0.00000001
 43
0.00000001
 40
0.0
 40
0.0
 40
0.0
 40
0.0
 40
0.1532153516038963
 40
0.3335117285126596
 40
0.5138077669700616
 40
0.6942879125043367
 40
0.874768442096907
 40
1.0
 40
1.0
 40
1.0
 40
1.0
 10
362.8570303896125
 20
135.3438290181983
 30
0.0
 10
377.0115055234051
 20
135.364117380497
 30
0.0
 10
407.8222788476402
 20
135.4082801011911
 30
0.0
 10
455.3175676930959
 20
135.4408626319468
 30
0.0
 10
505.3430420134911
 20
135.4510517747136
 30
0.0
 10
555.3845711732228
 20
135.4371594433561
 30
0.0
 10
600.324373605511
 20
135.402133502205
 30
0.0
 10
628.5660718856541
 20
135.3607722112187
 30
0.0
 10
640.1349696103853
 20
135.3438290181983
 30
0.0
  0
SPLINE
  5
B2
330
1F
100
AcDbEntity
  8
0
  6
Continuous
 62
     7
370
    25
100
AcDbSpline
210
0.0
220
0.0
230
1.0
 70
     8
 71
     3
 72
    17
 73
    13
 74
     0
 42
0.00000001
 43
0.00000001
 40
0.0
 40
0.0
 40
0.0
 40
0.0
 40
0.1266242002821652
 40
0.2500966973960825
 40
0.3750011391746821
 40
0.5003518892706039
 40
0.6244925771319261
 40
0.7500871058679407
 40
0.8087091135100993
 40
0.8744289188915387
 40
0.9261485744346063
 40
1.0
 40
1.0
 40
1.0
 40
1.0
 10
646.4918237243653
 20
112.2669415518676
 30
0.0
 10
646.5000889315727
 20
112.4330628107577
 30
0.0
 10
646.5164136232291
 20
112.7611705352145
 30
0.0
 10
646.2031143076696
 20
114.3088553766835
 30
0.0
 10
645.6593350010774
 20
116.5380751428613
 30
0.0
 10
644.877680765275
 20
119.4476150251957
 30
0.0
 10
643.8959877773358
 20
122.9029643539757
 30
0.0
 10
642.9534257185088
 20
126.097514556795
 30
0.0
 10
642.1306762314236
 20
128.8306095159798
 30
0.0
 10
641.5279630700472
 20
130.8147485602987
 30
0.0
 10
640.8541978540263
 20
133.0118087651971
 30
0.0
 10
640.4013188403978
 20
134.4802202761161
 30
0.0
 10
640.1349696103853
 20
135.3438290181984
 30
0.0
  0
SPLINE
  5
B3
330
1F
100
AcDbEntity
  8
0
  6
Continuous
 62
     7
370
    25
100
AcDbSpline
210
0.0
220
0.0
230
1.0
 70
     8
 71
     3
 72
    19
 73
    15
 74
     0
 42
0.00000001
 43
0.00000001
 40
0.0
 40
0.0
 40
0.0
 40
0.0
 40
0.0609285033155397
 40
0.1075851967377193
 40
0.152697377683947
 40
0.2035645507327382
 40
0.2498915470303138
 40
0.3355022901934815
 40
0.4181341588157981
 40
0.4997559269722094
 40
0.6250820973863698
 40
0.7499608846711032
 40
0.8734061679748591
 40
1.0
 40
1.0
 40
1.0
 40
1.0
 10
640.1349696103853
 20
135.3438290181983
 30
0.0
 10
640.8502165454961
 20
135.1263181188513
 30
0.0
 10
642.1131719447361
 20
134.7422457779034
 30
0.0
 10
643.886855883529
 20
134.2131400403511
 30
0.0
 10
645.5246403662595
 20
133.7317716435101
 30
0.0
 10
647.1320440760265
 20
133.2681369632358
 30
0.0
 10
649.1521013078321
 20
132.6965648527815
 30
0.0
 10
651.4406164714258
 20
132.069639252801
 30
0.0
 10
653.9415674048661
 20
131.4170954464228
 30
0.0
 10
656.6124231512293
 20
130.7617104012137
 30
0.0
 10
659.2947776162695
 20
130.1698124112824
 30
0.0
 10
661.655048836605
 20
129.7566113232266
 30
0.0
 10
663.3466389347891
 20
129.5862704756829
 30
0.0
 10
663.7758294499899
 20
129.7032627736948
 30
0.0
 10
663.9931269392913
 20
129.7624955193525
 30
0.0
  0
SPLINE
  5
B4
330
1F
100
AcDbEntity
  8
0
  6
Continuous
 62
     7
370
    25
100
AcDbSpline
210
0.0
220
0.0
230
1.0
 70
     8
 71
     3
 72
    15
 73
    11
 74
     0
 42
0.00000001
 43
0.00000001
 40
0.0
 40
0.0
 40
0.0
 40
0.0
 40
0.129794187354171
 40
0.2595881683953802
 40
0.3894568310387369
 40
0.5193249251085721
 40
0.6394460709200768
 40
0.7595667430326072
 40
0.8797831318606988
 40
1.0
 40
1.0
 40
1.0
 40
1.0
 10
640.1349696103853
 20
135.3438290181983
 30
0.0
 10
640.0912401433578
 20
149.260591972609
 30
0.0
 10
640.0037812788131
 20
177.0940957601885
 30
0.0
 10
639.9130387217314
 20
218.8933807003189
 30
0.0
 10
639.8556087590343
 20
260.7248554539544
 30
0.0
 10
639.8317870040097
 20
301.5400761819972
 30
0.0
 10
639.8305639581829
 20
341.3228534440348
 30
0.0
 10
639.8347782721531
 20
380.0759288245787
 30
0.0
 10
639.8296508487292
 20
418.8402465328128
 30
0.0
 10
639.8334500290892
 20
444.6820734723761
 30
0.0
 10
639.835349623056
 20
457.6030127004025
 30
0.0
  0
SPLINE
  5
B5
330
1F
100
AcDbEntity
  8
0
  6
Continuous
 62
     7
370
    25
100
AcDbSpline
210
0.0
220
0.0
230
1.0
 70
     8
 71
     3
 72
    19
 73
    15
 74
     0
 42
0.00000001
 43
0.00000001
 40
0.0
 40
0.0
 40
0.0
 40
0.0
 40
0.0608916764531292
 40
0.1075592781701928
 40
0.152703816905354
 40
0.2035793155923099
 40
0.2499014344020636
 40
0.3355488354048997
 40
0.4181785294456966
 40
0.4997722410757716
 40
0.625090027330525
 40
0.75009272261255
 40
0.8760709826323866
 40
1.0
 40
1.0
 40
1.0
 40
1.0
 10
639.835349623056
 20
457.6030127004025
 30
0.0
 10
640.5600906030963
 20
457.8422206046702
 30
0.0
 10
641.8402756992239
 20
458.2647583144906
 30
0.0
 10
643.6371265408098
 20
458.8566302505219
 30
0.0
 10
645.2958119576086
 20
459.4008416570537
 30
0.0
 10
646.9222497370052
 20
459.9315523430589
 30
0.0
 10
648.9642013963507
 20
460.5944040439942
 30
0.0
 10
651.2738464614724
 20
461.3359131855055
 30
0.0
 10
653.7907785231118
 20
462.1305747435098
 30
0.0
 10
656.468295363243
 20
462.9577573575908
 30
0.0
 10
659.1399846989196
 20
463.7536872570268
 30
0.0
 10
661.469006898195
 20
464.3998923673399
 30
0.0
 10
663.068111606469
 20
464.7873467758081
 30
0.0
 10
663.4032890704406
 20
464.7998845347888
 30
0.0
 10
663.5695035728273
 20
464.8061020093926
 30
0.0
  0
LINE
  5
B6
330
1F
100
AcDbEntity
  8
0
  6
Continuous
 62
     7
370
    25
100
AcDbLine
 10
663.9931269393
 20
129.7624955194
 30
0.0
 11
664.0499459914
 21
129.808
 31
0.0
  0
SPLINE
  5
B7
330
1F
100
AcDbEntity
  8
0
  6
Continuous
 62
     7
370
    25
100
AcDbSpline
210
0.0
220
0.0
230
1.0
 70
     8
 71
     3
 72
    15
 73
    11
 74
     0
 42
0.00000001
 43
0.00000001
 40
0.0
 40
0.0
 40
0.0
 40
0.0
 40
0.1250485637390568
 40
0.2500560404331598
 40
0.3750352282041689
 40
0.5000000004149742
 40
0.6249647726227966
 40
0.7499439603618198
 40
0.8749514375442704
 40
1.0
 40
1.0
 40
1.0
 40
1.0
 10
356.5001762692451
 20
112.2669415518525
 30
0.0
 10
355.3592601704835
 20
112.3366186703804
 30
0.0
 10
353.0778028422881
 20
112.4759500137156
 30
0.0
 10
349.7860846836419
 20
113.5233449210028
 30
0.0
 10
346.7503032063925
 20
115.1430907486487
 30
0.0
 10
344.0871917565689
 20
117.3344980654267
 30
0.0
 10
341.8938395600516
 20
119.9979590337039
 30
0.0
 10
340.2698805493797
 20
123.0364229583268
 30
0.0
 10
339.2163061533978
 20
126.332893162106
 30
0.0
 10
339.0713586967474
 20
128.619169514371
 30
0.0
 10
338.9988730606798
 20
129.7624955129788
 30
0.0
  0
SPLINE
  5
B8
330
1F
100
AcDbEntity
  8
0
  6
Continuous
 62
     7
370
    25
100
AcDbSpline
210
0.0
220
0.0
230
1.0
 70
     8
 71
     3
 72
    15
 73
    11
 74
     0
 42
0.00000001
 43
0.00000001
 40
0.0
 40
0.0
 40
0.0
 40
0.0
 40
0.1250485647648279
 40
0.2500560396443414
 40
0.3750352273637311
 40
0.4999999995579321
 40
0.6249647717823639
 40
0.7499439595730012
 40
0.8749514385700529
 40
1.0
 40
1.0
 40
1.0
 40
1.0
 10
646.491823724368
 20
112.2669415518676
 30
0.0
 10
647.6327398329564
 20
112.33661867144
 30
0.0
 10
649.9141971548905
 20
112.4759500152811
 30
0.0
 10
653.2059153064296
 20
113.5233449207854
 30
0.0
 10
656.2416967716624
 20
115.143090736972
 30
0.0
 10
658.9048082249593
 20
117.3344980506956
 30
0.0
 10
661.09816042611
 20
119.9979590174184
 30
0.0
 10
662.7221194494265
 20
123.0364229562636
 30
0.0
 10
663.7756938479719
 20
126.332893169557
 30
0.0
 10
663.9206413042389
 20
128.6191695297603
 30
0.0
 10
663.9931269392914
 20
129.7624955193526
 30
0.0
  0
LINE
  5
B9
330
1F
100
AcDbEntity
  8
0
  6
Continuous
 62
     7
370
    25
100
AcDbLine
 10
356.4768041638
 20
481.8563631587
 30
0.0
 11
356.496
 21
481.8904475674
 31
0.0
  0
LINE
  5
BA
330
1F
100
AcDbEntity
  8
0
  6
Continuous
 62
     7
370
    25
100
AcDbLine
 10
646.5151958455
 20
481.8563631587
 30
0.0
 11
646.496
 21
481.8904475674
 31
0.0
  0
SPLINE
  5
BB
330
1F
100
AcDbEntity
  8
0
  6
Continuous
 62
     7
370
    25
100
AcDbSpline
210
0.0
220
0.0
230
1.0
 70
     8
 71
     3
 72
    19
 73
    15
 74
     0
 42
0.00000001
 43
0.00000001
 40
0.0
 40
0.0
 40
0.0
 40
0.0
 40
0.0571951907011247
 40
0.1012386229203428
 40
0.1527044771278955
 40
0.2035799468192278
 40
0.2499049111694456
 40
0.3355521358503265
 40
0.4181835141861048
 40
0.4997809440829034
 40
0.625100831480302
 40
0.7501036376053276
 40
0.8760744652838687
 40
1.0
 40
1.0
 40
1.0
 40
1.0
 10
639.835349623056
 20
457.6030127004025
 30
0.0
 10
640.0585898012847
 20
458.2850858734369
 30
0.0
 10
640.4537371545377
 20
459.4923927802316
 30
0.0
 10
641.0382935409992
 20
461.2984698000885
 30
0.0
 10
641.5873920505319
 20
463.0115780404157
 30
0.0
 10
642.1289206368208
 20
464.7224544524432
 30
0.0
 10
642.7729730365593
 20
466.7826019315706
 30
0.0
 10
643.4876117271934
 20
469.1184907714515
 30
0.0
 10
644.2442077927924
 20
471.6729074938551
 30
0.0
 10
645.0201195146377
 20
474.40121374155
 30
0.0
 10
645.7476394905178
 20
477.1410164106595
 30
0.0
 10
646.305436575719
 20
479.5584287565946
 30
0.0
 10
646.5968981627963
 20
481.2538890010294
 30
0.0
 10
646.5422809452155
 20
481.6566372124147
 30
0.0
 10
646.5151958455024
 20
481.8563631586974
 30
0.0
  0
SPLINE
  5
BC
330
1F
100
AcDbEntity
  8
0
  6
Continuous
 62
     7
370
    25
100
AcDbSpline
210
0.0
220
0.0
230
1.0
 70
     8
 71
     3
 72
    14
 73
    10
 74
     0
 42
0.00000001
 43
0.00000001
 40
0.0
 40
0.0
 40
0.0
 40
0.0
 40
0.214532213421905
 40
0.3218404806755493
 40
0.4291479606400776
 40
0.5717931378587127
 40
0.7144401314222913
 40
0.8572195843739369
 40
1.0
 40
1.0
 40
1.0
 40
1.0
 10
639.835349623056
 20
457.6030127004025
 30
0.0
 10
620.0603474259353
 20
457.5827092112006
 30
0.0
 10
590.3939578848689
 20
457.5522499872925
 30
0.0
 10
550.8096255031492
 20
457.5868775687677
 30
0.0
 10
517.8489367425378
 20
457.628671848898
 30
0.0
 10
481.6215377199062
 20
457.6213505597779
 30
0.0
 10
442.1286483744062
 20
457.5725841509104
 30
0.0
 10
402.6366402913332
 20
457.5585828716146
 30
0.0
 10
376.3166765915388
 20
457.5882027241886
 30
0.0
 10
363.1566503769417
 20
457.6030127004025
 30
0.0
  0
SPLINE
  5
BD
330
1F
100
AcDbEntity
  8
0
  6
Continuous
 62
     7
370
    25
100
AcDbSpline
210
0.0
220
0.0
230
1.0
 70
     8
 71
     3
 72
    19
 73
    15
 74
     0
 42
0.00000001
 43
0.00000001
 40
0.0
 40
0.0
 40
0.0
 40
0.0
 40
0.0572170919384312
 40
0.1012397191517093
 40
0.1527050890721181
 40
0.2035808683506711
 40
0.2499049067935504
 40
0.3355531512428729
 40
0.4181845737194116
 40
0.4997809419083337
 40
0.6251008305048592
 40
0.7501036373913963
 40
0.8760750143916405
 40
1.0
 40
1.0
 40
1.0
 40
1.0
 10
363.1566503769417
 20
457.6030127004025
 30
0.0
 10
362.9333254409079
 20
458.2853472909687
 30
0.0
 10
362.5381750926875
 20
459.492667690802
 30
0.0
 10
361.9536173445887
 20
461.2987462210275
 30
0.0
 10
361.4045985747494
 20
463.0116089027754
 30
0.0
 10
360.8630736619999
 20
464.7224719328278
 30
0.0
 10
360.2190206229267
 20
466.7826235704658
 30
0.0
 10
359.5043810401529
 20
469.118513117365
 30
0.0
 10
358.7477870600437
 20
471.672927801596
 30
0.0
 10
357.9718781076367
 20
474.4012224684048
 30
0.0
 10
357.2443609056755
 20
477.1410164495068
 30
0.0
 10
356.6865621454423
 20
479.5584322818175
 30
0.0
 10
356.3951038990781
 20
481.2538909435812
 30
0.0
 10
356.449719824797
 20
481.6566384480827
 30
0.0
 10
356.4768041638328
 20
481.8563631586713
 30
0.0
  0
SPLINE
  5
BE
330
1F
100
AcDbEntity
  8
0
  6
Continuous
 62
     7
370
    25
100
AcDbSpline
210
0.0
220
0.0
230
1.0
 70
     8
 71
     3
 72
    15
 73
    11
 74
     0
 42
0.00000001
 43
0.00000001
 40
0.0
 40
0.0
 40
0.0
 40
0.0
 40
0.1250258700962916
 40
0.250029866812246
 40
0.3750187806357305
 40
0.499999999559928
 40
0.6249812185054339
 40
0.7499701323940426
 40
0.8749741324286358
 40
1.0
 40
1.0
 40
1.0
 40
1.0
 10
663.5695035728273
 20
464.8061020093978
 30
0.0
 10
663.5021916742478
 20
465.9188650785357
 30
0.0
 10
663.3675796533616
 20
468.1441965379838
 30
0.0
 10
662.3475363710027
 20
471.3548384902226
 30
0.0
 10
660.7687320993059
 20
474.3155121913826
 30
0.0
 10
658.6318820946901
 20
476.9118315987137
 30
0.0
 10
656.0344278630455
 20
479.048693097167
 30
0.0
 10
653.0714929549642
 20
480.6286809235835
 30
0.0
 10
649.8576187697178
 20
481.6509518205825
 30
0.0
 10
647.6294017799694
 20
481.7878887205058
 30
0.0
 10
646.5151958455024
 20
481.8563631586973
 30
0.0
  0
SPLINE
  5
BF
330
1F
100
AcDbEntity
  8
0
  6
Continuous
 62
     7
370
    25
100
AcDbSpline
210
0.0
220
0.0
230
1.0
 70
     8
 71
     3
 72
    15
 73
    11
 74
     0
 42
0.00000001
 43
0.00000001
 40
0.0
 40
0.0
 40
0.0
 40
0.0
 40
0.1250258690640295
 40
0.2500298676061405
 40
0.3750187814816455
 40
0.5000000004225784
 40
0.6249812193513488
 40
0.7499701331879431
 40
0.8749741313963791
 40
1.0
 40
1.0
 40
1.0
 40
1.0
 10
339.4224964271855
 20
464.806102000052
 30
0.0
 10
339.4898083248066
 20
465.9188650605582
 30
0.0
 10
339.6244203453148
 20
468.1441965281837
 30
0.0
 10
340.6444636303527
 20
471.3548384903313
 30
0.0
 10
342.2232679147363
 20
474.3155122059798
 30
0.0
 10
344.3601179243034
 20
476.9118316122623
 30
0.0
 10
346.957572159843
 20
479.0486931081085
 30
0.0
 10
349.9205070566696
 20
480.6286809235669
 30
0.0
 10
353.1343812355102
 20
481.6509518189972
 30
0.0
 10
355.3625982195055
 20
481.7878887194381
 30
0.0
 10
356.4768041638328
 20
481.8563631586713
 30
0.0
  0
CIRCLE
  5
C0
330
1F
100
AcDbEntity
  8
0
  6
Continuous
 62
     7
370
    25
100
AcDbCircle
 10
501.496
 20
379.808
 30
0.0
 40
70.0
  0
CIRCLE
  5
C1
330
1F
100
AcDbEntity
  8
0
  6
Continuous
 62
     7
370
    25
100
AcDbCircle
 10
501.496
 20
379.808
 30
0.0
 40
58.94765075494627
  0
CIRCLE
  5
C2
330
1F
100
AcDbEntity
  8
0
  6
Continuous
 62
     7
370
    25
100
AcDbCircle
 10
501.496
 20
379.808
 30
0.0
 40
57.5
  0
CIRCLE
  5
C3
330
1F
100
AcDbEntity
  8
0
  6
Continuous
 62
     7
370
    25
100
AcDbCircle
 10
501.496
 20
379.808
 30
0.0
 40
56.58715574274765
  0
CIRCLE
  5
C4
330
1F
100
AcDbEntity
  8
0
  6
Continuous
 62
     7
370
    25
100
AcDbCircle
 10
501.496
 20
379.808
 30
0.0
 40
45.0
  0
ARC
  5
C5
330
1F
100
AcDbEntity
  8
0
  6
Continuous
 62
     7
370
    25
100
AcDbCircle
 10
101.496
 20
577.808
 30
0.0
 40
10.00000000000001
100
AcDbArc
 50
90.0
 51
180.0
  0
LINE
  5
C6
330
1F
100
AcDbEntity
  8
0
  6
Continuous
 62
     7
370
    25
100
AcDbLine
 10
697.496
 20
587.808
 30
0.0
 11
101.496
 21
587.808
 31
0.0
  0
ARC
  5
C7
330
1F
100
AcDbEntity
  8
0
  6
Continuous
 62
     7
370
    25
100
AcDbCircle
 10
697.496
 20
577.808
 30
0.0
 40
10.0
100
AcDbArc
 50
0.0
 51
90.0
  0
LINE
  5
C8
330
1F
100
AcDbEntity
  8
0
  6
Continuous
 62
     7
370
    25
100
AcDbLine
 10
707.496
 20
77.808
 30
0.0
 11
707.496
 21
577.808
 31
0.0
  0
ARC
  5
C9
330
1F
100
AcDbEntity
  8
0
  6
Continuous
 62
     7
370
    25
100
AcDbCircle
 10
697.496
 20
77.808
 30
0.0
 40
10.0
100
AcDbArc
 50
270.0
 51
0.0
  0
LINE
  5
CA
330
1F
100
AcDbEntity
  8
0
  6
Continuous
 62
     7
370
    25
100
AcDbLine
 10
101.496
 20
67.808
 30
0.0
 11
697.496
 21
67.808
 31
0.0
  0
ARC
  5
CB
330
1F
100
AcDbEntity
  8
0
  6
Continuous
 62
     7
370
    25
100
AcDbCircle
 10
101.496
 20
77.808
 30
0.0
 40
10.00000000000001
100
AcDbArc
 50
180.0
 51
270.0
  0
LINE
  5
CC
330
1F
100
AcDbEntity
  8
0
  6
Continuous
 62
     7
370
    25
100
AcDbLine
 10
91.496
 20
577.808
 30
0.0
 11
91.496
 21
77.808
 31
0.0
  0
LINE
  5
CD
330
1F
100
AcDbEntity
  8
0
  6
Continuous
 62
     7
370
    25
100
AcDbLine
 10
689.496
 20
327.808
 30
0.0
 11
689.496
 21
546.808
 31
0.0
  0
ARC
  5
CE
330
1F
100
AcDbEntity
  8
0
  6
Continuous
 62
     7
370
    25
100
AcDbCircle
 10
666.496
 20
546.808
 30
0.0
 40
23.0
100
AcDbArc
 50
0.0
 51
90.0
  0
LINE
  5
CF
330
1F
100
AcDbEntity
  8
0
  6
Continuous
 62
     7
370
    25
100
AcDbLine
 10
666.496
 20
569.808
 30
0.0
 11
132.496
 21
569.808
 31
0.0
  0
ARC
  5
D0
330
1F
100
AcDbEntity
  8
0
  6
Continuous
 62
     7
370
    25
100
AcDbCircle
 10
132.496
 20
546.808
 30
0.0
 40
23.0
100
AcDbArc
 50
90.0
 51
180.0
  0
LINE
  5
D1
330
1F
100
AcDbEntity
  8
0
  6
Continuous
 62
     7
370
    25
100
AcDbLine
 10
109.496
 20
546.808
 30
0.0
 11
109.496
 21
108.808
 31
0.0
  0
ARC
  5
D2
330
1F
100
AcDbEntity
  8
0
  6
Continuous
 62
     7
370
    25
100
AcDbCircle
 10
132.496
 20
108.808
 30
0.0
 40
23.00000000000001
100
AcDbArc
 50
180.0
 51
270.0
  0
LINE
  5
D3
330
1F
100
AcDbEntity
  8
0
  6
Continuous
 62
     7
370
    25
100
AcDbLine
 10
132.496
 20
85.808
 30
0.0
 11
666.496
 21
85.808
 31
0.0
  0
ARC
  5
D4
330
1F
100
AcDbEntity
  8
0
  6
Continuous
 62
     7
370
    25
100
AcDbCircle
 10
666.496
 20
108.808
 30
0.0
 40
23.00000000000001
100
AcDbArc
 50
270.0
 51
0.0
  0
LINE
  5
D5
330
1F
100
AcDbEntity
  8
0
  6
Continuous
 62
     7
370
    25
100
AcDbLine
 10
689.496
 20
108.808
 30
0.0
 11
689.496
 21
327.808
 31
0.0
  0
LINE
  5
D6
330
1F
100
AcDbEntity
  8
0
  6
Continuous
 62
     7
370
    25
100
AcDbLine
 10
689.496
 20
108.808
 30
0.0
 11
688.7298744107
 21
108.808
 31
0.0
  0
LINE
  5
D7
330
1F
100
AcDbEntity
  8
0
  6
Continuous
 62
     7
370
    25
100
AcDbLine
 10
688.7298744107
 20
108.808
 30
0.0
 11
688.7298744107
 21
327.808
 31
0.0
  0
LINE
  5
D8
330
1F
100
AcDbEntity
  8
0
  6
Continuous
 62
     7
370
    25
100
AcDbLine
 10
689.496
 20
327.808
 30
0.0
 11
688.7298744107
 21
327.808
 31
0.0
  0
LINE
  5
D9
330
1F
100
AcDbEntity
  8
0
  6
Continuous
 62
     7
370
    25
100
AcDbLine
 10
689.496
 20
546.808
 30
0.0
 11
688.7298744107
 21
546.808
 31
0.0
  0
LINE
  5
DA
330
1F
100
AcDbEntity
  8
0
  6
Continuous
 62
     7
370
    25
100
AcDbLine
 10
688.7298744107
 20
327.808
 30
0.0
 11
688.7298744107
 21
546.808
 31
0.0
  0
LINE
  5
DB
330
1F
100
AcDbEntity
  8
0
  6
Continuous
 62
     7
370
    25
100
AcDbLine
 10
109.496
 20
546.808
 30
0.0
 11
110.2621255893
 21
546.808
 31
0.0
  0
LINE
  5
DC
330
1F
100
AcDbEntity
  8
0
  6
Continuous
 62
     7
370
    25
100
AcDbLine
 10
132.496
 20
569.808
 30
0.0
 11
132.496
 21
569.0418744107
 31
0.0
  0
ARC
  5
DD
330
1F
100
AcDbEntity
  8
0
  6
Continuous
 62
     7
370
    25
100
AcDbCircle
 10
132.496
 20
546.808
 30
0.0
 40
22.23387441067962
100
AcDbArc
 50
90.0
 51
180.0
  0
LINE
  5
DE
330
1F
100
AcDbEntity
  8
0
  6
Continuous
 62
     7
370
    25
100
AcDbLine
 10
666.496
 20
569.808
 30
0.0
 11
666.496
 21
569.0418744107
 31
0.0
  0
LINE
  5
DF
330
1F
100
AcDbEntity
  8
0
  6
Continuous
 62
     7
370
    25
100
AcDbLine
 10
666.496
 20
569.0418744107
 30
0.0
 11
132.496
 21
569.0418744107
 31
0.0
  0
ARC
  5
E0
330
1F
100
AcDbEntity
  8
0
  6
Continuous
 62
     7
370
    25
100
AcDbCircle
 10
666.496
 20
546.808
 30
0.0
 40
22.23387441067962
100
AcDbArc
 50
0.0
 51
90.0
  0
LINE
  5
E1
330
1F
100
AcDbEntity
  8
0
  6
Continuous
 62
     7
370
    25
100
AcDbLine
 10
109.496
 20
108.808
 30
0.0
 11
110.2621255893
 21
108.808
 31
0.0
  0
LINE
  5
E2
330
1F
100
AcDbEntity
  8
0
  6
Continuous
 62
     7
370
    25
100
AcDbLine
 10
110.2621255893
 20
546.808
 30
0.0
 11
110.2621255893
 21
108.808
 31
0.0
  0
LINE
  5
E3
330
1F
100
AcDbEntity
  8
0
  6
Continuous
 62
     7
370
    25
100
AcDbLine
 10
666.496
 20
85.808
 30
0.0
 11
666.496
 21
86.5741255893
 31
0.0
  0
ARC
  5
E4
330
1F
100
AcDbEntity
  8
0
  6
Continuous
 62
     7
370
    25
100
AcDbCircle
 10
666.496
 20
108.808
 30
0.0
 40
22.23387441067958
100
AcDbArc
 50
270.0
 51
0.0
  0
LINE
  5
E5
330
1F
100
AcDbEntity
  8
0
  6
Continuous
 62
     7
370
    25
100
AcDbLine
 10
132.496
 20
85.808
 30
0.0
 11
132.496
 21
86.5741255893
 31
0.0
  0
LINE
  5
E6
330
1F
100
AcDbEntity
  8
0
  6
Continuous
 62
     7
370
    25
100
AcDbLine
 10
132.496
 20
86.5741255893
 30
0.0
 11
666.496
 21
86.5741255893
 31
0.0
  0
ARC
  5
E7
330
1F
100
AcDbEntity
  8
0
  6
Continuous
 62
     7
370
    25
100
AcDbCircle
 10
132.496
 20
108.808
 30
0.0
 40
22.23387441067958
100
AcDbArc
 50
180.0
 51
270.0
  0
LINE
  5
E8
330
1F
100
AcDbEntity
  8
0
  6
Continuous
 62
     7
370
    25
100
AcDbLine
 10
110.2621255893
 20
108.808
 30
0.0
 11
111.2197350169
 21
108.808
 31
0.0
  0
LINE
  5
E9
330
1F
100
AcDbEntity
  8
0
  6
Continuous
 62
     7
370
    25
100
AcDbLine
 10
110.2621255893
 20
546.808
 30
0.0
 11
111.2197350169
 21
546.808
 31
0.0
  0
LINE
  5
EA
330
1F
100
AcDbEntity
  8
0
  6
Continuous
 62
     7
370
    25
100
AcDbLine
 10
111.2197350169
 20
546.808
 30
0.0
 11
111.2197350169
 21
108.808
 31
0.0
  0
LINE
  5
EB
330
1F
100
AcDbEntity
  8
0
  6
Continuous
 62
     7
370
    25
100
AcDbLine
 10
132.496
 20
569.0418744107
 30
0.0
 11
132.496
 21
568.0842649831
 31
0.0
  0
ARC
  5
EC
330
1F
100
AcDbEntity
  8
0
  6
Continuous
 62
     7
370
    25
100
AcDbCircle
 10
132.496
 20
546.808
 30
0.0
 40
21.27626498307336
100
AcDbArc
 50
90.0
 51
180.0
  0
LINE
  5
ED
330
1F
100
AcDbEntity
  8
0
  6
Continuous
 62
     7
370
    25
100
AcDbLine
 10
688.7298744107
 20
108.808
 30
0.0
 11
687.7722649831
 21
108.808
 31
0.0
  0
LINE
  5
EE
330
1F
100
AcDbEntity
  8
0
  6
Continuous
 62
     7
370
    25
100
AcDbLine
 10
666.496
 20
86.5741255893
 30
0.0
 11
666.496
 21
87.5317350169
 31
0.0
  0
ARC
  5
EF
330
1F
100
AcDbEntity
  8
0
  6
Continuous
 62
     7
370
    25
100
AcDbCircle
 10
666.496
 20
108.808
 30
0.0
 40
21.27626498307333
100
AcDbArc
 50
270.0
 51
0.0
  0
LINE
  5
F0
330
1F
100
AcDbEntity
  8
0
  6
Continuous
 62
     7
370
    25
100
AcDbLine
 10
687.7722649831
 20
108.808
 30
0.0
 11
687.7722649831
 21
327.808
 31
0.0
  0
LINE
  5
F1
330
1F
100
AcDbEntity
  8
0
  6
Continuous
 62
     7
370
    25
100
AcDbLine
 10
688.7298744107
 20
327.808
 30
0.0
 11
687.7722649831
 21
327.808
 31
0.0
  0
LINE
  5
F2
330
1F
100
AcDbEntity
  8
0
  6
Continuous
 62
     7
370
    25
100
AcDbLine
 10
666.496
 20
569.0418744107
 30
0.0
 11
666.496
 21
568.0842649831
 31
0.0
  0
LINE
  5
F3
330
1F
100
AcDbEntity
  8
0
  6
Continuous
 62
     7
370
    25
100
AcDbLine
 10
666.496
 20
568.0842649831
 30
0.0
 11
132.496
 21
568.0842649831
 31
0.0
  0
LINE
  5
F4
330
1F
100
AcDbEntity
  8
0
  6
Continuous
 62
     7
370
    25
100
AcDbLine
 10
688.7298744107
 20
546.808
 30
0.0
 11
687.7722649831
 21
546.808
 31
0.0
  0
LINE
  5
F5
330
1F
100
AcDbEntity
  8
0
  6
Continuous
 62
     7
370
    25
100
AcDbLine
 10
687.7722649831
 20
327.808
 30
0.0
 11
687.7722649831
 21
546.808
 31
0.0
  0
ARC
  5
F6
330
1F
100
AcDbEntity
  8
0
  6
Continuous
 62
     7
370
    25
100
AcDbCircle
 10
666.496
 20
546.808
 30
0.0
 40
21.27626498307336
100
AcDbArc
 50
0.0
 51
90.0
  0
LINE
  5
F7
330
1F
100
AcDbEntity
  8
0
  6
Continuous
 62
     7
370
    25
100
AcDbLine
 10
132.496
 20
86.5741255893
 30
0.0
 11
132.496
 21
87.5317350169
 31
0.0
  0
LINE
  5
F8
330
1F
100
AcDbEntity
  8
0
  6
Continuous
 62
     7
370
    25
100
AcDbLine
 10
132.496
 20
87.5317350169
 30
0.0
 11
666.496
 21
87.5317350169
 31
0.0
  0
ARC
  5
F9
330
1F
100
AcDbEntity
  8
0
  6
Continuous
 62
     7
370
    25
100
AcDbCircle
 10
132.496
 20
108.808
 30
0.0
 40
21.27626498307333
100
AcDbArc
 50
180.0
 51
270.0
  0
LINE
  5
FA
330
1F
100
AcDbEntity
  8
0
  6
Continuous
 62
     7
370
    25
100
AcDbLine
 10
687.7722649831
 20
546.808
 30
0.0
 11
682.4093858578
 21
546.808
 31
0.0
  0
LINE
  5
FB
330
1F
100
AcDbEntity
  8
0
  6
Continuous
 62
     7
370
    25
100
AcDbLine
 10
687.7722649831
 20
327.808
 30
0.0
 11
682.4093858578
 21
327.808
 31
0.0
  0
LINE
  5
FC
330
1F
100
AcDbEntity
  8
0
  6
Continuous
 62
     7
370
    25
100
AcDbLine
 10
682.4093858578
 20
327.808
 30
0.0
 11
682.4093858578
 21
546.808
 31
0.0
  0
LINE
  5
FD
330
1F
100
AcDbEntity
  8
0
  6
Continuous
 62
     7
370
    25
100
AcDbLine
 10
666.496
 20
87.5317350169
 30
0.0
 11
666.496
 21
92.8946141422
 31
0.0
  0
LINE
  5
FE
330
1F
100
AcDbEntity
  8
0
  6
Continuous
 62
     7
370
    25
100
AcDbLine
 10
132.496
 20
87.5317350169
 30
0.0
 11
132.496
 21
92.8946141422
 31
0.0
  0
LINE
  5
FF
330
1F
100
AcDbEntity
  8
0
  6
Continuous
 62
     7
370
    25
100
AcDbLine
 10
132.496
 20
92.8946141422
 30
0.0
 11
666.496
 21
92.8946141422
 31
0.0
  0
LINE
  5
100
330
1F
100
AcDbEntity
  8
0
  6
Continuous
 62
     7
370
    25
100
AcDbLine
 10
687.7722649831
 20
108.808
 30
0.0
 11
682.4093858578
 21
108.808
 31
0.0
  0
ARC
  5
101
330
1F
100
AcDbEntity
  8
0
  6
Continuous
 62
     7
370
    25
100
AcDbCircle
 10
666.496
 20
108.808
 30
0.0
 40
15.91338585783035
100
AcDbArc
 50
270.0
 51
0.0
  0
LINE
  5
102
330
1F
100
AcDbEntity
  8
0
  6
Continuous
 62
     7
370
    25
100
AcDbLine
 10
111.2197350169
 20
108.808
 30
0.0
 11
116.5826141422
 21
108.808
 31
0.0
  0
ARC
  5
103
330
1F
100
AcDbEntity
  8
0
  6
Continuous
 62
     7
370
    25
100
AcDbCircle
 10
132.496
 20
108.808
 30
0.0
 40
15.91338585783035
100
AcDbArc
 50
180.0
 51
270.0
  0
LINE
  5
104
330
1F
100
AcDbEntity
  8
0
  6
Continuous
 62
     7
370
    25
100
AcDbLine
 10
111.2197350169
 20
546.808
 30
0.0
 11
116.5826141422
 21
546.808
 31
0.0
  0
LINE
  5
105
330
1F
100
AcDbEntity
  8
0
  6
Continuous
 62
     7
370
    25
100
AcDbLine
 10
132.496
 20
568.0842649831
 30
0.0
 11
132.496
 21
562.7213858578
 31
0.0
  0
ARC
  5
106
330
1F
100
AcDbEntity
  8
0
  6
Continuous
 62
     7
370
    25
100
AcDbCircle
 10
132.496
 20
546.808
 30
0.0
 40
15.91338585783035
100
AcDbArc
 50
90.0
 51
180.0
  0
LINE
  5
107
330
1F
100
AcDbEntity
  8
0
  6
Continuous
 62
     7
370
    25
100
AcDbLine
 10
116.5826141422
 20
546.808
 30
0.0
 11
116.5826141422
 21
108.808
 31
0.0
  0
LINE
  5
108
330
1F
100
AcDbEntity
  8
0
  6
Continuous
 62
     7
370
    25
100
AcDbLine
 10
666.496
 20
568.0842649831
 30
0.0
 11
666.496
 21
562.7213858578
 31
0.0
  0
ARC
  5
109
330
1F
100
AcDbEntity
  8
0
  6
Continuous
 62
     7
370
    25
100
AcDbCircle
 10
666.496
 20
546.808
 30
0.0
 40
15.91338585783046
100
AcDbArc
 50
0.0
 51
90.0
  0
LINE
  5
10A
330
1F
100
AcDbEntity
  8
0
  6
Continuous
 62
     7
370
    25
100
AcDbLine
 10
666.496
 20
562.7213858578
 30
0.0
 11
132.496
 21
562.7213858578
 31
0.0
  0
LINE
  5
10B
330
1F
100
AcDbEntity
  8
0
  6
Continuous
 62
     7
370
    25
100
AcDbLine
 10
682.4093858578
 20
108.808
 30
0.0
 11
682.4093858578
 21
327.808
 31
0.0
  0
LINE
  5
10C
330
1F
100
AcDbEntity
  8
0
  6
Continuous
 62
     7
370
    25
100
AcDbLine
 10
677.496
 20
464.308
 30
0.0
 11
677.496
 21
130.308
 31
0.0
  0
ARC
  5
10D
330
1F
100
AcDbEntity
  8
0
  6
Continuous
 62
     7
370
    25
100
AcDbCircle
 10
645.996
 20
464.308
 30
0.0
 40
31.50000000000023
100
AcDbArc
 50
0.0
 51
90.0
  0
LINE
  5
10E
330
1F
100
AcDbEntity
  8
0
  6
Continuous
 62
     7
370
    25
100
AcDbLine
 10
356.996
 20
495.808
 30
0.0
 11
645.996
 21
495.808
 31
0.0
  0
ARC
  5
10F
330
1F
100
AcDbEntity
  8
0
  6
Continuous
 62
     7
370
    25
100
AcDbCircle
 10
356.996
 20
464.308
 30
0.0
 40
31.50000000000011
100
AcDbArc
 50
90.0
 51
180.0
  0
LINE
  5
110
330
1F
100
AcDbEntity
  8
0
  6
Continuous
 62
     7
370
    25
100
AcDbLine
 10
325.496
 20
130.308
 30
0.0
 11
325.496
 21
464.308
 31
0.0
  0
ARC
  5
111
330
1F
100
AcDbEntity
  8
0
  6
Continuous
 62
     7
370
    25
100
AcDbCircle
 10
356.996
 20
130.308
 30
0.0
 40
31.50000000000009
100
AcDbArc
 50
180.0
 51
270.0
  0
LINE
  5
112
330
1F
100
AcDbEntity
  8
0
  6
Continuous
 62
     7
370
    25
100
AcDbLine
 10
645.996
 20
98.808
 30
0.0
 11
356.996
 21
98.808
 31
0.0
  0
ARC
  5
113
330
1F
100
AcDbEntity
  8
0
  6
Continuous
 62
     7
370
    25
100
AcDbCircle
 10
645.996
 20
130.308
 30
0.0
 40
31.50000000000011
100
AcDbArc
 50
270.0
 51
0.0
  0
CIRCLE
  5
114
330
1F
100
AcDbEntity
  8
0
  6
Continuous
 62
     7
370
    25
100
AcDbCircle
 10
501.496
 20
531.808
 30
0.0
 40
17.5
  0
LINE
  5
115
330
1F
100
AcDbEntity
  8
0
  6
Continuous
 62
     7
370
    25
100
AcDbLine
 10
677.496
 20
130.308
 30
0.0
 11
672.496
 21
130.308
 31
0.0
  0
LINE
  5
116
330
1F
100
AcDbEntity
  8
0
  6
Continuous
 62
     7
370
    25
100
AcDbLine
 10
672.496
 20
130.308
 30
0.0
 11
672.496
 21
464.308
 31
0.0
  0
LINE
  5
117
330
1F
100
AcDbEntity
  8
0
  6
Continuous
 62
     7
370
    25
100
AcDbLine
 10
677.496
 20
464.308
 30
0.0
 11
672.496
 21
464.308
 31
0.0
  0
LINE
  5
118
330
1F
100
AcDbEntity
  8
0
  6
Continuous
 62
     7
370
    25
100
AcDbLine
 10
645.996
 20
490.808
 30
0.0
 11
356.996
 21
490.808
 31
0.0
  0
LINE
  5
119
330
1F
100
AcDbEntity
  8
0
  6
Continuous
 62
     7
370
    25
100
AcDbLine
 10
356.996
 20
490.808
 30
0.0
 11
356.996
 21
495.808
 31
0.0
  0
LINE
  5
11A
330
1F
100
AcDbEntity
  8
0
  6
Continuous
 62
     7
370
    25
100
AcDbLine
 10
645.996
 20
495.808
 30
0.0
 11
645.996
 21
490.808
 31
0.0
  0
ARC
  5
11B
330
1F
100
AcDbEntity
  8
0
  6
Continuous
 62
     7
370
    25
100
AcDbCircle
 10
356.996
 20
464.308
 30
0.0
 40
26.5
100
AcDbArc
 50
90.0
 51
180.0
  0
LINE
  5
11C
330
1F
100
AcDbEntity
  8
0
  6
Continuous
 62
     7
370
    25
100
AcDbLine
 10
330.496
 20
464.308
 30
0.0
 11
325.496
 21
464.308
 31
0.0
  0
ARC
  5
11D
330
1F
100
AcDbEntity
  8
0
  6
Continuous
 62
     7
370
    25
100
AcDbCircle
 10
645.996
 20
464.308
 30
0.0
 40
26.50000000000011
100
AcDbArc
 50
0.0
 51
90.0
  0
LINE
  5
11E
330
1F
100
AcDbEntity
  8
0
  6
Continuous
 62
     7
370
    25
100
AcDbLine
 10
330.496
 20
464.308
 30
0.0
 11
330.496
 21
130.308
 31
0.0
  0
LINE
  5
11F
330
1F
100
AcDbEntity
  8
0
  6
Continuous
 62
     7
370
    25
100
AcDbLine
 10
330.496
 20
130.308
 30
0.0
 11
325.496
 21
130.308
 31
0.0
  0
LINE
  5
120
330
1F
100
AcDbEntity
  8
0
  6
Continuous
 62
     7
370
    25
100
AcDbLine
 10
645.996
 20
98.808
 30
0.0
 11
645.996
 21
103.808
 31
0.0
  0
ARC
  5
121
330
1F
100
AcDbEntity
  8
0
  6
Continuous
 62
     7
370
    25
100
AcDbCircle
 10
645.996
 20
130.308
 30
0.0
 40
26.5
100
AcDbArc
 50
270.0
 51
0.0
  0
ARC
  5
122
330
1F
100
AcDbEntity
  8
0
  6
Continuous
 62
     7
370
    25
100
AcDbCircle
 10
356.996
 20
130.308
 30
0.0
 40
26.49999999999997
100
AcDbArc
 50
180.0
 51
270.0
  0
LINE
  5
123
330
1F
100
AcDbEntity
  8
0
  6
Continuous
 62
     7
370
    25
100
AcDbLine
 10
356.996
 20
103.808
 30
0.0
 11
356.996
 21
98.808
 31
0.0
  0
LINE
  5
124
330
1F
100
AcDbEntity
  8
0
  6
Continuous
 62
     7
370
    25
100
AcDbLine
 10
356.996
 20
103.808
 30
0.0
 11
645.996
 21
103.808
 31
0.0
  0
ENDSEC
  0
SECTION
  2
OBJECTS
  0
DICTIONARY
  5
C
330
0
100
AcDbDictionary
281
     1
  3
ACAD_GROUP
350
D
  3
ACAD_LAYOUT
350
1A
  3
ACAD_MLINESTYLE
350
17
  3
ACAD_PLOTSETTINGS
350
19
  3
ACAD_PLOTSTYLENAME
350
E
  3
ACAD_SCALELIST
350
47
  3
DWGPROPS
350
125
  0
DICTIONARY
  5
D
102
{ACAD_REACTORS
330
C
102
}
330
C
100
AcDbDictionary
281
     1
  0
DICTIONARY
  5
1A
102
{ACAD_REACTORS
330
C
102
}
330
C
100
AcDbDictionary
281
     1
  3
Layout1
350
1E
  3
Layout2
350
26
  3
Model
350
22
  0
DICTIONARY
  5
17
102
{ACAD_REACTORS
330
C
102
}
330
C
100
AcDbDictionary
281
     1
  3
Standard
350
18
  0
DICTIONARY
  5
19
102
{ACAD_REACTORS
330
C
102
}
330
C
100
AcDbDictionary
281
     1
  0
ACDBDICTIONARYWDFLT
  5
E
102
{ACAD_REACTORS
330
C
102
}
330
C
100
AcDbDictionary
281
     1
  3
Normal
350
F
100
AcDbDictionaryWithDefault
340
F
  0
DICTIONARY
  5
47
102
{ACAD_REACTORS
330
C
102
}
330
C
100
AcDbDictionary
281
     1
  3
A0
350
48
  3
A1
350
49
  3
A2
350
4A
  3
A3
350
4B
  3
A4
350
4C
  3
A5
350
4D
  3
A6
350
4E
  3
A7
350
4F
  3
A8
350
50
  3
A9
350
51
  3
B0
350
52
  3
B1
350
53
  3
B2
350
54
  3
B3
350
55
  3
B4
350
56
  3
B5
350
57
  3
B6
350
58
  3
B7
350
59
  3
B8
350
5A
  3
B9
350
5B
  3
C0
350
5C
  3
C1
350
5D
  3
C2
350
5E
  3
C3
350
5F
  3
C4
350
60
  3
C5
350
61
  3
C6
350
62
  3
C7
350
63
  3
C8
350
64
  3
C9
350
65
  3
D0
350
66
  3
D1
350
67
  3
D2
350
68
  0
XRECORD
  5
125
102
{ACAD_REACTORS
330
C
102
}
330
C
100
AcDbXrecord
280
     1
  1
DWGPROPS COOKIE
  2

  3

  4

  6

  7

  8
KalleMourujärvi
  9

300
=
301
=
302
=
303
=
304
=
305
=
306
=
307
=
308
=
309
=
 40
0.0
 41
2460130.424728496
 42
2460130.424728773
  1

 90
        0
  0
LAYOUT
  5
1E
102
{ACAD_REACTORS
330
1A
102
}
330
1A
100
AcDbPlotSettings
  1

  2
none_device
  4

  6

 40
0.0
 41
0.0
 42
0.0
 43
0.0
 44
0.0
 45
0.0
 46
0.0
 47
0.0
 48
0.0
 49
0.0
140
0.0
141
0.0
142
1.0
143
1.0
 70
   688
 72
     1
 73
     0
 74
     5
  7

 75
    16
147
1.0
148
0.0
149
0.0
100
AcDbLayout
  1
Layout1
 70
     1
 71
     1
 10
0.0
 20
0.0
 11
420.0
 21
297.0
 12
0.0
 22
0.0
 32
0.0
 14
1.0000000000E+20
 24
1.0000000000E+20
 34
1.0000000000E+20
 15
-1.0000000000E+20
 25
-1.0000000000E+20
 35
-1.0000000000E+20
146
0.0
 13
0.0
 23
0.0
 33
0.0
 16
1.0
 26
0.0
 36
0.0
 17
0.0
 27
1.0
 37
0.0
 76
     0
330
1B
  0
LAYOUT
  5
26
102
{ACAD_REACTORS
330
1A
102
}
330
1A
100
AcDbPlotSettings
  1

  2
none_device
  4

  6

 40
0.0
 41
0.0
 42
0.0
 43
0.0
 44
0.0
 45
0.0
 46
0.0
 47
0.0
 48
0.0
 49
0.0
140
0.0
141
0.0
142
1.0
143
1.0
 70
   688
 72
     1
 73
     0
 74
     5
  7

 75
    16
147
1.0
148
0.0
149
0.0
100
AcDbLayout
  1
Layout2
 70
     1
 71
     2
 10
0.0
 20
0.0
 11
0.0
 21
0.0
 12
0.0
 22
0.0
 32
0.0
 14
0.0
 24
0.0
 34
0.0
 15
0.0
 25
0.0
 35
0.0
146
0.0
 13
0.0
 23
0.0
 33
0.0
 16
1.0
 26
0.0
 36
0.0
 17
0.0
 27
1.0
 37
0.0
 76
     0
330
23
  0
LAYOUT
  5
22
102
{ACAD_REACTORS
330
1A
102
}
330
1A
100
AcDbPlotSettings
  1

  2
none_device
  4
Letter_(8.50_x_11.00_Inches)
  6

 40
6.35
 41
6.35
 42
6.35000508
 43
6.35000508
 44
215.9
 45
279.4
 46
0.0
 47
0.0
 48
0.0
 49
0.0
140
0.0
141
0.0
142
1.0
143
1.0
 70
  1712
 72
     1
 73
     0
 74
     0
  7

 75
     0
147
1.0
148
0.0
149
0.0
100
AcDbLayout
  1
Model
 70
     1
 71
     0
 10
0.0
 20
0.0
 11
800.0
 21
650.0
 12
0.0
 22
0.0
 32
0.0
 14
0.0
 24
0.0
 34
0.0
 15
800.0
 25
650.0
 35
0.0
146
0.0
 13
0.0
 23
0.0
 33
0.0
 16
1.0
 26
0.0
 36
0.0
 17
0.0
 27
1.0
 37
0.0
 76
     0
330
1F
331
29
  0
MLINESTYLE
  5
18
102
{ACAD_REACTORS
330
17
102
}
330
17
100
AcDbMlineStyle
  2
Standard
 70
     0
  3

 62
   256
 51
90.0
 52
90.0
 71
     2
 49
0.5
 62
   256
  6
BYLAYER
 49
-0.5
 62
   256
  6
BYLAYER
  0
ACDBPLACEHOLDER
  5
F
102
{ACAD_REACTORS
330
E
102
}
330
E
  0
SCALE
  5
48
102
{ACAD_REACTORS
330
47
102
}
330
47
100
AcDbScale
 70
     0
300
1:1
140
1.0
141
1.0
290
     1
  0
SCALE
  5
49
102
{ACAD_REACTORS
330
47
102
}
330
47
100
AcDbScale
 70
     0
300
1:2
140
1.0
141
2.0
290
     0
  0
SCALE
  5
4A
102
{ACAD_REACTORS
330
47
102
}
330
47
100
AcDbScale
 70
     0
300
1:4
140
1.0
141
4.0
290
     0
  0
SCALE
  5
4B
102
{ACAD_REACTORS
330
47
102
}
330
47
100
AcDbScale
 70
     0
300
1:5
140
1.0
141
5.0
290
     0
  0
SCALE
  5
4C
102
{ACAD_REACTORS
330
47
102
}
330
47
100
AcDbScale
 70
     0
300
1:8
140
1.0
141
8.0
290
     0
  0
SCALE
  5
4D
102
{ACAD_REACTORS
330
47
102
}
330
47
100
AcDbScale
 70
     0
300
1:10
140
1.0
141
10.0
290
     0
  0
SCALE
  5
4E
102
{ACAD_REACTORS
330
47
102
}
330
47
100
AcDbScale
 70
     0
300
1:16
140
1.0
141
16.0
290
     0
  0
SCALE
  5
4F
102
{ACAD_REACTORS
330
47
102
}
330
47
100
AcDbScale
 70
     0
300
1:20
140
1.0
141
20.0
290
     0
  0
SCALE
  5
50
102
{ACAD_REACTORS
330
47
102
}
330
47
100
AcDbScale
 70
     0
300
1:30
140
1.0
141
30.0
290
     0
  0
SCALE
  5
51
102
{ACAD_REACTORS
330
47
102
}
330
47
100
AcDbScale
 70
     0
300
1:40
140
1.0
141
40.0
290
     0
  0
SCALE
  5
52
102
{ACAD_REACTORS
330
47
102
}
330
47
100
AcDbScale
 70
     0
300
1:50
140
1.0
141
50.0
290
     0
  0
SCALE
  5
53
102
{ACAD_REACTORS
330
47
102
}
330
47
100
AcDbScale
 70
     0
300
1:100
140
1.0
141
100.0
290
     0
  0
SCALE
  5
54
102
{ACAD_REACTORS
330
47
102
}
330
47
100
AcDbScale
 70
     0
300
2:1
140
2.0
141
1.0
290
     0
  0
SCALE
  5
55
102
{ACAD_REACTORS
330
47
102
}
330
47
100
AcDbScale
 70
     0
300
4:1
140
4.0
141
1.0
290
     0
  0
SCALE
  5
56
102
{ACAD_REACTORS
330
47
102
}
330
47
100
AcDbScale
 70
     0
300
8:1
140
8.0
141
1.0
290
     0
  0
SCALE
  5
57
102
{ACAD_REACTORS
330
47
102
}
330
47
100
AcDbScale
 70
     0
300
10:1
140
10.0
141
1.0
290
     0
  0
SCALE
  5
58
102
{ACAD_REACTORS
330
47
102
}
330
47
100
AcDbScale
 70
     0
300
100:1
140
100.0
141
1.0
290
     0
  0
SCALE
  5
59
102
{ACAD_REACTORS
330
47
102
}
330
47
100
AcDbScale
 70
     0
300
1/128" = 1'-0"
140
0.0078125
141
12.0
290
     0
  0
SCALE
  5
5A
102
{ACAD_REACTORS
330
47
102
}
330
47
100
AcDbScale
 70
     0
300
1/64" = 1'-0"
140
0.015625
141
12.0
290
     0
  0
SCALE
  5
5B
102
{ACAD_REACTORS
330
47
102
}
330
47
100
AcDbScale
 70
     0
300
1/32" = 1'-0"
140
0.03125
141
12.0
290
     0
  0
SCALE
  5
5C
102
{ACAD_REACTORS
330
47
102
}
330
47
100
AcDbScale
 70
     0
300
1/16" = 1'-0"
140
0.0625
141
12.0
290
     0
  0
SCALE
  5
5D
102
{ACAD_REACTORS
330
47
102
}
330
47
100
AcDbScale
 70
     0
300
3/32" = 1'-0"
140
0.09375
141
12.0
290
     0
  0
SCALE
  5
5E
102
{ACAD_REACTORS
330
47
102
}
330
47
100
AcDbScale
 70
     0
300
1/8" = 1'-0"
140
0.125
141
12.0
290
     0
  0
SCALE
  5
5F
102
{ACAD_REACTORS
330
47
102
}
330
47
100
AcDbScale
 70
     0
300
3/16" = 1'-0"
140
0.1875
141
12.0
290
     0
  0
SCALE
  5
60
102
{ACAD_REACTORS
330
47
102
}
330
47
100
AcDbScale
 70
     0
300
1/4" = 1'-0"
140
0.25
141
12.0
290
     0
  0
SCALE
  5
61
102
{ACAD_REACTORS
330
47
102
}
330
47
100
AcDbScale
 70
     0
300
3/8" = 1'-0"
140
0.375
141
12.0
290
     0
  0
SCALE
  5
62
102
{ACAD_REACTORS
330
47
102
}
330
47
100
AcDbScale
 70
     0
300
1/2" = 1'-0"
140
0.5
141
12.0
290
     0
  0
SCALE
  5
63
102
{ACAD_REACTORS
330
47
102
}
330
47
100
AcDbScale
 70
     0
300
3/4" = 1'-0"
140
0.75
141
12.0
290
     0
  0
SCALE
  5
64
102
{ACAD_REACTORS
330
47
102
}
330
47
100
AcDbScale
 70
     0
300
1" = 1'-0"
140
1.0
141
12.0
290
     0
  0
SCALE
  5
65
102
{ACAD_REACTORS
330
47
102
}
330
47
100
AcDbScale
 70
     0
300
1-1/2" = 1'-0"
140
1.5
141
12.0
290
     0
  0
SCALE
  5
66
102
{ACAD_REACTORS
330
47
102
}
330
47
100
AcDbScale
 70
     0
300
3" = 1'-0"
140
3.0
141
12.0
290
     0
  0
SCALE
  5
67
102
{ACAD_REACTORS
330
47
102
}
330
47
100
AcDbScale
 70
     0
300
6" = 1'-0"
140
6.0
141
12.0
290
     0
  0
SCALE
  5
68
102
{ACAD_REACTORS
330
47
102
}
330
47
100
AcDbScale
 70
     0
300
1'-0" = 1'-0"
140
12.0
141
12.0
290
     0
  0
ENDSEC
  0
EOF
