  0
SECTION
  2
HEADER
  9
$ACADVER
  1
AC1015
  9
$ACADMAINTVER
 70
     6
  9
$DWGCODEPAGE
  3
ANSI_1252
  9
$INSBASE
 10
0.0
 20
0.0
 30
0.0
  9
$EXTMIN
 10
0.0
 20
0.0
 30
0.0
  9
$EXTMAX
 10
950.0
 20
650.0
 30
0.0
  9
$LIMMIN
 10
0.0
 20
0.0
  9
$LIMMAX
 10
950.0
 20
650.0
  9
$ORTHOMODE
 70
     0
  9
$REGENMODE
 70
     1
  9
$FILLMODE
 70
     1
  9
$QTEXTMODE
 70
     0
  9
$MIRRTEXT
 70
     1
  9
$LTSCALE
 40
1.0
  9
$ATTMODE
 70
     1
  9
$TEXTSIZE
 40
3.5
  9
$TRACEWID
 40
1.0
  9
$TEXTSTYLE
  7
Standard
  9
$CLAYER
  8
0
  9
$CELTYPE
  6
ByLayer
  9
$CECOLOR
 62
   256
  9
$CELTSCALE
 40
1.0
  9
$DISPSILH
 70
     0
  9
$DIMSCALE
 40
1.0
  9
$DIMASZ
 40
3.302
  9
$DIMEXO
 40
1.0
  9
$DIMDLI
 40
3.75
  9
$DIMRND
 40
0.0
  9
$DIMDLE
 40
0.0
  9
$DIMEXE
 40
1.0
  9
$DIMTP
 40
0.0
  9
$DIMTM
 40
0.0
  9
$DIMTXT
 40
3.5
  9
$DIMCEN
 40
2.5
  9
$DIMTSZ
 40
0.0
  9
$DIMTOL
 70
     0
  9
$DIMLIM
 70
     0
  9
$DIMTIH
 70
     1
  9
$DIMTOH
 70
     1
  9
$DIMSE1
 70
     0
  9
$DIMSE2
 70
     0
  9
$DIMTAD
 70
     1
  9
$DIMZIN
 70
     1
  9
$DIMBLK
  1

  9
$DIMASO
 70
     1
  9
$DIMSHO
 70
     1
  9
$DIMPOST
  1

  9
$DIMAPOST
  1

  9
$DIMALT
 70
     0
  9
$DIMALTD
 70
     3
  9
$DIMALTF
 40
0.0393700787
  9
$DIMLFAC
 40
1.0
  9
$DIMTOFL
 70
     1
  9
$DIMTVP
 40
0.0
  9
$DIMTIX
 70
     0
  9
$DIMSOXD
 70
     0
  9
$DIMSAH
 70
     0
  9
$DIMBLK1
  1

  9
$DIMBLK2
  1

  9
$DIMSTYLE
  2
ISO-25
  9
$DIMCLRD
 70
     0
  9
$DIMCLRE
 70
     0
  9
$DIMCLRT
 70
     0
  9
$DIMTFAC
 40
1.0
  9
$DIMGAP
 40
1.524
  9
$DIMJUST
 70
     0
  9
$DIMSD1
 70
     0
  9
$DIMSD2
 70
     0
  9
$DIMTOLJ
 70
     0
  9
$DIMTZIN
 70
     1
  9
$DIMALTZ
 70
     0
  9
$DIMALTTZ
 70
     0
  9
$DIMUPT
 70
     0
  9
$DIMDEC
 70
     2
  9
$DIMTDEC
 70
     2
  9
$DIMALTU
 70
     2
  9
$DIMALTTD
 70
     3
  9
$DIMTXSTY
  7
Standard
  9
$DIMAUNIT
 70
     0
  9
$DIMADEC
 70
     2
  9
$DIMALTRND
 40
0.0
  9
$DIMAZIN
 70
     0
  9
$DIMDSEP
 70
    44
  9
$DIMATFIT
 70
     3
  9
$DIMFRAC
 70
     0
  9
$DIMLDRBLK
  1

  9
$DIMLUNIT
 70
     2
  9
$DIMLWD
 70
    -2
  9
$DIMLWE
 70
    -2
  9
$DIMTMOVE
 70
     0
  9
$LUNITS
 70
     2
  9
$LUPREC
 70
     1
  9
$SKETCHINC
 40
1.0
  9
$FILLETRAD
 40
10.0
  9
$AUNITS
 70
     0
  9
$AUPREC
 70
     1
  9
$MENU
  1
.
  9
$ELEVATION
 40
0.0
  9
$PELEVATION
 40
0.0
  9
$THICKNESS
 40
0.0
  9
$LIMCHECK
 70
     0
  9
$CHAMFERA
 40
0.0
  9
$CHAMFERB
 40
0.0
  9
$CHAMFERC
 40
0.0
  9
$CHAMFERD
 40
0.0
  9
$SKPOLY
 70
     0
  9
$TDCREATE
 40
2460130.546617199
  9
$TDUCREATE
 40
2460130.421617199
  9
$TDUPDATE
 40
2460130.546617523
  9
$TDUUPDATE
 40
2460130.421617523
  9
$TDINDWG
 40
0.0000000116
  9
$TDUSRTIMER
 40
0.0000000116
  9
$USRTIMER
 70
     1
  9
$ANGBASE
 50
0.0
  9
$ANGDIR
 70
     0
  9
$PDMODE
 70
     0
  9
$PDSIZE
 40
-1.0
  9
$PLINEWID
 40
0.0
  9
$SPLFRAME
 70
     0
  9
$SPLINETYPE
 70
     6
  9
$SPLINESEGS
 70
     8
  9
$HANDSEED
  5
17A
  9
$SURFTAB1
 70
     6
  9
$SURFTAB2
 70
     6
  9
$SURFTYPE
 70
     6
  9
$SURFU
 70
     6
  9
$SURFV
 70
     6
  9
$UCSBASE
  2

  9
$UCSNAME
  2

  9
$UCSORG
 10
0.0
 20
0.0
 30
0.0
  9
$UCSXDIR
 10
1.0
 20
0.0
 30
0.0
  9
$UCSYDIR
 10
0.0
 20
1.0
 30
0.0
  9
$UCSORTHOREF
  2

  9
$UCSORTHOVIEW
 70
     0
  9
$UCSORGTOP
 10
0.0
 20
0.0
 30
0.0
  9
$UCSORGBOTTOM
 10
0.0
 20
0.0
 30
0.0
  9
$UCSORGLEFT
 10
0.0
 20
0.0
 30
0.0
  9
$UCSORGRIGHT
 10
0.0
 20
0.0
 30
0.0
  9
$UCSORGFRONT
 10
0.0
 20
0.0
 30
0.0
  9
$UCSORGBACK
 10
0.0
 20
0.0
 30
0.0
  9
$PUCSBASE
  2

  9
$PUCSNAME
  2

  9
$PUCSORG
 10
0.0
 20
0.0
 30
0.0
  9
$PUCSXDIR
 10
1.0
 20
0.0
 30
0.0
  9
$PUCSYDIR
 10
0.0
 20
1.0
 30
0.0
  9
$PUCSORTHOREF
  2

  9
$PUCSORTHOVIEW
 70
     0
  9
$PUCSORGTOP
 10
0.0
 20
0.0
 30
0.0
  9
$PUCSORGBOTTOM
 10
0.0
 20
0.0
 30
0.0
  9
$PUCSORGLEFT
 10
0.0
 20
0.0
 30
0.0
  9
$PUCSORGRIGHT
 10
0.0
 20
0.0
 30
0.0
  9
$PUCSORGFRONT
 10
0.0
 20
0.0
 30
0.0
  9
$PUCSORGBACK
 10
0.0
 20
0.0
 30
0.0
  9
$USERI1
 70
     0
  9
$USERI2
 70
     0
  9
$USERI3
 70
     0
  9
$USERI4
 70
     0
  9
$USERI5
 70
     0
  9
$USERR1
 40
0.0
  9
$USERR2
 40
0.0
  9
$USERR3
 40
0.0
  9
$USERR4
 40
0.0
  9
$USERR5
 40
0.0
  9
$WORLDVIEW
 70
     1
  9
$SHADEDGE
 70
     3
  9
$SHADEDIF
 70
    70
  9
$TILEMODE
 70
     1
  9
$MAXACTVP
 70
    64
  9
$PINSBASE
 10
0.0
 20
0.0
 30
0.0
  9
$PLIMCHECK
 70
     0
  9
$PEXTMIN
 10
1.0000000000E+20
 20
1.0000000000E+20
 30
1.0000000000E+20
  9
$PEXTMAX
 10
-1.0000000000E+20
 20
-1.0000000000E+20
 30
-1.0000000000E+20
  9
$PLIMMIN
 10
0.0
 20
0.0
  9
$PLIMMAX
 10
420.0
 20
297.0
  9
$UNITMODE
 70
     0
  9
$VISRETAIN
 70
     1
  9
$PLINEGEN
 70
     0
  9
$PSLTSCALE
 70
     1
  9
$TREEDEPTH
 70
  3020
  9
$CMLSTYLE
  2
Standard
  9
$CMLJUST
 70
     0
  9
$CMLSCALE
 40
20.0
  9
$PROXYGRAPHICS
 70
     1
  9
$MEASUREMENT
 70
     1
  9
$CELWEIGHT
370
    -1
  9
$ENDCAPS
280
     0
  9
$JOINSTYLE
280
     0
  9
$LWDISPLAY
290
     1
  9
$INSUNITS
 70
     4
  9
$HYPERLINKBASE
  1

  9
$STYLESHEET
  1

  9
$XEDIT
290
     1
  9
$CEPSNTYPE
380
     0
  9
$PSTYLEMODE
290
     1
  9
$FINGERPRINTGUID
  2
{9ef33fe8-49b2-4fa4-980b-cb219889224b}
  9
$VERSIONGUID
  2
{FAEB1C32-E019-11D5-929B-00C0DF256EC4}
  9
$EXTNAMES
290
     1
  9
$PSVPSCALE
 40
0.0
  9
$OLESTARTUP
290
     0
  0
ENDSEC
  0
SECTION
  2
CLASSES
  0
CLASS
  1
ACDBDICTIONARYWDFLT
  2
AcDbDictionaryWithDefault
  3
ObjectDBX Classes
 90
        0
280
     0
281
     0
  0
CLASS
  1
VISUALSTYLE
  2
AcDbVisualStyle
  3
ObjectDBX Classes
 90
     4095
280
     0
281
     0
  0
CLASS
  1
MATERIAL
  2
AcDbMaterial
  3
ObjectDBX Classes
 90
     1153
280
     0
281
     0
  0
CLASS
  1
SCALE
  2
AcDbScale
  3
ObjectDBX Classes
 90
     1153
280
     0
281
     0
  0
CLASS
  1
TABLESTYLE
  2
AcDbTableStyle
  3
ObjectDBX Classes
 90
     4095
280
     0
281
     0
  0
CLASS
  1
MLEADERSTYLE
  2
AcDbMLeaderStyle
  3
ACDB_MLEADERSTYLE_CLASS
 90
     4095
280
     0
281
     0
  0
CLASS
  1
SUN
  2
AcDbSun
  3
SCENEOE
 90
     1153
280
     0
281
     0
  0
CLASS
  1
ACDBPLACEHOLDER
  2
AcDbPlaceHolder
  3
ObjectDBX Classes
 90
        0
280
     0
281
     0
  0
CLASS
  1
LAYOUT
  2
AcDbLayout
  3
ObjectDBX Classes
 90
        0
280
     0
281
     0
  0
ENDSEC
  0
SECTION
  2
TABLES
  0
TABLE
  2
VPORT
  5
8
330
0
100
AcDbSymbolTable
 70
     1
  0
VPORT
  5
29
330
8
100
AcDbSymbolTableRecord
100
AcDbViewportTableRecord
  2
*Active
 70
     0
 10
0.0
 20
0.0
 11
1.0
 21
1.0
 12
475.0
 22
325.0
 13
0.0
 23
0.0
 14
10.0
 24
10.0
 15
10.0
 25
10.0
 16
0.0
 26
0.0
 36
1.0
 17
0.0
 27
0.0
 37
0.0
 40
650.0
 41
1.4615384615
 42
50.0
 43
0.0
 44
0.0
 50
0.0
 51
0.0
 71
     0
 72
  2000
 73
     1
 74
     3
 75
     0
 76
     0
 77
     0
 78
     0
281
     0
 65
     1
110
0.0
120
0.0
130
0.0
111
1.0
121
0.0
131
0.0
112
0.0
122
1.0
132
0.0
 79
     0
146
0.0
  0
ENDTAB
  0
TABLE
  2
LTYPE
  5
5
330
0
100
AcDbSymbolTable
 70
     6
  0
LTYPE
  5
14
330
5
100
AcDbSymbolTableRecord
100
AcDbLinetypeTableRecord
  2
ByBlock
 70
     0
  3

 72
    65
 73
     0
 40
0.0
  0
LTYPE
  5
15
330
5
100
AcDbSymbolTableRecord
100
AcDbLinetypeTableRecord
  2
ByLayer
 70
     0
  3

 72
    65
 73
     0
 40
0.0
  0
LTYPE
  5
16
330
5
100
AcDbSymbolTableRecord
100
AcDbLinetypeTableRecord
  2
Continuous
 70
     0
  3
Solid line
 72
    65
 73
     0
 40
0.0
  0
LTYPE
  5
6E
330
5
100
AcDbSymbolTableRecord
100
AcDbLinetypeTableRecord
  2
HIDDEN
 70
     0
  3
Hidden __ __ __ __ __ __ __ __ __ __ __ __ __ __
 72
    65
 73
     2
 40
1.905
 49
1.27
 74
     0
 49
-0.635
 74
     0
  0
LTYPE
  5
6F
330
5
100
AcDbSymbolTableRecord
100
AcDbLinetypeTableRecord
  2
PHANTOM
 70
     0
  3
Phantom ______  __  __  ______  __  __  ______
 72
    65
 73
     6
 40
12.7
 49
6.35
 74
     0
 49
-1.27
 74
     0
 49
1.27
 74
     0
 49
-1.27
 74
     0
 49
1.27
 74
     0
 49
-1.27
 74
     0
  0
LTYPE
  5
70
330
5
100
AcDbSymbolTableRecord
100
AcDbLinetypeTableRecord
  2
CENTER
 70
     0
  3
Center ____ _ ____ _ ____ _ ____ _ ____ _ ____
 72
    65
 73
     4
 40
10.16
 49
6.35
 74
     0
 49
-1.27
 74
     0
 49
1.27
 74
     0
 49
-1.27
 74
     0
  0
LTYPE
  5
71
330
5
100
AcDbSymbolTableRecord
100
AcDbLinetypeTableRecord
  2
CENTERX2
 70
     0
  3
Center (2x) ________  __  ________  __  _____
 72
    65
 73
     4
 40
20.32
 49
12.7
 74
     0
 49
-2.54
 74
     0
 49
2.54
 74
     0
 49
-2.54
 74
     0
  0
LTYPE
  5
72
330
5
100
AcDbSymbolTableRecord
100
AcDbLinetypeTableRecord
  2
DOT2
 70
     0
  3
Dot (.5x) ........................................
 72
    65
 73
     2
 40
0.635
 49
0.0
 74
     0
 49
-0.635
 74
     0
  0
ENDTAB
  0
TABLE
  2
LAYER
  5
2
330
0
100
AcDbSymbolTable
 70
     1
  0
LAYER
  5
10
330
2
100
AcDbSymbolTableRecord
100
AcDbLayerTableRecord
  2
0
 70
     0
 62
     7
  6
Continuous
370
    -3
390
F
  0
ENDTAB
  0
TABLE
  2
STYLE
  5
3
330
0
100
AcDbSymbolTable
 70
     1
  0
STYLE
  5
11
330
3
100
AcDbSymbolTableRecord
100
AcDbTextStyleTableRecord
  2
Standard
 70
     0
 40
0.0
 41
1.0
 50
0.0
 71
     0
 42
3.5
  3
txt
  4

  0
ENDTAB
  0
TABLE
  2
VIEW
  5
6
330
0
100
AcDbSymbolTable
 70
     0
  0
ENDTAB
  0
TABLE
  2
UCS
  5
7
330
0
100
AcDbSymbolTable
 70
     0
  0
ENDTAB
  0
TABLE
  2
APPID
  5
9
330
0
100
AcDbSymbolTable
 70
     1
  0
APPID
  5
12
330
9
100
AcDbSymbolTableRecord
100
AcDbRegAppTableRecord
  2
ACAD
 70
     0
  0
ENDTAB
  0
TABLE
  2
DIMSTYLE
  5
A
330
0
100
AcDbSymbolTable
 70
     1
100
AcDbDimStyleTable
  0
DIMSTYLE
105
27
330
A
100
AcDbSymbolTableRecord
100
AcDbDimStyleTableRecord
  2
ISO-25
 70
     0
 41
2.5
 42
0.625
 43
3.75
 44
1.25
 73
     0
 74
     0
 77
     1
 78
     8
140
2.5
141
2.5
143
0.0393700787
147
0.625
171
     3
172
     1
178
     0
271
     2
272
     2
274
     3
278
    44
283
     0
284
     8
340
11
  0
ENDTAB
  0
TABLE
  2
BLOCK_RECORD
  5
1
330
0
100
AcDbSymbolTable
 70
     1
  0
BLOCK_RECORD
  5
1F
330
1
100
AcDbSymbolTableRecord
100
AcDbBlockTableRecord
  2
*Model_Space
340
22
  0
BLOCK_RECORD
  5
1B
330
1
100
AcDbSymbolTableRecord
100
AcDbBlockTableRecord
  2
*Paper_Space
340
1E
  0
BLOCK_RECORD
  5
23
330
1
100
AcDbSymbolTableRecord
100
AcDbBlockTableRecord
  2
*Paper_Space0
340
26
  0
ENDTAB
  0
ENDSEC
  0
SECTION
  2
BLOCKS
  0
BLOCK
  5
20
330
1F
100
AcDbEntity
  8
0
100
AcDbBlockBegin
  2
*Model_Space
 70
     0
 10
0.0
 20
0.0
 30
0.0
  3
*Model_Space
  1

  0
ENDBLK
  5
21
330
1F
100
AcDbEntity
  8
0
100
AcDbBlockEnd
  0
BLOCK
  5
1C
330
1B
100
AcDbEntity
 67
     1
  8
0
100
AcDbBlockBegin
  2
*Paper_Space
 70
     0
 10
0.0
 20
0.0
 30
0.0
  3
*Paper_Space
  1

  0
ENDBLK
  5
1D
330
1B
100
AcDbEntity
 67
     1
  8
0
100
AcDbBlockEnd
  0
BLOCK
  5
24
330
23
100
AcDbEntity
  8
0
100
AcDbBlockBegin
  2
*Paper_Space0
 70
     0
 10
0.0
 20
0.0
 30
0.0
  3
*Paper_Space0
  1

  0
ENDBLK
  5
25
330
23
100
AcDbEntity
  8
0
100
AcDbBlockEnd
  0
ENDSEC
  0
SECTION
  2
ENTITIES
  0
SPLINE
  5
73
330
1F
100
AcDbEntity
  8
0
  6
Continuous
 62
     7
370
    25
100
AcDbSpline
210
0.0
220
0.0
230
1.0
 70
     8
 71
     3
 72
    15
 73
    11
 74
     0
 42
0.00000001
 43
0.00000001
 40
0.0
 40
0.0
 40
0.0
 40
0.0
 40
0.1435697120509418
 40
0.283063071289952
 40
0.4177869949919367
 40
0.5471035624718796
 40
0.670439276833934
 40
0.7872946987831274
 40
0.8972547346571081
 40
1.0
 40
1.0
 40
1.0
 40
1.0
 10
562.1084674670313
 20
483.833000266356
 30
0.0
 10
562.1265080805282
 20
483.7993984148566
 30
0.0
 10
562.1620770831502
 20
483.7331487640735
 30
0.0
 10
562.289633235706
 20
483.6387487921841
 30
0.0
 10
562.4597080538158
 20
483.5513612290478
 30
0.0
 10
562.6648275641905
 20
483.4723376429743
 30
0.0
 10
562.8892977709196
 20
483.4024897405008
 30
0.0
 10
563.1176284237732
 20
483.3427328476328
 30
0.0
 10
563.3374107252871
 20
483.2925746929187
 30
0.0
 10
563.4688543913608
 20
483.2666739061603
 30
0.0
 10
563.5323469995426
 20
483.2541627783565
 30
0.0
  0
SPLINE
  5
74
330
1F
100
AcDbEntity
  8
0
  6
Continuous
 62
     7
370
    25
100
AcDbSpline
210
0.0
220
0.0
230
1.0
 70
     8
 71
     3
 72
    15
 73
    11
 74
     0
 42
0.00000001
 43
0.00000001
 40
0.0
 40
0.0
 40
0.0
 40
0.0
 40
0.1027452653428919
 40
0.2127053012168859
 40
0.3295607231660661
 40
0.4528964375281205
 40
0.5822130050080635
 40
0.7169369287100481
 40
0.8564302879490584
 40
1.0
 40
1.0
 40
1.0
 40
1.0
 10
599.7323469995426
 20
483.2541627783564
 30
0.0
 10
599.7958396077245
 20
483.2666739061602
 30
0.0
 10
599.927283273798
 20
483.2925746929184
 30
0.0
 10
600.1470655753119
 20
483.3427328476329
 30
0.0
 10
600.3753962281656
 20
483.4024897405008
 30
0.0
 10
600.5998664348946
 20
483.4723376429744
 30
0.0
 10
600.8049859452693
 20
483.5513612290476
 30
0.0
 10
600.9750607633791
 20
483.6387487921841
 30
0.0
 10
601.1026169159351
 20
483.7331487640734
 30
0.0
 10
601.1381859185569
 20
483.7993984148567
 30
0.0
 10
601.1562265320538
 20
483.833000266356
 30
0.0
  0
LINE
  5
75
330
1F
100
AcDbEntity
  8
0
  6
Continuous
 62
     7
370
    25
100
AcDbLine
 10
563.5323469995
 20
483.1889912663
 30
0.0
 11
599.7323469995
 21
483.1889912663
 31
0.0
  0
SPLINE
  5
76
330
1F
100
AcDbEntity
  8
0
  6
Continuous
 62
     7
370
    25
100
AcDbSpline
210
0.0
220
0.0
230
1.0
 70
     8
 71
     3
 72
    10
 73
     6
 74
     0
 42
0.00000001
 43
0.00000001
 40
0.0
 40
0.0
 40
0.0
 40
0.0
 40
0.3274285650656184
 40
0.6639672068206693
 40
1.0
 40
1.0
 40
1.0
 40
1.0
 10
602.9312938914644
 20
484.7126191211771
 30
0.0
 10
603.1167347391865
 20
484.7101641103343
 30
0.0
 10
603.492775973304
 20
484.7051857826441
 30
0.0
 10
604.0136170834735
 20
484.6909015215106
 30
0.0
 10
604.3067655518182
 20
484.6775668228681
 30
0.0
 10
604.4532295458527
 20
484.6709044881355
 30
0.0
  0
SPLINE
  5
77
330
1F
100
AcDbEntity
  8
0
  6
Continuous
 62
     7
370
    25
100
AcDbSpline
210
0.0
220
0.0
230
1.0
 70
     8
 71
     3
 72
    10
 73
     6
 74
     0
 42
0.00000001
 43
0.00000001
 40
0.0
 40
0.0
 40
0.0
 40
0.0
 40
0.3284379545068335
 40
0.6638373480173154
 40
1.0
 40
1.0
 40
1.0
 40
1.0
 10
559.2749172297869
 20
484.6902287660135
 30
0.0
 10
559.4413627506634
 20
484.6952215207165
 30
0.0
 10
559.7777817048426
 20
484.7053128545464
 30
0.0
 10
560.3471641359647
 20
484.7140605257583
 30
0.0
 10
560.7417170780892
 20
484.7151944372233
 30
0.0
 10
560.939217762147
 20
484.7157620373247
 30
0.0
  0
LINE
  5
78
330
1F
100
AcDbEntity
  8
0
  6
Continuous
 62
     7
370
    25
100
AcDbLine
 10
560.9392177621
 20
484.7013344176
 30
0.0
 11
602.3254762369
 21
484.7013344176
 31
0.0
  0
ARC
  5
79
330
1F
100
AcDbEntity
  8
0
  6
Continuous
 62
     7
370
    25
100
AcDbCircle
 10
599.857004618
 20
481.4626878529
 30
0.0
 40
2.411265740501853
100
AcDbArc
 50
81.0448095014
 51
92.9633983002
  0
LINE
  5
7A
330
1F
100
AcDbEntity
  8
0
  6
Continuous
 62
     7
370
    25
100
AcDbLine
 10
599.7323469995
 20
483.8707291627
 30
0.0
 11
563.5323469995
 21
483.8707291627
 31
0.0
  0
ARC
  5
7B
330
1F
100
AcDbEntity
  8
0
  6
Continuous
 62
     7
370
    25
100
AcDbCircle
 10
563.4076893811
 20
481.4626878529
 30
0.0
 40
2.411265740499077
100
AcDbArc
 50
87.0366016998
 51
98.9551904986
  0
LINE
  5
7C
330
1F
100
AcDbEntity
  8
0
  6
Continuous
 62
     7
370
    25
100
AcDbLine
 10
600.2323469995
 20
483.2165297096
 30
0.0
 11
600.2323469995
 21
483.8445611845
 31
0.0
  0
ARC
  5
7D
330
1F
100
AcDbEntity
  8
0
  6
Continuous
 62
     7
370
    25
100
AcDbCircle
 10
599.857004618
 20
485.5984030413
 30
0.0
 40
2.411265740500391
100
AcDbArc
 50
267.0366016998
 51
278.9551904986
  0
LINE
  5
7E
330
1F
100
AcDbEntity
  8
0
  6
Continuous
 62
     7
370
    25
100
AcDbLine
 10
563.5323469995
 20
483.1903617315
 30
0.0
 11
599.7323469995
 21
483.1903617315
 31
0.0
  0
ARC
  5
7F
330
1F
100
AcDbEntity
  8
0
  6
Continuous
 62
     7
370
    25
100
AcDbCircle
 10
563.4076893811
 20
485.5984030413
 30
0.0
 40
2.411265740505764
100
AcDbArc
 50
261.0448095014
 51
272.9633983002
  0
LINE
  5
80
330
1F
100
AcDbEntity
  8
0
  6
Continuous
 62
     7
370
    25
100
AcDbLine
 10
563.0323469995
 20
483.8445611845
 30
0.0
 11
563.0323469995
 21
483.2165297096
 31
0.0
  0
LINE
  5
81
330
1F
100
AcDbEntity
  8
0
  6
Continuous
 62
     7
370
    25
100
AcDbLine
 10
601.2323469995
 20
484.7013344176
 30
0.0
 11
601.2323469995
 21
484.2151592444
 31
0.0
  0
LWPOLYLINE
  5
82
330
1F
100
AcDbEntity
  8
0
  6
Continuous
 62
     7
370
    25
100
AcDbPolyline
 90
        4
 70
   128
 43
0.0
 10
601.2323469995
 20
484.2151592444
 10
601.2131322799
 20
484.0203362869
 10
601.1562265321
 20
483.8330002664
 10
601.1561500306
 20
483.8328158807
  0
LWPOLYLINE
  5
83
330
1F
100
AcDbEntity
  8
0
  6
Continuous
 62
     7
370
    25
100
AcDbPolyline
 90
        3
 70
   128
 43
0.0
 10
562.1083919331
 20
483.8331824223
 10
562.0515617191
 20
484.0203362869
 10
562.0323469995
 20
484.2151592444
  0
LINE
  5
84
330
1F
100
AcDbEntity
  8
0
  6
Continuous
 62
     7
370
    25
100
AcDbLine
 10
562.0323469995
 20
484.2151592444
 30
0.0
 11
562.0323469995
 21
484.7013344176
 31
0.0
  0
LINE
  5
85
330
1F
100
AcDbEntity
  8
0
  6
Continuous
 62
     7
370
    25
100
AcDbLine
 10
554.1323469995
 20
485.3536476407
 30
0.0
 11
554.1323469995
 21
484.7644562152
 31
0.0
  0
ARC
  5
86
330
1F
100
AcDbEntity
  8
0
  6
Continuous
 62
     7
370
    25
100
AcDbCircle
 10
555.6337165257
 20
475.2369628886
 30
0.0
 40
9.645062962010607
100
AcDbArc
 50
87.0366016998
 51
98.9551904986
  0
LINE
  5
87
330
1F
100
AcDbEntity
  8
0
  6
Continuous
 62
     7
370
    25
100
AcDbLine
 10
556.1323469995
 20
484.8691281276
 30
0.0
 11
607.1323469995
 21
484.8691281276
 31
0.0
  0
LINE
  5
88
330
1F
100
AcDbEntity
  8
0
  6
Continuous
 62
     7
370
    25
100
AcDbLine
 10
554.1323469995
 20
483.4037213528
 30
0.0
 11
554.1323469995
 21
484.7644562152
 31
0.0
  0
ARC
  5
89
330
1F
100
AcDbEntity
  8
0
  6
Continuous
 62
     7
370
    25
100
AcDbCircle
 10
607.6309774734
 20
475.2369628886
 30
0.0
 40
9.645062962009916
100
AcDbArc
 50
81.0448095014
 51
92.9633983002
  0
LINE
  5
8A
330
1F
100
AcDbEntity
  8
0
  6
Continuous
 62
     7
370
    25
100
AcDbLine
 10
609.1323469995
 20
484.7644562152
 30
0.0
 11
609.1323469995
 21
483.4037213528
 31
0.0
  0
ARC
  5
8B
330
1F
100
AcDbEntity
  8
0
  6
Continuous
 62
     7
370
    25
100
AcDbCircle
 10
607.6309774734
 20
492.9312146794
 30
0.0
 40
9.645062962007888
100
AcDbArc
 50
267.0366016998
 51
278.9551904986
  0
LINE
  5
8C
330
1F
100
AcDbEntity
  8
0
  6
Continuous
 62
     7
370
    25
100
AcDbLine
 10
607.1323469995
 20
483.2990494404
 30
0.0
 11
599.9508206733
 21
483.2990494404
 31
0.0
  0
LINE
  5
8D
330
1F
100
AcDbEntity
  8
0
  6
Continuous
 62
     7
370
    25
100
AcDbLine
 10
563.3138733258
 20
483.2990494404
 30
0.0
 11
556.1323469995
 21
483.2990494404
 31
0.0
  0
ARC
  5
8E
330
1F
100
AcDbEntity
  8
0
  6
Continuous
 62
     7
370
    25
100
AcDbCircle
 10
555.6337165257
 20
492.9312146794
 30
0.0
 40
9.645062962012695
100
AcDbArc
 50
261.0448095014
 51
272.9633983002
  0
SPLINE
  5
8F
330
1F
100
AcDbEntity
  8
0
  6
Continuous
 62
     7
370
    25
100
AcDbSpline
210
0.0
220
0.0
230
1.0
 70
     8
 71
     3
 72
     9
 73
     5
 74
     0
 42
0.00000001
 43
0.00000001
 40
0.0
 40
0.0
 40
0.0
 40
0.0
 40
0.559471733305981
 40
1.0
 40
1.0
 40
1.0
 40
1.0
 10
558.6131353162995
 20
483.5152381969534
 30
0.0
 10
558.308388987015
 20
483.5354075250875
 30
0.0
 10
557.7636852760987
 20
483.5714581902654
 30
0.0
 10
557.6859984856053
 20
483.6169399467198
 30
0.0
 10
557.6517752584442
 20
483.6369759460567
 30
0.0
  0
SPLINE
  5
90
330
1F
100
AcDbEntity
  8
0
  6
Continuous
 62
     7
370
    25
100
AcDbSpline
210
0.0
220
0.0
230
1.0
 70
     8
 71
     3
 72
     9
 73
     5
 74
     0
 42
0.00000001
 43
0.00000001
 40
0.0
 40
0.0
 40
0.0
 40
0.0
 40
0.5604800890566426
 40
1.0
 40
1.0
 40
1.0
 40
1.0
 10
560.9392177621471
 20
483.4649244990318
 30
0.0
 10
560.4502149158326
 20
483.4678763255112
 30
0.0
 10
559.5777435187891
 20
483.4731429291554
 30
0.0
 10
558.907653306659
 20
483.5023855033483
 30
0.0
 10
558.6131353162995
 20
483.5152381969534
 30
0.0
  0
SPLINE
  5
91
330
1F
100
AcDbEntity
  8
0
  6
Continuous
 62
     7
370
    25
100
AcDbSpline
210
0.0
220
0.0
230
1.0
 70
     8
 71
     3
 72
     9
 73
     5
 74
     0
 42
0.00000001
 43
0.00000001
 40
0.0
 40
0.0
 40
0.0
 40
0.0
 40
0.5594717333059739
 40
1.0
 40
1.0
 40
1.0
 40
1.0
 10
604.6515586827858
 20
483.5152381969534
 30
0.0
 10
604.266176823317
 20
483.4992890063988
 30
0.0
 10
603.5773451334807
 20
483.4707814168189
 30
0.0
 10
602.7083105400703
 20
483.4667156043511
 30
0.0
 10
602.3254762369382
 20
483.4649244990318
 30
0.0
  0
SPLINE
  5
92
330
1F
100
AcDbEntity
  8
0
  6
Continuous
 62
     7
370
    25
100
AcDbSpline
210
0.0
220
0.0
230
1.0
 70
     8
 71
     3
 72
     9
 73
     5
 74
     0
 42
0.00000001
 43
0.00000001
 40
0.0
 40
0.0
 40
0.0
 40
0.0
 40
0.5604800890566343
 40
1.0
 40
1.0
 40
1.0
 40
1.0
 10
605.6129187406409
 20
483.6369759460567
 30
0.0
 10
605.5565172398119
 20
483.6113835144894
 30
0.0
 10
605.4558865449302
 20
483.5657218896305
 30
0.0
 10
604.8971392458968
 20
483.5306520776097
 30
0.0
 10
604.6515586827858
 20
483.5152381969534
 30
0.0
  0
LINE
  5
93
330
1F
100
AcDbEntity
  8
0
  6
Continuous
 62
     7
370
    25
100
AcDbLine
 10
605.6129187406
 20
484.5312016219
 30
0.0
 11
605.6129187406
 21
483.6369759461
 31
0.0
  0
SPLINE
  5
94
330
1F
100
AcDbEntity
  8
0
  6
Continuous
 62
     7
370
    25
100
AcDbSpline
210
0.0
220
0.0
230
1.0
 70
     8
 71
     3
 72
     9
 73
     5
 74
     0
 42
0.00000001
 43
0.00000001
 40
0.0
 40
0.0
 40
0.0
 40
0.0
 40
0.559471733305981
 40
1.0
 40
1.0
 40
1.0
 40
1.0
 10
604.6515586827858
 20
484.6529393710524
 30
0.0
 10
604.9563050120702
 20
484.6327700429183
 30
0.0
 10
605.5010087229864
 20
484.5967193777403
 30
0.0
 10
605.5786955134798
 20
484.551237621286
 30
0.0
 10
605.6129187406409
 20
484.531201621949
 30
0.0
  0
SPLINE
  5
95
330
1F
100
AcDbEntity
  8
0
  6
Continuous
 62
     7
370
    25
100
AcDbSpline
210
0.0
220
0.0
230
1.0
 70
     8
 71
     3
 72
     9
 73
     5
 74
     0
 42
0.00000001
 43
0.00000001
 40
0.0
 40
0.0
 40
0.0
 40
0.0
 40
0.5604800890566334
 40
1.0
 40
1.0
 40
1.0
 40
1.0
 10
602.3254762369382
 20
484.703253068974
 30
0.0
 10
602.8144790832525
 20
484.7003012424945
 30
0.0
 10
603.6869504802961
 20
484.6950346388505
 30
0.0
 10
604.3570406924264
 20
484.6657920646574
 30
0.0
 10
604.6515586827858
 20
484.6529393710524
 30
0.0
  0
LINE
  5
96
330
1F
100
AcDbEntity
  8
0
  6
Continuous
 62
     7
370
    25
100
AcDbLine
 10
560.9392177621
 20
484.703253069
 30
0.0
 11
602.3254762369
 21
484.703253069
 31
0.0
  0
SPLINE
  5
97
330
1F
100
AcDbEntity
  8
0
  6
Continuous
 62
     7
370
    25
100
AcDbSpline
210
0.0
220
0.0
230
1.0
 70
     8
 71
     3
 72
     9
 73
     5
 74
     0
 42
0.00000001
 43
0.00000001
 40
0.0
 40
0.0
 40
0.0
 40
0.0
 40
0.5594717333059739
 40
1.0
 40
1.0
 40
1.0
 40
1.0
 10
558.6131353162995
 20
484.6529393710524
 30
0.0
 10
558.9985171757683
 20
484.6688885616069
 30
0.0
 10
559.6873488656045
 20
484.6973961511868
 30
0.0
 10
560.5563834590147
 20
484.7014619636548
 30
0.0
 10
560.939217762147
 20
484.703253068974
 30
0.0
  0
SPLINE
  5
98
330
1F
100
AcDbEntity
  8
0
  6
Continuous
 62
     7
370
    25
100
AcDbSpline
210
0.0
220
0.0
230
1.0
 70
     8
 71
     3
 72
     9
 73
     5
 74
     0
 42
0.00000001
 43
0.00000001
 40
0.0
 40
0.0
 40
0.0
 40
0.0
 40
0.5604800890566343
 40
1.0
 40
1.0
 40
1.0
 40
1.0
 10
557.6517752584442
 20
484.531201621949
 30
0.0
 10
557.7081767592733
 20
484.5567940535164
 30
0.0
 10
557.8088074541549
 20
484.6024556783752
 30
0.0
 10
558.3675547531883
 20
484.6375254903962
 30
0.0
 10
558.6131353162995
 20
484.6529393710524
 30
0.0
  0
LINE
  5
99
330
1F
100
AcDbEntity
  8
0
  6
Continuous
 62
     7
370
    25
100
AcDbLine
 10
557.6517752584
 20
483.6369759461
 30
0.0
 11
557.6517752584
 21
484.5312016219
 31
0.0
  0
LINE
  5
9A
330
1F
100
AcDbEntity
  8
0
  6
Continuous
 62
     7
370
    25
100
AcDbLine
 10
609.1323469995
 20
485.3536476407
 30
0.0
 11
609.1323469995
 21
484.7644562152
 31
0.0
  0
LINE
  5
9B
330
1F
100
AcDbEntity
  8
0
  6
Continuous
 62
     7
370
    25
100
AcDbLine
 10
777.6323751891
 20
586.2468649343
 30
0.0
 11
777.1499799253
 21
586.2468649343
 31
0.0
  0
LINE
  5
9C
330
1F
100
AcDbEntity
  8
0
  6
Continuous
 62
     7
370
    25
100
AcDbLine
 10
776.9753355114
 20
585.9721633888
 30
0.0
 11
777.1499799253
 21
586.2468649343
 31
0.0
  0
LINE
  5
9D
330
1F
100
AcDbEntity
  8
0
  6
Continuous
 62
     7
370
    25
100
AcDbLine
 10
777.6323751891
 20
586.2468649343
 30
0.0
 11
777.6323751891
 21
585.9721633888
 31
0.0
  0
ELLIPSE
  5
9E
330
1F
100
AcDbEntity
  8
0
  6
Continuous
 62
     7
370
    25
100
AcDbEllipse
 10
772.4937769023
 20
578.923033967
 30
0.0
 11
7.313111706629115
 21
7.837202391757614
 31
0.0
210
0.0
220
0.0
230
1.0
 40
0.2453475563
 41
0.6503308592568315
 42
0.7267732739934419
  0
LINE
  5
9F
330
1F
100
AcDbEntity
  8
0
  6
Continuous
 62
     7
370
    25
100
AcDbLine
 10
754.114770453
 20
586.2468649343
 30
0.0
 11
753.6323751891
 21
586.2468649343
 31
0.0
  0
LINE
  5
A0
330
1F
100
AcDbEntity
  8
0
  6
Continuous
 62
     7
370
    25
100
AcDbLine
 10
754.2894148668
 20
585.9721633888
 30
0.0
 11
754.114770453
 21
586.2468649343
 31
0.0
  0
LINE
  5
A1
330
1F
100
AcDbEntity
  8
0
  6
Continuous
 62
     7
370
    25
100
AcDbLine
 10
753.6323751891
 20
586.2468649343
 30
0.0
 11
753.6323751891
 21
585.9721633888
 31
0.0
  0
ELLIPSE
  5
A2
330
1F
100
AcDbEntity
  8
0
  6
Continuous
 62
     7
370
    25
100
AcDbEllipse
 10
758.770973476
 20
578.923033967
 30
0.0
 11
-7.313111706629115
 21
7.837202391757614
 31
0.0
210
0.0
220
0.0
230
1.0
 40
0.2453475563
 41
5.556412033186179
 42
5.632854447922842
  0
LINE
  5
A3
330
1F
100
AcDbEntity
  8
0
  6
Continuous
 62
     7
370
    25
100
AcDbLine
 10
181.6323751891
 20
65.6974618433
 30
0.0
 11
182.114770453
 21
65.6974618433
 31
0.0
  0
LINE
  5
A4
330
1F
100
AcDbEntity
  8
0
  6
Continuous
 62
     7
370
    25
100
AcDbLine
 10
182.2894148668
 20
65.9721633888
 30
0.0
 11
182.114770453
 21
65.6974618433
 31
0.0
  0
LINE
  5
A5
330
1F
100
AcDbEntity
  8
0
  6
Continuous
 62
     7
370
    25
100
AcDbLine
 10
181.6323751891
 20
65.6974618433
 30
0.0
 11
181.6323751891
 21
65.9721633888
 31
0.0
  0
ELLIPSE
  5
A6
330
1F
100
AcDbEntity
  8
0
  6
Continuous
 62
     7
370
    25
100
AcDbEllipse
 10
186.770973476
 20
73.0212928106
 30
0.0
 11
7.313111706629088
 21
7.837202391757729
 31
0.0
210
0.0
220
0.0
230
1.0
 40
0.2453475563
 41
3.791923512846657
 42
3.868365927583336
  0
LINE
  5
A7
330
1F
100
AcDbEntity
  8
0
  6
Continuous
 62
     7
370
    25
100
AcDbLine
 10
205.1499799253
 20
65.6974618433
 30
0.0
 11
205.6323751891
 21
65.6974618433
 31
0.0
  0
LINE
  5
A8
330
1F
100
AcDbEntity
  8
0
  6
Continuous
 62
     7
370
    25
100
AcDbLine
 10
204.9753355114
 20
65.9721633888
 30
0.0
 11
205.1499799253
 21
65.6974618433
 31
0.0
  0
LINE
  5
A9
330
1F
100
AcDbEntity
  8
0
  6
Continuous
 62
     7
370
    25
100
AcDbLine
 10
205.6323751891
 20
65.6974618433
 30
0.0
 11
205.6323751891
 21
65.9721633888
 31
0.0
  0
ELLIPSE
  5
AA
330
1F
100
AcDbEntity
  8
0
  6
Continuous
 62
     7
370
    25
100
AcDbEllipse
 10
200.4937769023
 20
73.0212928106
 30
0.0
 11
-7.313111706629143
 21
7.837202391757643
 31
0.0
210
0.0
220
0.0
230
1.0
 40
0.2453475563
 41
2.414819379596283
 42
2.491261794332994
  0
ELLIPSE
  5
AB
330
1F
100
AcDbEntity
  8
0
  6
Continuous
 62
     7
370
    25
100
AcDbEllipse
 10
758.770973476
 20
73.0212928106
 30
0.0
 11
7.313111706629001
 21
7.837202391757727
 31
0.0
210
0.0
220
0.0
230
1.0
 40
0.2453475563
 41
3.791923512846654
 42
3.86836592758325
  0
LINE
  5
AC
330
1F
100
AcDbEntity
  8
0
  6
Continuous
 62
     7
370
    25
100
AcDbLine
 10
754.2894148668
 20
65.9721633888
 30
0.0
 11
754.114770453
 21
65.6974618433
 31
0.0
  0
LINE
  5
AD
330
1F
100
AcDbEntity
  8
0
  6
Continuous
 62
     7
370
    25
100
AcDbLine
 10
753.6323751891
 20
65.6974618433
 30
0.0
 11
754.114770453
 21
65.6974618433
 31
0.0
  0
LINE
  5
AE
330
1F
100
AcDbEntity
  8
0
  6
Continuous
 62
     7
370
    25
100
AcDbLine
 10
753.6323751891
 20
65.6974618433
 30
0.0
 11
753.6323751891
 21
65.9721633888
 31
0.0
  0
LINE
  5
AF
330
1F
100
AcDbEntity
  8
0
  6
Continuous
 62
     7
370
    25
100
AcDbLine
 10
777.1499799253
 20
65.6974618433
 30
0.0
 11
777.6323751891
 21
65.6974618433
 31
0.0
  0
LINE
  5
B0
330
1F
100
AcDbEntity
  8
0
  6
Continuous
 62
     7
370
    25
100
AcDbLine
 10
776.9753355114
 20
65.9721633888
 30
0.0
 11
777.1499799253
 21
65.6974618433
 31
0.0
  0
LINE
  5
B1
330
1F
100
AcDbEntity
  8
0
  6
Continuous
 62
     7
370
    25
100
AcDbLine
 10
777.6323751891
 20
65.6974618433
 30
0.0
 11
777.6323751891
 21
65.9721633888
 31
0.0
  0
ELLIPSE
  5
B2
330
1F
100
AcDbEntity
  8
0
  6
Continuous
 62
     7
370
    25
100
AcDbEllipse
 10
772.4937769023
 20
73.0212928106
 30
0.0
 11
-7.313111706629002
 21
7.837202391757642
 31
0.0
210
0.0
220
0.0
230
1.0
 40
0.2453475563
 41
2.41481937959646
 42
2.491261794333032
  0
LINE
  5
B3
330
1F
100
AcDbEntity
  8
0
  6
Continuous
 62
     7
370
    25
100
AcDbLine
 10
596.8323751891
 20
586.2468649343
 30
0.0
 11
596.3499799253
 21
586.2468649343
 31
0.0
  0
LINE
  5
B4
330
1F
100
AcDbEntity
  8
0
  6
Continuous
 62
     7
370
    25
100
AcDbLine
 10
596.1753355114
 20
585.9721633888
 30
0.0
 11
596.3499799253
 21
586.2468649343
 31
0.0
  0
LINE
  5
B5
330
1F
100
AcDbEntity
  8
0
  6
Continuous
 62
     7
370
    25
100
AcDbLine
 10
596.8323751891
 20
586.2468649343
 30
0.0
 11
596.8323751891
 21
585.9721633888
 31
0.0
  0
ELLIPSE
  5
B6
330
1F
100
AcDbEntity
  8
0
  6
Continuous
 62
     7
370
    25
100
AcDbEllipse
 10
591.6937769023
 20
578.923033967
 30
0.0
 11
7.31311170662889
 21
7.837202391757615
 31
0.0
210
0.0
220
0.0
230
1.0
 40
0.2453475563
 41
0.6503308592568269
 42
0.7267732739933359
  0
LINE
  5
B7
330
1F
100
AcDbEntity
  8
0
  6
Continuous
 62
     7
370
    25
100
AcDbLine
 10
573.314770453
 20
586.2468649343
 30
0.0
 11
572.8323751891
 21
586.2468649343
 31
0.0
  0
LINE
  5
B8
330
1F
100
AcDbEntity
  8
0
  6
Continuous
 62
     7
370
    25
100
AcDbLine
 10
573.4894148668
 20
585.9721633888
 30
0.0
 11
573.314770453
 21
586.2468649343
 31
0.0
  0
LINE
  5
B9
330
1F
100
AcDbEntity
  8
0
  6
Continuous
 62
     7
370
    25
100
AcDbLine
 10
572.8323751891
 20
586.2468649343
 30
0.0
 11
572.8323751891
 21
585.9721633888
 31
0.0
  0
ELLIPSE
  5
BA
330
1F
100
AcDbEntity
  8
0
  6
Continuous
 62
     7
370
    25
100
AcDbEllipse
 10
577.970973476
 20
578.923033967
 30
0.0
 11
-7.313111706629115
 21
7.837202391757614
 31
0.0
210
0.0
220
0.0
230
1.0
 40
0.2453475563
 41
5.556412033186295
 42
5.632854447922827
  0
ELLIPSE
  5
BB
330
1F
100
AcDbEntity
  8
0
  6
Continuous
 62
     7
370
    25
100
AcDbEllipse
 10
200.4937769023
 20
578.923033967
 30
0.0
 11
7.313111706629059
 21
7.837202391757727
 31
0.0
210
0.0
220
0.0
230
1.0
 40
0.2453475563
 41
0.6503308592568185
 42
0.7267732739929836
  0
LINE
  5
BC
330
1F
100
AcDbEntity
  8
0
  6
Continuous
 62
     7
370
    25
100
AcDbLine
 10
204.9753355114
 20
585.9721633888
 30
0.0
 11
205.1499799253
 21
586.2468649343
 31
0.0
  0
LINE
  5
BD
330
1F
100
AcDbEntity
  8
0
  6
Continuous
 62
     7
370
    25
100
AcDbLine
 10
205.6323751891
 20
586.2468649343
 30
0.0
 11
205.1499799253
 21
586.2468649343
 31
0.0
  0
LINE
  5
BE
330
1F
100
AcDbEntity
  8
0
  6
Continuous
 62
     7
370
    25
100
AcDbLine
 10
205.6323751891
 20
586.2468649343
 30
0.0
 11
205.6323751891
 21
585.9721633888
 31
0.0
  0
LINE
  5
BF
330
1F
100
AcDbEntity
  8
0
  6
Continuous
 62
     7
370
    25
100
AcDbLine
 10
182.114770453
 20
586.2468649343
 30
0.0
 11
181.6323751891
 21
586.2468649343
 31
0.0
  0
LINE
  5
C0
330
1F
100
AcDbEntity
  8
0
  6
Continuous
 62
     7
370
    25
100
AcDbLine
 10
182.2894148668
 20
585.9721633888
 30
0.0
 11
182.114770453
 21
586.2468649343
 31
0.0
  0
LINE
  5
C1
330
1F
100
AcDbEntity
  8
0
  6
Continuous
 62
     7
370
    25
100
AcDbLine
 10
181.6323751891
 20
586.2468649343
 30
0.0
 11
181.6323751891
 21
585.9721633888
 31
0.0
  0
ELLIPSE
  5
C2
330
1F
100
AcDbEntity
  8
0
  6
Continuous
 62
     7
370
    25
100
AcDbEllipse
 10
186.770973476
 20
578.923033967
 30
0.0
 11
-7.313111706629144
 21
7.837202391757727
 31
0.0
210
0.0
220
0.0
230
1.0
 40
0.2453475563
 41
5.556412033186669
 42
5.632854447922844
  0
LINE
  5
C3
330
1F
100
AcDbEntity
  8
0
  6
Continuous
 62
     7
370
    25
100
AcDbLine
 10
781.557877737
 20
126.9721633888
 30
0.0
 11
781.557877737
 21
461.9721633888
 31
0.0
  0
LINE
  5
C4
330
1F
100
AcDbEntity
  8
0
  6
Continuous
 62
     7
370
    25
100
AcDbLine
 10
381.7068726412
 20
461.9721633888
 30
0.0
 11
381.7068726412
 21
126.9721633888
 31
0.0
  0
ARC
  5
C5
330
1F
100
AcDbEntity
  8
0
  6
Continuous
 62
     7
370
    25
100
AcDbCircle
 10
756.6323751891
 20
126.9721633888
 30
0.0
 40
24.92550254794048
100
AcDbArc
 50
270.0
 51
0.0
  0
LINE
  5
C6
330
1F
100
AcDbEntity
  8
0
  6
Continuous
 62
     7
370
    25
100
AcDbLine
 10
756.6323751891
 20
486.8976659367
 30
0.0
 11
406.6323751891
 21
486.8976659367
 31
0.0
  0
ARC
  5
C7
330
1F
100
AcDbEntity
  8
0
  6
Continuous
 62
     7
370
    25
100
AcDbCircle
 10
756.6323751891
 20
461.9721633888
 30
0.0
 40
24.92550254794048
100
AcDbArc
 50
0.0
 51
90.0
  0
ARC
  5
C8
330
1F
100
AcDbEntity
  8
0
  6
Continuous
 62
     7
370
    25
100
AcDbCircle
 10
406.6323751891
 20
461.9721633888
 30
0.0
 40
24.92550254794037
100
AcDbArc
 50
90.0
 51
180.0
  0
LINE
  5
C9
330
1F
100
AcDbEntity
  8
0
  6
Continuous
 62
     7
370
    25
100
AcDbLine
 10
406.6323751891
 20
102.0466608409
 30
0.0
 11
756.6323751891
 21
102.0466608409
 31
0.0
  0
ARC
  5
CA
330
1F
100
AcDbEntity
  8
0
  6
Continuous
 62
     7
370
    25
100
AcDbCircle
 10
406.6323751891
 20
126.9721633888
 30
0.0
 40
24.92550254794048
100
AcDbArc
 50
180.0
 51
270.0
  0
SPLINE
  5
CB
330
1F
100
AcDbEntity
  8
0
  6
Continuous
 62
     7
370
    25
100
AcDbSpline
210
0.0
220
0.0
230
1.0
 70
     8
 71
     3
 72
    15
 73
    11
 74
     0
 42
0.00000001
 43
0.00000001
 40
0.0
 40
0.0
 40
0.0
 40
0.0
 40
0.1277272276677288
 40
0.2500006214602875
 40
0.3758169348150601
 40
0.5000000007319619
 40
0.6241812975144796
 40
0.7499993797180422
 40
0.8722718141150908
 40
0.9999999999999999
 40
0.9999999999999999
 40
0.9999999999999999
 40
0.9999999999999999
 10
406.632375189107
 20
109.3430176309133
 30
0.0
 10
405.4551587182182
 20
109.4141730100224
 30
0.0
 10
403.1509918253057
 20
109.5534454997045
 30
0.0
 10
399.8232199945755
 20
110.6146006667322
 30
0.0
 10
396.7813371423893
 20
112.2359462210203
 30
0.0
 10
394.1023751660316
 20
114.4421403884052
 30
0.0
 10
391.8961674485541
 20
117.121111289438
 30
0.0
 10
390.2748215475091
 20
120.1629847992835
 30
0.0
 10
389.2136592179423
 20
123.4907710786505
 30
0.0
 10
389.0743858123957
 20
125.7949380438761
 30
0.0
 10
389.0032294312139
 20
126.9721633888064
 30
0.0
  0
LINE
  5
CC
330
1F
100
AcDbEntity
  8
0
  6
Continuous
 62
     7
370
    25
100
AcDbLine
 10
406.6323751891
 20
102.0466608409
 30
0.0
 11
406.6323751891
 21
109.3430176309
 31
0.0
  0
LINE
  5
CD
330
1F
100
AcDbEntity
  8
0
  6
Continuous
 62
     7
370
    25
100
AcDbLine
 10
381.7068726412
 20
126.9721633888
 30
0.0
 11
389.0032294312
 21
126.9721633888
 31
0.0
  0
LINE
  5
CE
330
1F
100
AcDbEntity
  8
0
  6
Continuous
 62
     7
370
    25
100
AcDbLine
 10
406.6344421218
 20
109.3520352314
 30
0.0
 11
406.6323751891
 21
109.3430176309
 31
0.0
  0
SPLINE
  5
CF
330
1F
100
AcDbEntity
  8
0
  6
Continuous
 62
     7
370
    25
100
AcDbSpline
210
0.0
220
0.0
230
1.0
 70
     8
 71
     3
 72
    14
 73
    10
 74
     0
 42
0.00000001
 43
0.00000001
 40
0.0
 40
0.0
 40
0.0
 40
0.0
 40
0.1427477635401108
 40
0.2855033727887372
 40
0.4282496237593008
 40
0.5713184191744887
 40
0.7143969006257627
 40
0.8574667056505875
 40
1.0
 40
1.0
 40
1.0
 40
1.0
 10
756.630308256449
 20
109.3520352313926
 30
0.0
 10
739.9891351934289
 20
109.3960645107297
 30
0.0
 10
706.7058744345427
 20
109.4841254893434
 30
0.0
 10
656.7404195147978
 20
109.5661844892231
 30
0.0
 10
606.7210654302587
 20
109.6096926394329
 30
0.0
 10
556.6562317400357
 20
109.6094703730292
 30
0.0
 10
506.5613928562049
 20
109.5661967100099
 30
0.0
 10
456.5454162951632
 20
109.4841776325718
 30
0.0
 10
423.2505851953522
 20
109.396027501238
 30
0.0
 10
406.6344421217613
 20
109.3520352313926
 30
0.0
  0
LINE
  5
D0
330
1F
100
AcDbEntity
  8
0
  6
Continuous
 62
     7
370
    25
100
AcDbLine
 10
756.6323751891
 20
109.3430176309
 30
0.0
 11
756.6303082565
 21
109.3520352314
 31
0.0
  0
LINE
  5
D1
330
1F
100
AcDbEntity
  8
0
  6
Continuous
 62
     7
370
    25
100
AcDbLine
 10
756.6323751891
 20
102.0466608409
 30
0.0
 11
756.6323751891
 21
109.3430176309
 31
0.0
  0
SPLINE
  5
D2
330
1F
100
AcDbEntity
  8
0
  6
Continuous
 62
     7
370
    25
100
AcDbSpline
210
0.0
220
0.0
230
1.0
 70
     8
 71
     3
 72
    15
 73
    11
 74
     0
 42
0.00000001
 43
0.00000001
 40
0.0
 40
0.0
 40
0.0
 40
0.0
 40
0.1400191845667821
 40
0.2800377847322004
 40
0.4202066507474473
 40
0.5603762640975245
 40
0.6702566316477283
 40
0.7801372314471052
 40
0.8900685601095119
 40
0.9999999999999999
 40
0.9999999999999999
 40
0.9999999999999999
 40
0.9999999999999999
 10
773.7904640094475
 20
461.9682863772068
 30
0.0
 10
773.7699872108559
 20
446.324305524892
 30
0.0
 10
773.7290336991372
 20
415.0364091139131
 30
0.0
 10
773.7180251348267
 20
368.0713314033326
 30
0.0
 10
773.7462266916613
 20
321.0935937552341
 30
0.0
 10
773.8097476629438
 20
277.4977061216001
 30
0.0
 10
773.896169146873
 20
237.3049448088195
 30
0.0
 10
773.9970530794053
 20
200.5084044682744
 30
0.0
 10
774.1168578395758
 20
163.7264807180693
 30
0.0
 10
774.2132998949287
 20
139.2236066305436
 30
0.0
 10
774.2615209470001
 20
126.9721633888062
 30
0.0
  0
LINE
  5
D3
330
1F
100
AcDbEntity
  8
0
  6
Continuous
 62
     7
370
    25
100
AcDbLine
 10
773.8031832795
 20
461.9721633888
 30
0.0
 11
773.7904640094
 21
461.9682863772
 31
0.0
  0
LINE
  5
D4
330
1F
100
AcDbEntity
  8
0
  6
Continuous
 62
     7
370
    25
100
AcDbLine
 10
781.557877737
 20
461.9721633888
 30
0.0
 11
773.8031832795
 21
461.9721633888
 31
0.0
  0
LINE
  5
D5
330
1F
100
AcDbEntity
  8
0
  6
Continuous
 62
     7
370
    25
100
AcDbLine
 10
781.557877737
 20
126.9721633888
 30
0.0
 11
774.261520947
 21
126.9721633888
 31
0.0
  0
SPLINE
  5
D6
330
1F
100
AcDbEntity
  8
0
  6
Continuous
 62
     7
370
    25
100
AcDbSpline
210
0.0
220
0.0
230
1.0
 70
     8
 71
     3
 72
    15
 73
    11
 74
     0
 42
0.00000001
 43
0.00000001
 40
0.0
 40
0.0
 40
0.0
 40
0.0
 40
0.1277272283326722
 40
0.250000621460112
 40
0.3758169354124254
 40
0.5000000007317811
 40
0.6241812975162032
 40
0.7499993797179475
 40
0.8722718141171234
 40
1.0
 40
1.0
 40
1.0
 40
1.0
 10
774.2615209470001
 20
126.9721633888064
 30
0.0
 10
774.1903655671994
 20
125.7949469117614
 30
0.0
 10
774.0510930768883
 20
123.4907800187965
 30
0.0
 10
772.9899379066142
 20
120.1630081835927
 30
0.0
 10
771.3685923537272
 20
117.1211253373182
 30
0.0
 10
769.1623981852251
 20
114.4421633622234
 30
0.0
 10
766.4834272884585
 20
112.2359556482359
 30
0.0
 10
763.4415537785972
 20
110.6146097471963
 30
0.0
 10
760.1137674992435
 20
109.5534474176368
 30
0.0
 10
757.809600534018
 20
109.4141740120927
 30
0.0
 10
756.632375189107
 20
109.3430176309133
 30
0.0
  0
SPLINE
  5
D7
330
1F
100
AcDbEntity
  8
0
  6
Continuous
 62
     7
370
    25
100
AcDbSpline
210
0.0
220
0.0
230
1.0
 70
     8
 71
     3
 72
    15
 73
    11
 74
     0
 42
0.00000001
 43
0.00000001
 40
0.0
 40
0.0
 40
0.0
 40
0.0
 40
0.1277272151590585
 40
0.2500006214650768
 40
0.3758169120575569
 40
0.5000000007394549
 40
0.6241812754042343
 40
0.7499993797227485
 40
0.8722718023273436
 40
1.0
 40
1.0
 40
1.0
 40
1.0
 10
756.632375189107
 20
479.1429714792167
 30
0.0
 10
757.7789852626189
 20
479.0736660714859
 30
0.0
 10
760.0232464453211
 20
478.9380145192148
 30
0.0
 10
763.2644998258564
 20
477.9044482655608
 30
0.0
 10
766.2272973143794
 20
476.325255848716
 30
0.0
 10
768.8366092298575
 20
474.176420377701
 30
0.0
 10
770.9854582336047
 20
471.5670995491086
 30
0.0
 10
772.5646509970113
 20
468.6043113906603
 30
0.0
 10
773.5982244040629
 20
465.3630435799074
 30
0.0
 10
773.733876871018
 20
463.1187823248038
 30
0.0
 10
773.8031832795174
 20
461.9721633888063
 30
0.0
  0
LINE
  5
D8
330
1F
100
AcDbEntity
  8
0
  6
Continuous
 62
     7
370
    25
100
AcDbLine
 10
756.6323751891
 20
486.8976659367
 30
0.0
 11
756.6323751891
 21
479.1429714792
 31
0.0
  0
LINE
  5
D9
330
1F
100
AcDbEntity
  8
0
  6
Continuous
 62
     7
370
    25
100
AcDbLine
 10
389.4742863687
 20
461.9682864034
 30
0.0
 11
389.4615670987
 21
461.9721633888
 31
0.0
  0
SPLINE
  5
DA
330
1F
100
AcDbEntity
  8
0
  6
Continuous
 62
     7
370
    25
100
AcDbSpline
210
0.0
220
0.0
230
1.0
 70
     8
 71
     3
 72
    13
 73
     9
 74
     0
 42
0.00000001
 43
0.00000001
 40
0.0
 40
0.0
 40
0.0
 40
0.0
 40
0.1664293762424089
 40
0.3328682573009776
 40
0.4992942274053385
 40
0.6661908465485263
 40
0.8331032776812829
 40
0.9999999999999999
 40
0.9999999999999999
 40
0.9999999999999999
 40
0.9999999999999999
 10
389.0032294312139
 20
126.9721633888064
 30
0.0
 10
389.0748903307124
 20
145.522101247152
 30
0.0
 10
389.2182162222781
 20
182.6230363546375
 30
0.0
 10
389.3752915375402
 20
238.3464814321316
 30
0.0
 10
389.4870781413172
 20
294.1612928749207
 30
0.0
 10
389.5422373456146
 20
350.0601851281302
 30
0.0
 10
389.5442558472826
 20
406.0239886769959
 30
0.0
 10
389.4976087965196
 20
443.3207722143734
 30
0.0
 10
389.4742863687262
 20
461.968286403417
 30
0.0
  0
LINE
  5
DB
330
1F
100
AcDbEntity
  8
0
  6
Continuous
 62
     7
370
    25
100
AcDbLine
 10
381.7068726412
 20
461.9721633888
 30
0.0
 11
389.4615670987
 21
461.9721633888
 31
0.0
  0
SPLINE
  5
DC
330
1F
100
AcDbEntity
  8
0
  6
Continuous
 62
     7
370
    25
100
AcDbSpline
210
0.0
220
0.0
230
1.0
 70
     8
 71
     3
 72
    15
 73
    11
 74
     0
 42
0.00000001
 43
0.00000001
 40
0.0
 40
0.0
 40
0.0
 40
0.0
 40
0.1366918975466712
 40
0.2733829199233769
 40
0.4102156772962545
 40
0.5470446163326574
 40
0.6602418527899319
 40
0.773440961014893
 40
0.8867203157131229
 40
1.0
 40
1.0
 40
1.0
 40
1.0
 10
406.632375189107
 20
479.1429714792167
 30
0.0
 10
422.5655172927639
 20
479.0956674066915
 30
0.0
 10
454.4316994881247
 20
479.0010595645053
 30
0.0
 10
502.2883242720529
 20
478.9017547381836
 30
0.0
 10
550.1835251419807
 20
478.8392312646689
 30
0.0
 10
595.3524206343856
 20
478.829664255128
 30
0.0
 10
637.7541931352317
 20
478.8677638681805
 30
0.0
 10
677.3911763364932
 20
478.9343596086235
 30
0.0
 10
717.0214672070505
 20
479.0241330549662
 30
0.0
 10
743.4287263896948
 20
479.1033586327151
 30
0.0
 10
756.632375189107
 20
479.1429714792167
 30
0.0
  0
LINE
  5
DD
330
1F
100
AcDbEntity
  8
0
  6
Continuous
 62
     7
370
    25
100
AcDbLine
 10
406.6323751891
 20
486.8976659367
 30
0.0
 11
406.6323751891
 21
479.1429714792
 31
0.0
  0
SPLINE
  5
DE
330
1F
100
AcDbEntity
  8
0
  6
Continuous
 62
     7
370
    25
100
AcDbSpline
210
0.0
220
0.0
230
1.0
 70
     8
 71
     3
 72
    15
 73
    11
 74
     0
 42
0.00000001
 43
0.00000001
 40
0.0
 40
0.0
 40
0.0
 40
0.0
 40
0.1277272144880673
 40
0.2500006214653442
 40
0.3758169114548393
 40
0.5000000007398313
 40
0.6241812747845892
 40
0.7499993797230142
 40
0.872271801637495
 40
1.0
 40
1.0
 40
1.0
 40
1.0
 10
389.4615670986967
 20
461.9721633888063
 30
0.0
 10
389.5308725057474
 20
463.1187734562671
 30
0.0
 10
389.6665240574001
 20
465.3630346389177
 30
0.0
 10
390.7000903078657
 20
468.6042880150563
 30
0.0
 10
392.2792827260773
 20
471.5670855093877
 30
0.0
 10
394.4281181924818
 20
474.1763974218044
 30
0.0
 10
397.0374390239822
 20
476.325246430097
 30
0.0
 10
400.0002271764588
 20
477.9044391920976
 30
0.0
 10
403.2414949917314
 20
478.9380126024269
 30
0.0
 10
405.4857562468885
 20
479.073665070018
 30
0.0
 10
406.632375189107
 20
479.1429714792167
 30
0.0
  0
LINE
  5
DF
330
1F
100
AcDbEntity
  8
0
  6
Continuous
 62
     7
370
    25
100
AcDbLine
 10
389.0032294312
 20
126.9721633888
 30
0.0
 11
389.0405818737
 21
126.9401205772
 31
0.0
  0
SPLINE
  5
E0
330
1F
100
AcDbEntity
  8
0
  6
Continuous
 62
     7
370
    25
100
AcDbSpline
210
0.0
220
0.0
230
1.0
 70
     8
 71
     3
 72
    20
 73
    16
 74
     0
 42
0.00000001
 43
0.00000001
 40
0.0
 40
0.0
 40
0.0
 40
0.0
 40
0.1238919600005909
 40
0.249868143463169
 40
0.3327189248945847
 40
0.4158479371667692
 40
0.5003172045298749
 40
0.5610732351903783
 40
0.62450831581543
 40
0.6852665893870228
 40
0.7501918228547246
 40
0.8087873499023299
 40
0.8744868432483395
 40
0.9261540291479261
 40
1.0
 40
1.0
 40
1.0
 40
1.0
 10
389.474286368726
 20
461.9682864034183
 30
0.0
 10
389.6387372097875
 20
461.9568394704372
 30
0.0
 10
389.9704054338336
 20
461.9337530337358
 30
0.0
 10
391.3771598015212
 20
461.5826725569781
 30
0.0
 10
393.063418909865
 20
461.1159903984935
 30
0.0
 10
394.8327062465884
 20
460.6013900291586
 30
0.0
 10
396.7023741540649
 20
460.0386932739221
 30
0.0
 10
398.5882833220025
 20
459.4581363760582
 30
0.0
 10
400.3800128107607
 20
458.8983116172778
 30
0.0
 10
402.3181928790596
 20
458.2844599247946
 30
0.0
 10
404.2967654948195
 20
457.6518135261038
 30
0.0
 10
406.4016642189
 20
456.9724673590492
 30
0.0
 10
408.4154722600436
 20
456.3194316616418
 30
0.0
 10
410.6429118184606
 20
455.5925902460416
 30
0.0
 10
412.1285947446869
 20
455.1073489612255
 30
0.0
 10
413.0026999054917
 20
454.8218560718574
 30
0.0
  0
SPLINE
  5
E1
330
1F
100
AcDbEntity
  8
0
  6
Continuous
 62
     7
370
    25
100
AcDbSpline
210
0.0
220
0.0
230
1.0
 70
     8
 71
     3
 72
    14
 73
    10
 74
     0
 42
0.00000001
 43
0.00000001
 40
0.0
 40
0.0
 40
0.0
 40
0.0
 40
0.1305386821119892
 40
0.2855450758276145
 40
0.4405517676476695
 40
0.5957333888823362
 40
0.7509159503646694
 40
0.8754500785133841
 40
1.0
 40
1.0
 40
1.0
 40
1.0
 10
413.0026999054917
 20
454.8218560718573
 30
0.0
 10
413.0076845077869
 20
440.7867471832686
 30
0.0
 10
413.0185880087056
 20
410.0858379431805
 30
0.0
 10
413.0198435181001
 20
362.704240943058
 30
0.0
 10
413.0125525499636
 20
312.678439891159
 30
0.0
 10
412.9814754040199
 20
262.6522321007621
 30
0.0
 10
412.9151584019032
 20
215.9308495814839
 30
0.0
 10
412.819580539066
 20
172.5282707388328
 30
0.0
 10
412.7369116666993
 20
145.8115518031944
 30
0.0
 10
412.6955746096788
 20
132.4523453398121
 30
0.0
  0
SPLINE
  5
E2
330
1F
100
AcDbEntity
  8
0
  6
Continuous
 62
     7
370
    25
100
AcDbSpline
210
0.0
220
0.0
230
1.0
 70
     8
 71
     3
 72
    17
 73
    13
 74
     0
 42
0.00000001
 43
0.00000001
 40
0.0
 40
0.0
 40
0.0
 40
0.0
 40
0.1266162836058901
 40
0.250088470305608
 40
0.3750000705476683
 40
0.5003513362776714
 40
0.6244908277863404
 40
0.7500881973979545
 40
0.8087128132756781
 40
0.8744281464958016
 40
0.9261277671239712
 40
1.0
 40
1.0
 40
1.0
 40
1.0
 10
389.0405818737347
 20
126.9401205772195
 30
0.0
 10
389.242914164768
 20
126.8808110803691
 30
0.0
 10
389.6425544931434
 20
126.7636648419901
 30
0.0
 10
391.2927389792054
 20
126.9299295597796
 30
0.0
 10
393.6165775852545
 20
127.3367603445673
 30
0.0
 10
396.6104107143616
 20
127.9953414340506
 30
0.0
 10
400.1373846582271
 20
128.8715723377716
 30
0.0
 10
403.3787931560921
 20
129.7444292859849
 30
0.0
 10
406.1418150934063
 20
130.5218848771623
 30
0.0
 10
408.1427540395644
 20
131.0981918542078
 30
0.0
 10
410.3543987878165
 20
131.7486781989304
 30
0.0
 10
411.8284248803726
 20
132.1917135815993
 30
0.0
 10
412.6955746096788
 20
132.452345339812
 30
0.0
  0
SPLINE
  5
E3
330
1F
100
AcDbEntity
  8
0
  6
Continuous
 62
     7
370
    25
100
AcDbSpline
210
0.0
220
0.0
230
1.0
 70
     8
 71
     3
 72
    20
 73
    16
 74
     0
 42
0.00000001
 43
0.00000001
 40
0.0
 40
0.0
 40
0.0
 40
0.0
 40
0.1265636594548571
 40
0.2499829629111715
 40
0.3327638616203959
 40
0.4158857241727438
 40
0.5003332294284736
 40
0.5611090712418059
 40
0.6245380711181946
 40
0.6853005982887672
 40
0.7501986628187122
 40
0.8087961342916381
 40
0.8744834833273821
 40
0.9260963211903318
 40
1.0
 40
1.0
 40
1.0
 40
1.0
 10
406.6344421217613
 20
109.3520352313926
 30
0.0
 10
406.6111027053764
 20
109.5179312331397
 30
0.0
 10
406.5650037186242
 20
109.8456017052992
 30
0.0
 10
406.803267034721
 20
111.2231409902013
 30
0.0
 10
407.1570556895031
 20
112.8525996400509
 30
0.0
 10
407.5729105178303
 20
114.5790328181506
 30
0.0
 10
408.0433615936672
 20
116.4067959567184
 30
0.0
 10
408.5393055697639
 20
118.2533467950565
 30
0.0
 10
409.0246532503383
 20
120.0103559831517
 30
0.0
 10
409.5634042795767
 20
121.9132690257133
 30
0.0
 10
410.1247968574151
 20
123.8587702575903
 30
0.0
 10
410.7334515187192
 20
125.9313663234349
 30
0.0
 10
411.3237521080492
 20
127.9168875409097
 30
0.0
 10
411.9858531003255
 20
130.1166016418917
 30
0.0
 10
412.4325569632227
 20
131.5867356576266
 30
0.0
 10
412.6955746096788
 20
132.452345339812
 30
0.0
  0
SPLINE
  5
E4
330
1F
100
AcDbEntity
  8
0
  6
Continuous
 62
     7
370
    25
100
AcDbSpline
210
0.0
220
0.0
230
1.0
 70
     8
 71
     3
 72
    14
 73
    10
 74
     0
 42
0.00000001
 43
0.00000001
 40
0.0
 40
0.0
 40
0.0
 40
0.0
 40
0.1267700191743646
 40
0.2721478071983584
 40
0.4175339142062408
 40
0.5629107601800595
 40
0.7086036766050685
 40
0.854305714557277
 40
1.0
 40
1.0
 40
1.0
 40
1.0
 10
412.6955746096788
 20
132.4523453398121
 30
0.0
 10
426.962735637916
 20
132.4790416071425
 30
0.0
 10
457.5912439718945
 20
132.5363527179375
 30
0.0
 10
504.6167919331484
 20
132.586297031099
 30
0.0
 10
553.7540549013793
 20
132.6121841067564
 30
0.0
 10
602.9347975114588
 20
132.6128841705358
 30
0.0
 10
652.144786895559
 20
132.590796532096
 30
0.0
 10
701.3758896634358
 20
132.5429780947134
 30
0.0
 10
734.1717045743555
 20
132.4825557222731
 30
0.0
 10
750.5691757685353
 20
132.4523453398121
 30
0.0
  0
SPLINE
  5
E5
330
1F
100
AcDbEntity
  8
0
  6
Continuous
 62
     7
370
    25
100
AcDbSpline
210
0.0
220
0.0
230
1.0
 70
     8
 71
     3
 72
    17
 73
    13
 74
     0
 42
0.00000001
 43
0.00000001
 40
0.0
 40
0.0
 40
0.0
 40
0.0
 40
0.1266190959654647
 40
0.2500924586643561
 40
0.3750040151228008
 40
0.5003544613468038
 40
0.62449285368909
 40
0.7500892113057184
 40
0.808712369960206
 40
0.8744284701875015
 40
0.9261190108075753
 40
1.0
 40
1.0
 40
1.0
 40
1.0
 10
756.630308256449
 20
109.3520352313927
 30
0.0
 10
756.6535808021721
 20
109.5181640862474
 30
0.0
 10
756.69954770894
 20
109.8462944796043
 30
0.0
 10
756.4321329270671
 20
111.3946184681437
 30
0.0
 10
755.9329555919578
 20
113.6253263768192
 30
0.0
 10
755.1934749048503
 20
116.5374321542968
 30
0.0
 10
754.2500869770705
 20
119.9964309017647
 30
0.0
 10
753.3348584042221
 20
123.1948112783839
 30
0.0
 10
752.5313413077178
 20
125.9312800022109
 30
0.0
 10
751.9408018383754
 20
127.9175264205803
 30
0.0
 10
751.2787148867083
 20
130.1172413598728
 30
0.0
 10
750.8320024913206
 20
131.5873786160736
 30
0.0
 10
750.5691757685353
 20
132.4523453398121
 30
0.0
  0
SPLINE
  5
E6
330
1F
100
AcDbEntity
  8
0
  6
Continuous
 62
     7
370
    25
100
AcDbSpline
210
0.0
220
0.0
230
1.0
 70
     8
 71
     3
 72
    19
 73
    15
 74
     0
 42
0.00000001
 43
0.00000001
 40
0.0
 40
0.0
 40
0.0
 40
0.0
 40
0.0609176379875107
 40
0.1075781157532491
 40
0.1526959205540118
 40
0.2035613434400718
 40
0.2498889345086477
 40
0.335498193196288
 40
0.418128915002444
 40
0.4997520450948294
 40
0.6250774110533327
 40
0.7499632023624829
 40
0.8734098775417836
 40
1.0
 40
1.0
 40
1.0
 40
1.0
 10
750.5691757685353
 20
132.452345339812
 30
0.0
 10
751.2844659541516
 20
132.2371369419472
 30
0.0
 10
752.5476398546429
 20
131.8570875063251
 30
0.0
 10
754.3201180610445
 20
131.333535512466
 30
0.0
 10
755.9559339761365
 20
130.8572313421432
 30
0.0
 10
757.5602289126332
 20
130.3985430715077
 30
0.0
 10
759.5747821590835
 20
129.8331798520393
 30
0.0
 10
761.8545530957304
 20
129.2132273742773
 30
0.0
 10
764.3419478299021
 20
128.5682279708004
 30
0.0
 10
766.9933824100133
 20
127.9207992930209
 30
0.0
 10
769.648421951842
 20
127.3366929439984
 30
0.0
 10
771.9719459637689
 20
126.9299472608448
 30
0.0
 10
773.6222126495076
 20
126.7636603069785
 30
0.0
 10
774.0218418482331
 20
126.8808095560826
 30
0.0
 10
774.2241685044794
 20
126.9401205772209
 30
0.0
  0
SPLINE
  5
E7
330
1F
100
AcDbEntity
  8
0
  6
Continuous
 62
     7
370
    25
100
AcDbSpline
210
0.0
220
0.0
230
1.0
 70
     8
 71
     3
 72
    15
 73
    11
 74
     0
 42
0.00000001
 43
0.00000001
 40
0.0
 40
0.0
 40
0.0
 40
0.0
 40
0.1092517198271472
 40
0.2185033398094575
 40
0.3277992585761256
 40
0.4370949807603249
 40
0.5777532765137604
 40
0.7184109269810959
 40
0.8592052444633318
 40
1.0
 40
1.0
 40
1.0
 40
1.0
 10
750.5691757685353
 20
132.4523453398121
 30
0.0
 10
750.5326306654141
 20
144.1703254548869
 30
0.0
 10
750.4595404925702
 20
167.6062749760078
 30
0.0
 10
750.377325613806
 20
202.7945935475172
 30
0.0
 10
750.3161034661669
 20
238.0058379243868
 30
0.0
 10
750.2726593111182
 20
276.6095092390045
 30
0.0
 10
750.2509279543881
 20
318.6023131861095
 30
0.0
 10
750.2467016685251
 20
363.9953852125737
 30
0.0
 10
750.2453244167591
 20
409.4079053204732
 30
0.0
 10
750.2564751149523
 20
439.683856788454
 30
0.0
 10
750.2620504727223
 20
454.8218560718573
 30
0.0
  0
SPLINE
  5
E8
330
1F
100
AcDbEntity
  8
0
  6
Continuous
 62
     7
370
    25
100
AcDbSpline
210
0.0
220
0.0
230
1.0
 70
     8
 71
     3
 72
    19
 73
    15
 74
     0
 42
0.00000001
 43
0.00000001
 40
0.0
 40
0.0
 40
0.0
 40
0.0
 40
0.0608871502769486
 40
0.1075563772633405
 40
0.1527021865234735
 40
0.203575201404755
 40
0.2498967934772875
 40
0.3355369131302464
 40
0.4181676040491364
 40
0.4997675726101821
 40
0.625096498972107
 40
0.7500719731428066
 40
0.8734795134526175
 40
1.0
 40
1.0
 40
1.0
 40
1.0
 10
750.2620504727222
 20
454.8218560718573
 30
0.0
 10
750.9826760401147
 20
455.05725762155
 30
0.0
 10
752.255651947831
 20
455.4730914678042
 30
0.0
 10
754.0410673183006
 20
456.0557982239823
 30
0.0
 10
755.688507939323
 20
456.5917472984682
 30
0.0
 10
757.3030976176569
 20
457.1145954385681
 30
0.0
 10
759.3291567376417
 20
457.7678925626658
 30
0.0
 10
761.6194420899707
 20
458.4992767614573
 30
0.0
 10
764.113558356962
 20
459.2841335089456
 30
0.0
 10
766.7652600593635
 20
460.1025827568355
 30
0.0
 10
769.4089539626343
 20
460.8926739523561
 30
0.0
 10
771.6964113274407
 20
461.5344109015148
 30
0.0
 10
773.2854315022022
 20
461.9324192095385
 30
0.0
 10
773.620727760628
 20
461.9562317898121
 30
0.0
 10
773.7904640094475
 20
461.9682863772068
 30
0.0
  0
LINE
  5
E9
330
1F
100
AcDbEntity
  8
0
  6
Continuous
 62
     7
370
    25
100
AcDbLine
 10
774.2241685045
 20
126.9401205772
 30
0.0
 11
774.261520947
 21
126.9721633888
 31
0.0
  0
SPLINE
  5
EA
330
1F
100
AcDbEntity
  8
0
  6
Continuous
 62
     7
370
    25
100
AcDbSpline
210
0.0
220
0.0
230
1.0
 70
     8
 71
     3
 72
    15
 73
    11
 74
     0
 42
0.00000001
 43
0.00000001
 40
0.0
 40
0.0
 40
0.0
 40
0.0
 40
0.1250345613511683
 40
0.2500398906185334
 40
0.3750250796996369
 40
0.4999999995595735
 40
0.6249749194428648
 40
0.7499601085903932
 40
0.8749654413172302
 40
1.0
 40
1.0
 40
1.0
 40
1.0
 10
756.6303082564514
 20
109.3520352313926
 30
0.0
 10
757.7780595840949
 20
109.4215450818022
 30
0.0
 10
760.07329390427
 20
109.5605485317727
 30
0.0
 10
763.3848273072335
 20
110.6125756991424
 30
0.0
 10
766.4386678286393
 20
112.240635062733
 30
0.0
 10
769.1170418816114
 20
114.444022020101
 30
0.0
 10
771.3220162691363
 20
117.1223806159819
 30
0.0
 10
772.953206572315
 20
120.1778142980324
 30
0.0
 10
774.0096946575463
 20
123.492374898133
 30
0.0
 10
774.1526716515381
 20
125.790782467603
 30
0.0
 10
774.2241685044794
 20
126.940120577221
 30
0.0
  0
SPLINE
  5
EB
330
1F
100
AcDbEntity
  8
0
  6
Continuous
 62
     7
370
    25
100
AcDbSpline
210
0.0
220
0.0
230
1.0
 70
     8
 71
     3
 72
    15
 73
    11
 74
     0
 42
0.00000001
 43
0.00000001
 40
0.0
 40
0.0
 40
0.0
 40
0.0
 40
0.1250345603200254
 40
0.2500398914115269
 40
0.3750250805445648
 40
0.5000000004212112
 40
0.6249749202877986
 40
0.7499601093833931
 40
0.8749654402860972
 40
1.0
 40
1.0
 40
1.0
 40
1.0
 10
406.6344421217613
 20
109.3520352313927
 30
0.0
 10
405.4866908036372
 20
109.4215450807765
 30
0.0
 10
403.1914564762909
 20
109.5605485302825
 30
0.0
 10
399.8799230649283
 20
110.6125756998373
 30
0.0
 10
396.8260825302601
 20
112.2406350756058
 30
0.0
 10
394.1477084798275
 20
114.4440220368703
 30
0.0
 10
391.9427340961883
 20
117.1223806353008
 30
0.0
 10
390.311543805194
 20
120.177814304091
 30
0.0
 10
389.2550557221596
 20
123.492374895783
 30
0.0
 10
389.1120787277175
 20
125.79078245807
 30
0.0
 10
389.0405818737347
 20
126.9401205772195
 30
0.0
  0
LINE
  5
EC
330
1F
100
AcDbEntity
  8
0
  6
Continuous
 62
     7
370
    25
100
AcDbLine
 10
406.6003425752
 20
479.090328871
 30
0.0
 11
406.6323751891
 21
479.1429714792
 31
0.0
  0
LINE
  5
ED
330
1F
100
AcDbEntity
  8
0
  6
Continuous
 62
     7
370
    25
100
AcDbLine
 10
756.6644077768
 20
479.090328871
 30
0.0
 11
756.6323751891
 21
479.1429714792
 31
0.0
  0
SPLINE
  5
EE
330
1F
100
AcDbEntity
  8
0
  6
Continuous
 62
     7
370
    25
100
AcDbSpline
210
0.0
220
0.0
230
1.0
 70
     8
 71
     3
 72
    19
 73
    15
 74
     0
 42
0.00000001
 43
0.00000001
 40
0.0
 40
0.0
 40
0.0
 40
0.0
 40
0.0608996912117043
 40
0.1075653419132949
 40
0.1527019747678827
 40
0.2035749477058376
 40
0.249899794256623
 40
0.3355398313614907
 40
0.4181724959524187
 40
0.4997764757391085
 40
0.6251078145529134
 40
0.7500835747419801
 40
0.8760828359566218
 40
1.0
 40
1.0
 40
1.0
 40
1.0
 10
750.2620504727222
 20
454.8218560718573
 30
0.0
 10
750.4951494752797
 20
455.5447044477378
 30
0.0
 10
750.9068654201536
 20
456.821450374622
 30
0.0
 10
751.4781326979067
 20
458.6176371067662
 30
0.0
 10
752.0002745975237
 20
460.278091866233
 30
0.0
 10
752.505851893581
 20
461.9093019008511
 30
0.0
 10
753.1326419881245
 20
463.9612402357988
 30
0.0
 10
753.8260210523451
 20
466.2888966671799
 30
0.0
 10
754.5569227599764
 20
468.8363779791425
 30
0.0
 10
755.3025803185702
 20
471.5604140749788
 30
0.0
 10
755.9953105907282
 20
474.3011081251083
 30
0.0
 10
756.5158021656194
 20
476.7305701801653
 30
0.0
 10
756.7732949307758
 20
478.4492266757352
 30
0.0
 10
756.7005013427923
 20
478.8778183631578
 30
0.0
 10
756.6644077768167
 20
479.090328870953
 30
0.0
  0
SPLINE
  5
EF
330
1F
100
AcDbEntity
  8
0
  6
Continuous
 62
     7
370
    25
100
AcDbSpline
210
0.0
220
0.0
230
1.0
 70
     8
 71
     3
 72
    15
 73
    11
 74
     0
 42
0.00000001
 43
0.00000001
 40
0.0
 40
0.0
 40
0.0
 40
0.0
 40
0.1126172601883329
 40
0.2252341933575137
 40
0.3379162108340202
 40
0.4505966466880155
 40
0.5878661913652037
 40
0.7251389957543473
 40
0.8625690457730377
 40
1.0
 40
1.0
 40
1.0
 40
1.0
 10
750.2620504727222
 20
454.8218560718573
 30
0.0
 10
737.612650349097
 20
454.7977196531151
 30
0.0
 10
712.3138868333041
 20
454.7494468857182
 30
0.0
 10
674.332855481955
 20
454.7218482295509
 30
0.0
 10
636.3300856264108
 20
454.7448164190572
 30
0.0
 10
595.5405175060507
 20
454.7988397179521
 30
0.0
 10
551.9774387800966
 20
454.7767349847209
 30
0.0
 10
505.644536377338
 20
454.7203043321927
 30
0.0
 10
459.3139295425171
 20
454.7361180886741
 30
0.0
 10
428.439810306623
 20
454.7932766814514
 30
0.0
 10
413.0026999054917
 20
454.8218560718573
 30
0.0
  0
SPLINE
  5
F0
330
1F
100
AcDbEntity
  8
0
  6
Continuous
 62
     7
370
    25
100
AcDbSpline
210
0.0
220
0.0
230
1.0
 70
     8
 71
     3
 72
    19
 73
    15
 74
     0
 42
0.00000001
 43
0.00000001
 40
0.0
 40
0.0
 40
0.0
 40
0.0
 40
0.0609030040794672
 40
0.1075675297788084
 40
0.1527025322486863
 40
0.2035757928182532
 40
0.2498997143052799
 40
0.3355407252805421
 40
0.4181734194525881
 40
0.4997763169969247
 40
0.6251076162756345
 40
0.7500833378324959
 40
0.8734876168708322
 40
1.0
 40
1.0
 40
1.0
 40
1.0
 10
413.0026999054917
 20
454.8218560718573
 30
0.0
 10
412.7695884420144
 20
455.5447440877403
 30
0.0
 10
412.3578645103564
 20
456.821516545036
 30
0.0
 10
411.7865947109395
 20
458.617709056196
 30
0.0
 10
411.2644624447008
 20
460.2781349928403
 30
0.0
 10
410.7588928069958
 20
461.9093189641102
 30
0.0
 10
410.1321018865771
 20
463.9612613516705
 30
0.0
 10
409.4387225310398
 20
466.2889183765045
 30
0.0
 10
408.7078201861229
 20
468.8363986629248
 30
0.0
 10
407.9621766896587
 20
471.5604193452796
 30
0.0
 10
407.2693830681799
 20
474.3011281145971
 30
0.0
 10
406.7527431113851
 20
476.7137440233824
 30
0.0
 10
406.491579910233
 20
478.4400011223637
 30
0.0
 10
406.563789009241
 20
478.8717630766925
 30
0.0
 10
406.6003425752173
 20
479.0903288710374
 30
0.0
  0
SPLINE
  5
F1
330
1F
100
AcDbEntity
  8
0
  6
Continuous
 62
     7
370
    25
100
AcDbSpline
210
0.0
220
0.0
230
1.0
 70
     8
 71
     3
 72
    15
 73
    11
 74
     0
 42
0.00000001
 43
0.00000001
 40
0.0
 40
0.0
 40
0.0
 40
0.0
 40
0.1250394476639786
 40
0.2500455276998775
 40
0.3750286222876954
 40
0.5000000004164481
 40
0.6249713785386326
 40
0.7499544730936292
 40
0.8749605534571753
 40
1.0
 40
1.0
 40
1.0
 40
1.0
 10
389.474286368726
 20
461.9682864034224
 30
0.0
 10
389.5423909038807
 20
463.0849812842864
 30
0.0
 10
389.6785818000312
 20
465.3180730483813
 30
0.0
 10
390.7037820309372
 20
468.5399692318384
 30
0.0
 10
392.2894740348777
 20
471.5112224904068
 30
0.0
 10
394.4349495475913
 20
474.1173636274633
 30
0.0
 10
397.0425654988351
 20
476.2631999925217
 30
0.0
 10
400.0171114732373
 20
477.8511159477985
 30
0.0
 10
403.2438783264595
 20
478.8801903368731
 30
0.0
 10
405.4814216327277
 20
479.0202764619324
 30
0.0
 10
406.6003425752173
 20
479.0903288710375
 30
0.0
  0
SPLINE
  5
F2
330
1F
100
AcDbEntity
  8
0
  6
Continuous
 62
     7
370
    25
100
AcDbSpline
210
0.0
220
0.0
230
1.0
 70
     8
 71
     3
 72
    15
 73
    11
 74
     0
 42
0.00000001
 43
0.00000001
 40
0.0
 40
0.0
 40
0.0
 40
0.0
 40
0.1250394486909994
 40
0.2500455269100712
 40
0.3750286214461849
 40
0.4999999995583137
 40
0.6249713776971422
 40
0.7499544723038477
 40
0.8749605544842178
 40
1.0
 40
1.0
 40
1.0
 40
1.0
 10
773.7904640094475
 20
461.9682863772068
 30
0.0
 10
773.7223594731906
 20
463.0849812689995
 30
0.0
 10
773.5861685763849
 20
465.3180730295535
 30
0.0
 10
772.560968346035
 20
468.5399692097891
 30
0.0
 10
770.9752763514839
 20
471.5112224600385
 30
0.0
 10
768.8298008392718
 20
474.1173636035315
 30
0.0
 10
766.2221848865187
 20
476.2631999756283
 30
0.0
 10
763.247638894718
 20
477.8511159451377
 30
0.0
 10
760.0208720284193
 20
478.8801903379147
 30
0.0
 10
757.7833287117719
 20
479.0202764627545
 30
0.0
 10
756.6644077768167
 20
479.0903288709531
 30
0.0
  0
CIRCLE
  5
F3
330
1F
100
AcDbEntity
  8
0
  6
Continuous
 62
     7
370
    25
100
AcDbCircle
 10
581.6323751891
 20
376.9721633888
 30
0.0
 40
70.00000000000006
  0
CIRCLE
  5
F4
330
1F
100
AcDbEntity
  8
0
  6
Continuous
 62
     7
370
    25
100
AcDbCircle
 10
581.6323751891
 20
376.9721633888
 30
0.0
 40
58.94765075494621
  0
CIRCLE
  5
F5
330
1F
100
AcDbEntity
  8
0
  6
Continuous
 62
     7
370
    25
100
AcDbCircle
 10
581.6323751891
 20
376.9721633888
 30
0.0
 40
57.49999999999989
  0
CIRCLE
  5
F6
330
1F
100
AcDbEntity
  8
0
  6
Continuous
 62
     7
370
    25
100
AcDbCircle
 10
581.6323751891
 20
376.9721633888
 30
0.0
 40
56.58715574274754
  0
CIRCLE
  5
F7
330
1F
100
AcDbEntity
  8
0
  6
Continuous
 62
     7
370
    25
100
AcDbCircle
 10
581.6323751891
 20
376.9721633888
 30
0.0
 40
45.04349479983892
  0
CIRCLE
  5
F8
330
1F
100
AcDbEntity
  8
0
  6
Continuous
 62
     7
370
    25
100
AcDbCircle
 10
581.6323751891
 20
376.9721633888
 30
0.0
 40
44.95633905709133
  0
LINE
  5
F9
330
1F
100
AcDbEntity
  8
0
  6
Continuous
 62
     7
370
    25
100
AcDbLine
 10
799.6323751891
 20
544.9721633888
 30
0.0
 11
798.8662495998
 21
544.9721633888
 31
0.0
  0
LINE
  5
FA
330
1F
100
AcDbEntity
  8
0
  6
Continuous
 62
     7
370
    25
100
AcDbLine
 10
799.6323751891
 20
325.9721633888
 30
0.0
 11
799.6323751891
 21
544.9721633888
 31
0.0
  0
LINE
  5
FB
330
1F
100
AcDbEntity
  8
0
  6
Continuous
 62
     7
370
    25
100
AcDbLine
 10
799.6323751891
 20
325.9721633888
 30
0.0
 11
798.8662495998
 21
325.9721633888
 31
0.0
  0
LINE
  5
FC
330
1F
100
AcDbEntity
  8
0
  6
Continuous
 62
     7
370
    25
100
AcDbLine
 10
798.8662495998
 20
325.9721633888
 30
0.0
 11
798.8662495998
 21
544.9721633888
 31
0.0
  0
LINE
  5
FD
330
1F
100
AcDbEntity
  8
0
  6
Continuous
 62
     7
370
    25
100
AcDbLine
 10
799.6323751891
 20
106.9721633888
 30
0.0
 11
798.8662495998
 21
106.9721633888
 31
0.0
  0
LINE
  5
FE
330
1F
100
AcDbEntity
  8
0
  6
Continuous
 62
     7
370
    25
100
AcDbLine
 10
798.8662495998
 20
106.9721633888
 30
0.0
 11
798.8662495998
 21
325.9721633888
 31
0.0
  0
LINE
  5
FF
330
1F
100
AcDbEntity
  8
0
  6
Continuous
 62
     7
370
    25
100
AcDbLine
 10
799.6323751891
 20
106.9721633888
 30
0.0
 11
799.6323751891
 21
325.9721633888
 31
0.0
  0
ARC
  5
100
330
1F
100
AcDbEntity
  8
0
  6
Continuous
 62
     7
370
    25
100
AcDbCircle
 10
151.6323751891
 20
575.9721633888
 30
0.0
 40
10.00000000000011
100
AcDbArc
 50
90.0
 51
180.0
  0
LINE
  5
101
330
1F
100
AcDbEntity
  8
0
  6
Continuous
 62
     7
370
    25
100
AcDbLine
 10
807.6323751891
 20
585.9721633888
 30
0.0
 11
151.6323751891
 21
585.9721633888
 31
0.0
  0
ARC
  5
102
330
1F
100
AcDbEntity
  8
0
  6
Continuous
 62
     7
370
    25
100
AcDbCircle
 10
807.6323751891
 20
575.9721633888
 30
0.0
 40
10.00000000000011
100
AcDbArc
 50
0.0
 51
90.0
  0
LINE
  5
103
330
1F
100
AcDbEntity
  8
0
  6
Continuous
 62
     7
370
    25
100
AcDbLine
 10
817.6323751891
 20
75.9721633888
 30
0.0
 11
817.6323751891
 21
575.9721633888
 31
0.0
  0
ARC
  5
104
330
1F
100
AcDbEntity
  8
0
  6
Continuous
 62
     7
370
    25
100
AcDbCircle
 10
807.6323751891
 20
75.9721633888
 30
0.0
 40
10.00000000000001
100
AcDbArc
 50
270.0
 51
0.0
  0
LINE
  5
105
330
1F
100
AcDbEntity
  8
0
  6
Continuous
 62
     7
370
    25
100
AcDbLine
 10
151.6323751891
 20
65.9721633888
 30
0.0
 11
807.6323751891
 21
65.9721633888
 31
0.0
  0
ARC
  5
106
330
1F
100
AcDbEntity
  8
0
  6
Continuous
 62
     7
370
    25
100
AcDbCircle
 10
151.6323751891
 20
75.9721633888
 30
0.0
 40
10.00000000000003
100
AcDbArc
 50
180.0
 51
270.0
  0
LINE
  5
107
330
1F
100
AcDbEntity
  8
0
  6
Continuous
 62
     7
370
    25
100
AcDbLine
 10
141.6323751891
 20
575.9721633888
 30
0.0
 11
141.6323751891
 21
75.9721633888
 31
0.0
  0
ARC
  5
108
330
1F
100
AcDbEntity
  8
0
  6
Continuous
 62
     7
370
    25
100
AcDbCircle
 10
776.6323751891
 20
544.9721633888
 30
0.0
 40
23.0
100
AcDbArc
 50
0.0
 51
90.0
  0
LINE
  5
109
330
1F
100
AcDbEntity
  8
0
  6
Continuous
 62
     7
370
    25
100
AcDbLine
 10
776.6323751891
 20
567.9721633888
 30
0.0
 11
182.6323751891
 21
567.9721633888
 31
0.0
  0
ARC
  5
10A
330
1F
100
AcDbEntity
  8
0
  6
Continuous
 62
     7
370
    25
100
AcDbCircle
 10
182.6323751891
 20
544.9721633888
 30
0.0
 40
23.00000000000003
100
AcDbArc
 50
90.0
 51
180.0
  0
LINE
  5
10B
330
1F
100
AcDbEntity
  8
0
  6
Continuous
 62
     7
370
    25
100
AcDbLine
 10
159.6323751891
 20
544.9721633888
 30
0.0
 11
159.6323751891
 21
106.9721633888
 31
0.0
  0
ARC
  5
10C
330
1F
100
AcDbEntity
  8
0
  6
Continuous
 62
     7
370
    25
100
AcDbCircle
 10
182.6323751891
 20
106.9721633888
 30
0.0
 40
23.00000000000003
100
AcDbArc
 50
180.0
 51
270.0
  0
LINE
  5
10D
330
1F
100
AcDbEntity
  8
0
  6
Continuous
 62
     7
370
    25
100
AcDbLine
 10
182.6323751891
 20
83.9721633888
 30
0.0
 11
776.6323751891
 21
83.9721633888
 31
0.0
  0
ARC
  5
10E
330
1F
100
AcDbEntity
  8
0
  6
Continuous
 62
     7
370
    25
100
AcDbCircle
 10
776.6323751891
 20
106.9721633888
 30
0.0
 40
23.00000000000023
100
AcDbArc
 50
270.0
 51
0.0
  0
LINE
  5
10F
330
1F
100
AcDbEntity
  8
0
  6
Continuous
 62
     7
370
    25
100
AcDbLine
 10
182.6323751891
 20
83.9721633888
 30
0.0
 11
182.6323751891
 21
84.7382889781
 31
0.0
  0
LINE
  5
110
330
1F
100
AcDbEntity
  8
0
  6
Continuous
 62
     7
370
    25
100
AcDbLine
 10
159.6323751891
 20
106.9721633888
 30
0.0
 11
160.3985007784
 21
106.9721633888
 31
0.0
  0
ARC
  5
111
330
1F
100
AcDbEntity
  8
0
  6
Continuous
 62
     7
370
    25
100
AcDbCircle
 10
182.6323751891
 20
106.9721633888
 30
0.0
 40
22.23387441067959
100
AcDbArc
 50
180.0
 51
270.0
  0
LINE
  5
112
330
1F
100
AcDbEntity
  8
0
  6
Continuous
 62
     7
370
    25
100
AcDbLine
 10
182.6323751891
 20
567.9721633888
 30
0.0
 11
182.6323751891
 21
567.2060377995
 31
0.0
  0
LINE
  5
113
330
1F
100
AcDbEntity
  8
0
  6
Continuous
 62
     7
370
    25
100
AcDbLine
 10
776.6323751891
 20
567.9721633888
 30
0.0
 11
776.6323751891
 21
567.2060377995
 31
0.0
  0
LINE
  5
114
330
1F
100
AcDbEntity
  8
0
  6
Continuous
 62
     7
370
    25
100
AcDbLine
 10
776.6323751891
 20
567.2060377995
 30
0.0
 11
182.6323751891
 21
567.2060377995
 31
0.0
  0
LINE
  5
115
330
1F
100
AcDbEntity
  8
0
  6
Continuous
 62
     7
370
    25
100
AcDbLine
 10
159.6323751891
 20
544.9721633888
 30
0.0
 11
160.3985007784
 21
544.9721633888
 31
0.0
  0
LINE
  5
116
330
1F
100
AcDbEntity
  8
0
  6
Continuous
 62
     7
370
    25
100
AcDbLine
 10
160.3985007784
 20
544.9721633888
 30
0.0
 11
160.3985007784
 21
106.9721633888
 31
0.0
  0
ARC
  5
117
330
1F
100
AcDbEntity
  8
0
  6
Continuous
 62
     7
370
    25
100
AcDbCircle
 10
182.6323751891
 20
544.9721633888
 30
0.0
 40
22.23387441067959
100
AcDbArc
 50
90.0
 51
180.0
  0
LINE
  5
118
330
1F
100
AcDbEntity
  8
0
  6
Continuous
 62
     7
370
    25
100
AcDbLine
 10
776.6323751891
 20
83.9721633888
 30
0.0
 11
776.6323751891
 21
84.7382889781
 31
0.0
  0
LINE
  5
119
330
1F
100
AcDbEntity
  8
0
  6
Continuous
 62
     7
370
    25
100
AcDbLine
 10
182.6323751891
 20
84.7382889781
 30
0.0
 11
776.6323751891
 21
84.7382889781
 31
0.0
  0
ARC
  5
11A
330
1F
100
AcDbEntity
  8
0
  6
Continuous
 62
     7
370
    25
100
AcDbCircle
 10
776.6323751891
 20
544.9721633888
 30
0.0
 40
22.23387441067962
100
AcDbArc
 50
0.0
 51
90.0
  0
ARC
  5
11B
330
1F
100
AcDbEntity
  8
0
  6
Continuous
 62
     7
370
    25
100
AcDbCircle
 10
776.6323751891
 20
106.9721633888
 30
0.0
 40
22.23387441067962
100
AcDbArc
 50
270.0
 51
0.0
  0
LINE
  5
11C
330
1F
100
AcDbEntity
  8
0
  6
Continuous
 62
     7
370
    25
100
AcDbLine
 10
776.6323751891
 20
567.2060377995
 30
0.0
 11
776.6323751891
 21
566.2484283719
 31
0.0
  0
LINE
  5
11D
330
1F
100
AcDbEntity
  8
0
  6
Continuous
 62
     7
370
    25
100
AcDbLine
 10
798.8662495998
 20
544.9721633888
 30
0.0
 11
797.9086401722
 21
544.9721633888
 31
0.0
  0
ARC
  5
11E
330
1F
100
AcDbEntity
  8
0
  6
Continuous
 62
     7
370
    25
100
AcDbCircle
 10
776.6323751891
 20
544.9721633888
 30
0.0
 40
21.27626498307336
100
AcDbArc
 50
0.0
 51
90.0
  0
LINE
  5
11F
330
1F
100
AcDbEntity
  8
0
  6
Continuous
 62
     7
370
    25
100
AcDbLine
 10
798.8662495998
 20
106.9721633888
 30
0.0
 11
797.9086401722
 21
106.9721633888
 31
0.0
  0
LINE
  5
120
330
1F
100
AcDbEntity
  8
0
  6
Continuous
 62
     7
370
    25
100
AcDbLine
 10
797.9086401722
 20
106.9721633888
 30
0.0
 11
797.9086401722
 21
325.9721633888
 31
0.0
  0
LINE
  5
121
330
1F
100
AcDbEntity
  8
0
  6
Continuous
 62
     7
370
    25
100
AcDbLine
 10
798.8662495998
 20
325.9721633888
 30
0.0
 11
797.9086401722
 21
325.9721633888
 31
0.0
  0
LINE
  5
122
330
1F
100
AcDbEntity
  8
0
  6
Continuous
 62
     7
370
    25
100
AcDbLine
 10
797.9086401722
 20
325.9721633888
 30
0.0
 11
797.9086401722
 21
544.9721633888
 31
0.0
  0
LINE
  5
123
330
1F
100
AcDbEntity
  8
0
  6
Continuous
 62
     7
370
    25
100
AcDbLine
 10
182.6323751891
 20
84.7382889781
 30
0.0
 11
182.6323751891
 21
85.6958984057
 31
0.0
  0
LINE
  5
124
330
1F
100
AcDbEntity
  8
0
  6
Continuous
 62
     7
370
    25
100
AcDbLine
 10
160.3985007784
 20
106.9721633888
 30
0.0
 11
161.356110206
 21
106.9721633888
 31
0.0
  0
ARC
  5
125
330
1F
100
AcDbEntity
  8
0
  6
Continuous
 62
     7
370
    25
100
AcDbCircle
 10
182.6323751891
 20
106.9721633888
 30
0.0
 40
21.27626498307335
100
AcDbArc
 50
180.0
 51
270.0
  0
LINE
  5
126
330
1F
100
AcDbEntity
  8
0
  6
Continuous
 62
     7
370
    25
100
AcDbLine
 10
160.3985007784
 20
544.9721633888
 30
0.0
 11
161.356110206
 21
544.9721633888
 31
0.0
  0
LINE
  5
127
330
1F
100
AcDbEntity
  8
0
  6
Continuous
 62
     7
370
    25
100
AcDbLine
 10
182.6323751891
 20
567.2060377995
 30
0.0
 11
182.6323751891
 21
566.2484283719
 31
0.0
  0
ARC
  5
128
330
1F
100
AcDbEntity
  8
0
  6
Continuous
 62
     7
370
    25
100
AcDbCircle
 10
182.6323751891
 20
544.9721633888
 30
0.0
 40
21.27626498307333
100
AcDbArc
 50
90.0
 51
180.0
  0
LINE
  5
129
330
1F
100
AcDbEntity
  8
0
  6
Continuous
 62
     7
370
    25
100
AcDbLine
 10
776.6323751891
 20
566.2484283719
 30
0.0
 11
182.6323751891
 21
566.2484283719
 31
0.0
  0
LINE
  5
12A
330
1F
100
AcDbEntity
  8
0
  6
Continuous
 62
     7
370
    25
100
AcDbLine
 10
776.6323751891
 20
84.7382889781
 30
0.0
 11
776.6323751891
 21
85.6958984057
 31
0.0
  0
ARC
  5
12B
330
1F
100
AcDbEntity
  8
0
  6
Continuous
 62
     7
370
    25
100
AcDbCircle
 10
776.6323751891
 20
106.9721633888
 30
0.0
 40
21.27626498307336
100
AcDbArc
 50
270.0
 51
0.0
  0
LINE
  5
12C
330
1F
100
AcDbEntity
  8
0
  6
Continuous
 62
     7
370
    25
100
AcDbLine
 10
161.356110206
 20
544.9721633888
 30
0.0
 11
161.356110206
 21
106.9721633888
 31
0.0
  0
LINE
  5
12D
330
1F
100
AcDbEntity
  8
0
  6
Continuous
 62
     7
370
    25
100
AcDbLine
 10
182.6323751891
 20
85.6958984057
 30
0.0
 11
776.6323751891
 21
85.6958984057
 31
0.0
  0
LINE
  5
12E
330
1F
100
AcDbEntity
  8
0
  6
Continuous
 62
     7
370
    25
100
AcDbLine
 10
161.356110206
 20
544.9721633888
 30
0.0
 11
166.7189893313
 21
544.9721633888
 31
0.0
  0
LINE
  5
12F
330
1F
100
AcDbEntity
  8
0
  6
Continuous
 62
     7
370
    25
100
AcDbLine
 10
182.6323751891
 20
566.2484283719
 30
0.0
 11
182.6323751891
 21
560.8855492466
 31
0.0
  0
ARC
  5
130
330
1F
100
AcDbEntity
  8
0
  6
Continuous
 62
     7
370
    25
100
AcDbCircle
 10
182.6323751891
 20
544.9721633888
 30
0.0
 40
15.91338585783026
100
AcDbArc
 50
90.0
 51
180.0
  0
LINE
  5
131
330
1F
100
AcDbEntity
  8
0
  6
Continuous
 62
     7
370
    25
100
AcDbLine
 10
161.356110206
 20
106.9721633888
 30
0.0
 11
166.7189893313
 21
106.9721633888
 31
0.0
  0
LINE
  5
132
330
1F
100
AcDbEntity
  8
0
  6
Continuous
 62
     7
370
    25
100
AcDbLine
 10
166.7189893313
 20
544.9721633888
 30
0.0
 11
166.7189893313
 21
106.9721633888
 31
0.0
  0
LINE
  5
133
330
1F
100
AcDbEntity
  8
0
  6
Continuous
 62
     7
370
    25
100
AcDbLine
 10
776.6323751891
 20
566.2484283719
 30
0.0
 11
776.6323751891
 21
560.8855492466
 31
0.0
  0
LINE
  5
134
330
1F
100
AcDbEntity
  8
0
  6
Continuous
 62
     7
370
    25
100
AcDbLine
 10
797.9086401722
 20
544.9721633888
 30
0.0
 11
792.5457610469
 21
544.9721633888
 31
0.0
  0
ARC
  5
135
330
1F
100
AcDbEntity
  8
0
  6
Continuous
 62
     7
370
    25
100
AcDbCircle
 10
776.6323751891
 20
544.9721633888
 30
0.0
 40
15.91338585783024
100
AcDbArc
 50
0.0
 51
90.0
  0
LINE
  5
136
330
1F
100
AcDbEntity
  8
0
  6
Continuous
 62
     7
370
    25
100
AcDbLine
 10
776.6323751891
 20
560.8855492466
 30
0.0
 11
182.6323751891
 21
560.8855492466
 31
0.0
  0
LINE
  5
137
330
1F
100
AcDbEntity
  8
0
  6
Continuous
 62
     7
370
    25
100
AcDbLine
 10
797.9086401722
 20
106.9721633888
 30
0.0
 11
792.5457610469
 21
106.9721633888
 31
0.0
  0
LINE
  5
138
330
1F
100
AcDbEntity
  8
0
  6
Continuous
 62
     7
370
    25
100
AcDbLine
 10
776.6323751891
 20
85.6958984057
 30
0.0
 11
776.6323751891
 21
91.058777531
 31
0.0
  0
ARC
  5
139
330
1F
100
AcDbEntity
  8
0
  6
Continuous
 62
     7
370
    25
100
AcDbCircle
 10
776.6323751891
 20
106.9721633888
 30
0.0
 40
15.91338585783035
100
AcDbArc
 50
270.0
 51
0.0
  0
LINE
  5
13A
330
1F
100
AcDbEntity
  8
0
  6
Continuous
 62
     7
370
    25
100
AcDbLine
 10
182.6323751891
 20
85.6958984057
 30
0.0
 11
182.6323751891
 21
91.058777531
 31
0.0
  0
LINE
  5
13B
330
1F
100
AcDbEntity
  8
0
  6
Continuous
 62
     7
370
    25
100
AcDbLine
 10
182.6323751891
 20
91.058777531
 30
0.0
 11
776.6323751891
 21
91.058777531
 31
0.0
  0
LINE
  5
13C
330
1F
100
AcDbEntity
  8
0
  6
Continuous
 62
     7
370
    25
100
AcDbLine
 10
792.5457610469
 20
106.9721633888
 30
0.0
 11
792.5457610469
 21
325.9721633888
 31
0.0
  0
LINE
  5
13D
330
1F
100
AcDbEntity
  8
0
  6
Continuous
 62
     7
370
    25
100
AcDbLine
 10
797.9086401722
 20
325.9721633888
 30
0.0
 11
792.5457610469
 21
325.9721633888
 31
0.0
  0
ARC
  5
13E
330
1F
100
AcDbEntity
  8
0
  6
Continuous
 62
     7
370
    25
100
AcDbCircle
 10
182.6323751891
 20
106.9721633888
 30
0.0
 40
15.91338585783032
100
AcDbArc
 50
180.0
 51
270.0
  0
LINE
  5
13F
330
1F
100
AcDbEntity
  8
0
  6
Continuous
 62
     7
370
    25
100
AcDbLine
 10
792.5457610469
 20
325.9721633888
 30
0.0
 11
792.5457610469
 21
544.9721633888
 31
0.0
  0
ARC
  5
140
330
1F
100
AcDbEntity
  8
0
  6
Continuous
 62
     7
370
    25
100
AcDbCircle
 10
756.1323751891
 20
461.4721633888
 30
0.0
 40
31.50000000000006
100
AcDbArc
 50
0.0
 51
90.0
  0
LINE
  5
141
330
1F
100
AcDbEntity
  8
0
  6
Continuous
 62
     7
370
    25
100
AcDbLine
 10
787.6323751891
 20
461.4721633888
 30
0.0
 11
782.6323751891
 21
461.4721633888
 31
0.0
  0
ARC
  5
142
330
1F
100
AcDbEntity
  8
0
  6
Continuous
 62
     7
370
    25
100
AcDbCircle
 10
756.1323751891
 20
461.4721633888
 30
0.0
 40
26.5
100
AcDbArc
 50
0.0
 51
90.0
  0
LINE
  5
143
330
1F
100
AcDbEntity
  8
0
  6
Continuous
 62
     7
370
    25
100
AcDbLine
 10
756.1323751891
 20
492.9721633888
 30
0.0
 11
756.1323751891
 21
487.9721633888
 31
0.0
  0
ARC
  5
144
330
1F
100
AcDbEntity
  8
0
  6
Continuous
 62
     7
370
    25
100
AcDbCircle
 10
407.1323751891
 20
127.4721633888
 30
0.0
 40
26.5
100
AcDbArc
 50
180.0
 51
270.0
  0
LINE
  5
145
330
1F
100
AcDbEntity
  8
0
  6
Continuous
 62
     7
370
    25
100
AcDbLine
 10
407.1323751891
 20
100.9721633888
 30
0.0
 11
407.1323751891
 21
95.9721633888
 31
0.0
  0
ARC
  5
146
330
1F
100
AcDbEntity
  8
0
  6
Continuous
 62
     7
370
    25
100
AcDbCircle
 10
407.1323751891
 20
127.4721633888
 30
0.0
 40
31.50000000000009
100
AcDbArc
 50
180.0
 51
270.0
  0
LINE
  5
147
330
1F
100
AcDbEntity
  8
0
  6
Continuous
 62
     7
370
    25
100
AcDbLine
 10
380.6323751891
 20
127.4721633888
 30
0.0
 11
375.6323751891
 21
127.4721633888
 31
0.0
  0
LINE
  5
148
330
1F
100
AcDbEntity
  8
0
  6
Continuous
 62
     7
370
    25
100
AcDbLine
 10
756.1323751891
 20
487.9721633888
 30
0.0
 11
407.1323751891
 21
487.9721633888
 31
0.0
  0
LINE
  5
149
330
1F
100
AcDbEntity
  8
0
  6
Continuous
 62
     7
370
    25
100
AcDbLine
 10
407.1323751891
 20
487.9721633888
 30
0.0
 11
407.1323751891
 21
492.9721633888
 31
0.0
  0
LINE
  5
14A
330
1F
100
AcDbEntity
  8
0
  6
Continuous
 62
     7
370
    25
100
AcDbLine
 10
407.1323751891
 20
492.9721633888
 30
0.0
 11
756.1323751891
 21
492.9721633888
 31
0.0
  0
ARC
  5
14B
330
1F
100
AcDbEntity
  8
0
  6
Continuous
 62
     7
370
    25
100
AcDbCircle
 10
407.1323751891
 20
461.4721633888
 30
0.0
 40
26.50000000000006
100
AcDbArc
 50
90.0
 51
180.0
  0
LINE
  5
14C
330
1F
100
AcDbEntity
  8
0
  6
Continuous
 62
     7
370
    25
100
AcDbLine
 10
380.6323751891
 20
461.4721633888
 30
0.0
 11
375.6323751891
 21
461.4721633888
 31
0.0
  0
ARC
  5
14D
330
1F
100
AcDbEntity
  8
0
  6
Continuous
 62
     7
370
    25
100
AcDbCircle
 10
407.1323751891
 20
461.4721633888
 30
0.0
 40
31.50000000000006
100
AcDbArc
 50
90.0
 51
180.0
  0
LINE
  5
14E
330
1F
100
AcDbEntity
  8
0
  6
Continuous
 62
     7
370
    25
100
AcDbLine
 10
407.1323751891
 20
100.9721633888
 30
0.0
 11
756.1323751891
 21
100.9721633888
 31
0.0
  0
LINE
  5
14F
330
1F
100
AcDbEntity
  8
0
  6
Continuous
 62
     7
370
    25
100
AcDbLine
 10
756.1323751891
 20
95.9721633888
 30
0.0
 11
756.1323751891
 21
100.9721633888
 31
0.0
  0
LINE
  5
150
330
1F
100
AcDbEntity
  8
0
  6
Continuous
 62
     7
370
    25
100
AcDbLine
 10
756.1323751891
 20
95.9721633888
 30
0.0
 11
407.1323751891
 21
95.9721633888
 31
0.0
  0
LINE
  5
151
330
1F
100
AcDbEntity
  8
0
  6
Continuous
 62
     7
370
    25
100
AcDbLine
 10
787.6323751891
 20
461.4721633888
 30
0.0
 11
787.6323751891
 21
127.4721633888
 31
0.0
  0
LINE
  5
152
330
1F
100
AcDbEntity
  8
0
  6
Continuous
 62
     7
370
    25
100
AcDbLine
 10
375.6323751891
 20
127.4721633888
 30
0.0
 11
375.6323751891
 21
461.4721633888
 31
0.0
  0
ARC
  5
153
330
1F
100
AcDbEntity
  8
0
  6
Continuous
 62
     7
370
    25
100
AcDbCircle
 10
756.1323751891
 20
127.4721633888
 30
0.0
 40
31.5
100
AcDbArc
 50
270.0
 51
0.0
  0
CIRCLE
  5
154
330
1F
100
AcDbEntity
  8
0
  6
Continuous
 62
     7
370
    25
100
AcDbCircle
 10
581.6323751891
 20
529.9721633888
 30
0.0
 40
17.5
  0
ARC
  5
155
330
1F
100
AcDbEntity
  8
0
  6
Continuous
 62
     7
370
    25
100
AcDbCircle
 10
756.1323751891
 20
127.4721633888
 30
0.0
 40
26.5
100
AcDbArc
 50
270.0
 51
0.0
  0
LINE
  5
156
330
1F
100
AcDbEntity
  8
0
  6
Continuous
 62
     7
370
    25
100
AcDbLine
 10
787.6323751891
 20
127.4721633888
 30
0.0
 11
782.6323751891
 21
127.4721633888
 31
0.0
  0
LINE
  5
157
330
1F
100
AcDbEntity
  8
0
  6
Continuous
 62
     7
370
    25
100
AcDbLine
 10
782.6323751891
 20
127.4721633888
 30
0.0
 11
782.6323751891
 21
461.4721633888
 31
0.0
  0
LINE
  5
158
330
1F
100
AcDbEntity
  8
0
  6
Continuous
 62
     7
370
    25
100
AcDbLine
 10
380.6323751891
 20
461.4721633888
 30
0.0
 11
380.6323751891
 21
127.4721633888
 31
0.0
  0
LINE
  5
159
330
1F
100
AcDbEntity
  8
0
  6
Continuous
 62
     8
370
    25
100
AcDbLine
 10
599.7323469995
 20
483.8707291627
 30
0.0
 11
599.7323469995
 21
484.7013344176
 31
0.0
  0
ARC
  5
15A
330
1F
100
AcDbEntity
  8
0
  6
Continuous
 62
     8
370
    25
100
AcDbCircle
 10
600.2329641889
 20
484.8440438745
 30
0.0
 40
0.9994828805512948
100
AcDbArc
 50
269.9646193576
 51
351.7910644139
  0
LINE
  5
15B
330
1F
100
AcDbEntity
  8
0
  6
Continuous
 62
     8
370
    25
100
AcDbLine
 10
563.5323469995
 20
483.8707291627
 30
0.0
 11
563.5323469995
 21
484.7013344176
 31
0.0
  0
ARC
  5
15C
330
1F
100
AcDbEntity
  8
0
  6
Continuous
 62
     8
370
    25
100
AcDbCircle
 10
563.0317298102
 20
484.8440438745
 30
0.0
 40
0.999482880551181
100
AcDbArc
 50
188.2089355861
 51
270.0353806424
  0
ARC
  5
15D
330
1F
100
AcDbEntity
  8
0
  6
Continuous
 62
     8
370
    25
100
AcDbCircle
 10
600.2327031649
 20
484.2165218313
 30
0.0
 40
0.9999921850558416
100
AcDbArc
 50
269.9795930665
 51
337.436386386
  0
ARC
  5
15E
330
1F
100
AcDbEntity
  8
0
  6
Continuous
 62
     8
370
    25
100
AcDbCircle
 10
563.0318551654
 20
484.2163182796
 30
0.0
 40
0.9997886909156967
100
AcDbArc
 50
202.5330836934
 51
270.0281859781
  0
LINE
  5
15F
330
1F
100
AcDbEntity
  8
0
  6
Continuous
 62
     8
370
    25
100
AcDbLine
 10
563.5323469995
 20
483.1889912663
 30
0.0
 11
563.5323469995
 21
483.1903617315
 31
0.0
  0
LINE
  5
160
330
1F
100
AcDbEntity
  8
0
  6
Continuous
 62
     8
370
    25
100
AcDbLine
 10
599.7323469995
 20
483.1889912663
 30
0.0
 11
599.7323469995
 21
483.1903617315
 31
0.0
  0
LINE
  5
161
330
1F
100
AcDbEntity
  8
0
  6
Continuous
 62
     8
370
    25
100
AcDbLine
 10
556.1323469995
 20
485.4583195532
 30
0.0
 11
556.1323469995
 21
484.8691281276
 31
0.0
  0
LINE
  5
162
330
1F
100
AcDbEntity
  8
0
  6
Continuous
 62
     8
370
    25
100
AcDbLine
 10
607.1323469995
 20
485.4583195532
 30
0.0
 11
607.1323469995
 21
484.8691281276
 31
0.0
  0
LINE
  5
163
330
1F
100
AcDbEntity
  8
0
  6
Continuous
 62
     8
370
    25
100
AcDbLine
 10
602.3254762369
 20
483.464924499
 30
0.0
 11
600.5685579452
 21
483.464924499
 31
0.0
  0
LINE
  5
164
330
1F
100
AcDbEntity
  8
0
  6
Continuous
 62
     8
370
    25
100
AcDbLine
 10
562.6961360539
 20
483.464924499
 30
0.0
 11
560.9392177621
 21
483.464924499
 31
0.0
  0
LINE
  5
165
330
1F
100
AcDbEntity
  8
0
  6
Continuous
 62
     8
370
    25
100
AcDbLine
 10
602.3254762369
 20
484.7013344176
 30
0.0
 11
602.3254762369
 21
484.703253069
 31
0.0
  0
LWPOLYLINE
  5
166
330
1F
100
AcDbEntity
  8
0
  6
Continuous
 62
     8
370
    25
100
AcDbPolyline
 90
        3
 70
   128
 43
0.0
 10
604.6515586828
 20
484.6529393711
 10
604.4733917912
 20
484.6664440377
 10
604.4516312936
 20
484.6712843461
  0
LINE
  5
167
330
1F
100
AcDbEntity
  8
0
  6
Continuous
 62
     8
370
    25
100
AcDbLine
 10
560.9392177621
 20
484.7013344176
 30
0.0
 11
560.9392177621
 21
484.703253069
 31
0.0
  0
LWPOLYLINE
  5
168
330
1F
100
AcDbEntity
  8
0
  6
Continuous
 62
     8
370
    25
100
AcDbPolyline
 90
        3
 70
   128
 43
0.0
 10
558.6131353163
 20
484.6529393711
 10
558.7913022079
 20
484.6664440377
 10
558.8130627055
 20
484.6712843461
  0
LWPOLYLINE
  5
169
330
1F
100
AcDbEntity
  8
0
  6
Continuous
 62
     8
370
    25
100
AcDbPolyline
 90
        3
 70
   128
 43
0.0
 10
557.6517752584
 20
484.5312016219
 10
557.9099075658
 20
484.5551717383
 10
558.0476754651
 20
484.5882670145
  0
LWPOLYLINE
  5
16A
330
1F
100
AcDbEntity
  8
0
  6
Continuous
 62
     8
370
    25
100
AcDbPolyline
 90
        3
 70
   128
 43
0.0
 10
605.1760615519
 20
484.6010096605
 10
605.3547864333
 20
484.5551717383
 10
605.6129187406
 20
484.5312016219
  0
ARC
  5
16B
330
1F
100
AcDbEntity
  8
0
  6
Continuous
 62
     8
370
    25
100
AcDbCircle
 10
605.612390883
 20
485.03679775
 30
0.0
 40
1.399821903443978
100
AcDbArc
 50
195.6820979174
 51
270.0216056174
  0
ARC
  5
16C
330
1F
100
AcDbEntity
  8
0
  6
Continuous
 62
     8
370
    25
100
AcDbCircle
 10
557.6525023759
 20
485.0365322349
 30
0.0
 40
1.39955647768655
100
AcDbArc
 50
269.9702328807
 51
344.4939258484
  0
ARC
  5
16D
330
1F
100
AcDbEntity
  8
0
  6
Continuous
 62
     8
370
    25
100
AcDbCircle
 10
604.9234802597
 20
484.7291905031
 30
0.0
 40
1.24403438282495
100
AcDbArc
 50
181.4864206674
 51
257.3743311934
  0
ARC
  5
16E
330
1F
100
AcDbEntity
  8
0
  6
Continuous
 62
     8
370
    25
100
AcDbCircle
 10
558.3412137394
 20
484.7291905031
 30
0.0
 40
1.244034382824623
100
AcDbArc
 50
282.6256688066
 51
358.5135793326
  0
LINE
  5
16F
330
1F
100
AcDbEntity
  8
0
  6
Continuous
 62
     8
370
    25
100
AcDbLine
 10
560.9392177621
 20
483.464924499
 30
0.0
 11
560.9392177621
 21
484.7013344176
 31
0.0
  0
LINE
  5
170
330
1F
100
AcDbEntity
  8
0
  6
Continuous
 62
     8
370
    25
100
AcDbLine
 10
602.3254762369
 20
483.464924499
 30
0.0
 11
602.3254762369
 21
484.7013344176
 31
0.0
  0
LINE
  5
171
330
1F
100
AcDbEntity
  8
0
  6
Continuous
 62
     8
370
    25
100
AcDbLine
 10
782.6276577881
 20
126.9721633888
 30
0.0
 11
781.557877737
 21
126.9721633888
 31
0.0
  0
LINE
  5
172
330
1F
100
AcDbEntity
  8
0
  6
Continuous
 62
     8
370
    25
100
AcDbLine
 10
782.6276577881
 20
461.9721633888
 30
0.0
 11
781.557877737
 21
461.9721633888
 31
0.0
  0
LINE
  5
173
330
1F
100
AcDbEntity
  8
0
  6
Continuous
 62
     8
370
    25
100
AcDbLine
 10
381.7068726412
 20
126.9721633888
 30
0.0
 11
380.6370925901
 21
126.9721633888
 31
0.0
  0
LINE
  5
174
330
1F
100
AcDbEntity
  8
0
  6
Continuous
 62
     8
370
    25
100
AcDbLine
 10
381.7068726412
 20
461.9721633888
 30
0.0
 11
380.6370925901
 21
461.9721633888
 31
0.0
  0
LINE
  5
175
330
1F
100
AcDbEntity
  8
0
  6
Continuous
 62
     8
370
    25
100
AcDbLine
 10
756.6323751891
 20
102.0466608409
 30
0.0
 11
756.6323751891
 21
100.9768807898
 31
0.0
  0
LINE
  5
176
330
1F
100
AcDbEntity
  8
0
  6
Continuous
 62
     8
370
    25
100
AcDbLine
 10
756.6323751891
 20
487.9674459878
 30
0.0
 11
756.6323751891
 21
486.8976659367
 31
0.0
  0
LINE
  5
177
330
1F
100
AcDbEntity
  8
0
  6
Continuous
 62
     8
370
    25
100
AcDbLine
 10
406.6323751891
 20
487.9674459878
 30
0.0
 11
406.6323751891
 21
486.8976659367
 31
0.0
  0
LINE
  5
178
330
1F
100
AcDbEntity
  8
0
  6
Continuous
 62
     8
370
    25
100
AcDbLine
 10
406.6323751891
 20
102.0466608409
 30
0.0
 11
406.6323751891
 21
100.9768807898
 31
0.0
  0
ENDSEC
  0
SECTION
  2
OBJECTS
  0
DICTIONARY
  5
C
330
0
100
AcDbDictionary
281
     1
  3
ACAD_GROUP
350
D
  3
ACAD_LAYOUT
350
1A
  3
ACAD_MLINESTYLE
350
17
  3
ACAD_PLOTSETTINGS
350
19
  3
ACAD_PLOTSTYLENAME
350
E
  3
ACAD_SCALELIST
350
47
  3
DWGPROPS
350
179
  0
DICTIONARY
  5
D
102
{ACAD_REACTORS
330
C
102
}
330
C
100
AcDbDictionary
281
     1
  0
DICTIONARY
  5
1A
102
{ACAD_REACTORS
330
C
102
}
330
C
100
AcDbDictionary
281
     1
  3
Layout1
350
1E
  3
Layout2
350
26
  3
Model
350
22
  0
DICTIONARY
  5
17
102
{ACAD_REACTORS
330
C
102
}
330
C
100
AcDbDictionary
281
     1
  3
Standard
350
18
  0
DICTIONARY
  5
19
102
{ACAD_REACTORS
330
C
102
}
330
C
100
AcDbDictionary
281
     1
  0
ACDBDICTIONARYWDFLT
  5
E
102
{ACAD_REACTORS
330
C
102
}
330
C
100
AcDbDictionary
281
     1
  3
Normal
350
F
100
AcDbDictionaryWithDefault
340
F
  0
DICTIONARY
  5
47
102
{ACAD_REACTORS
330
C
102
}
330
C
100
AcDbDictionary
281
     1
  3
A0
350
48
  3
A1
350
49
  3
A2
350
4A
  3
A3
350
4B
  3
A4
350
4C
  3
A5
350
4D
  3
A6
350
4E
  3
A7
350
4F
  3
A8
350
50
  3
A9
350
51
  3
B0
350
52
  3
B1
350
53
  3
B2
350
54
  3
B3
350
55
  3
B4
350
56
  3
B5
350
57
  3
B6
350
58
  3
B7
350
59
  3
B8
350
5A
  3
B9
350
5B
  3
C0
350
5C
  3
C1
350
5D
  3
C2
350
5E
  3
C3
350
5F
  3
C4
350
60
  3
C5
350
61
  3
C6
350
62
  3
C7
350
63
  3
C8
350
64
  3
C9
350
65
  3
D0
350
66
  3
D1
350
67
  3
D2
350
68
  0
XRECORD
  5
179
102
{ACAD_REACTORS
330
C
102
}
330
C
100
AcDbXrecord
280
     1
  1
DWGPROPS COOKIE
  2

  3

  4

  6

  7

  8
KalleMourujärvi
  9

300
=
301
=
302
=
303
=
304
=
305
=
306
=
307
=
308
=
309
=
 40
0.0
 41
2460130.421617199
 42
2460130.421617523
  1

 90
        0
  0
LAYOUT
  5
1E
102
{ACAD_REACTORS
330
1A
102
}
330
1A
100
AcDbPlotSettings
  1

  2
none_device
  4

  6

 40
0.0
 41
0.0
 42
0.0
 43
0.0
 44
0.0
 45
0.0
 46
0.0
 47
0.0
 48
0.0
 49
0.0
140
0.0
141
0.0
142
1.0
143
1.0
 70
   688
 72
     1
 73
     0
 74
     5
  7

 75
    16
147
1.0
148
0.0
149
0.0
100
AcDbLayout
  1
Layout1
 70
     1
 71
     1
 10
0.0
 20
0.0
 11
420.0
 21
297.0
 12
0.0
 22
0.0
 32
0.0
 14
1.0000000000E+20
 24
1.0000000000E+20
 34
1.0000000000E+20
 15
-1.0000000000E+20
 25
-1.0000000000E+20
 35
-1.0000000000E+20
146
0.0
 13
0.0
 23
0.0
 33
0.0
 16
1.0
 26
0.0
 36
0.0
 17
0.0
 27
1.0
 37
0.0
 76
     0
330
1B
  0
LAYOUT
  5
26
102
{ACAD_REACTORS
330
1A
102
}
330
1A
100
AcDbPlotSettings
  1

  2
none_device
  4

  6

 40
0.0
 41
0.0
 42
0.0
 43
0.0
 44
0.0
 45
0.0
 46
0.0
 47
0.0
 48
0.0
 49
0.0
140
0.0
141
0.0
142
1.0
143
1.0
 70
   688
 72
     1
 73
     0
 74
     5
  7

 75
    16
147
1.0
148
0.0
149
0.0
100
AcDbLayout
  1
Layout2
 70
     1
 71
     2
 10
0.0
 20
0.0
 11
0.0
 21
0.0
 12
0.0
 22
0.0
 32
0.0
 14
0.0
 24
0.0
 34
0.0
 15
0.0
 25
0.0
 35
0.0
146
0.0
 13
0.0
 23
0.0
 33
0.0
 16
1.0
 26
0.0
 36
0.0
 17
0.0
 27
1.0
 37
0.0
 76
     0
330
23
  0
LAYOUT
  5
22
102
{ACAD_REACTORS
330
1A
102
}
330
1A
100
AcDbPlotSettings
  1

  2
none_device
  4
Letter_(8.50_x_11.00_Inches)
  6

 40
6.35
 41
6.35
 42
6.35000508
 43
6.35000508
 44
215.9
 45
279.4
 46
0.0
 47
0.0
 48
0.0
 49
0.0
140
0.0
141
0.0
142
1.0
143
1.0
 70
  1712
 72
     1
 73
     0
 74
     0
  7

 75
     0
147
1.0
148
0.0
149
0.0
100
AcDbLayout
  1
Model
 70
     1
 71
     0
 10
0.0
 20
0.0
 11
950.0
 21
650.0
 12
0.0
 22
0.0
 32
0.0
 14
0.0
 24
0.0
 34
0.0
 15
950.0
 25
650.0
 35
0.0
146
0.0
 13
0.0
 23
0.0
 33
0.0
 16
1.0
 26
0.0
 36
0.0
 17
0.0
 27
1.0
 37
0.0
 76
     0
330
1F
331
29
  0
MLINESTYLE
  5
18
102
{ACAD_REACTORS
330
17
102
}
330
17
100
AcDbMlineStyle
  2
Standard
 70
     0
  3

 62
   256
 51
90.0
 52
90.0
 71
     2
 49
0.5
 62
   256
  6
BYLAYER
 49
-0.5
 62
   256
  6
BYLAYER
  0
ACDBPLACEHOLDER
  5
F
102
{ACAD_REACTORS
330
E
102
}
330
E
  0
SCALE
  5
48
102
{ACAD_REACTORS
330
47
102
}
330
47
100
AcDbScale
 70
     0
300
1:1
140
1.0
141
1.0
290
     1
  0
SCALE
  5
49
102
{ACAD_REACTORS
330
47
102
}
330
47
100
AcDbScale
 70
     0
300
1:2
140
1.0
141
2.0
290
     0
  0
SCALE
  5
4A
102
{ACAD_REACTORS
330
47
102
}
330
47
100
AcDbScale
 70
     0
300
1:4
140
1.0
141
4.0
290
     0
  0
SCALE
  5
4B
102
{ACAD_REACTORS
330
47
102
}
330
47
100
AcDbScale
 70
     0
300
1:5
140
1.0
141
5.0
290
     0
  0
SCALE
  5
4C
102
{ACAD_REACTORS
330
47
102
}
330
47
100
AcDbScale
 70
     0
300
1:8
140
1.0
141
8.0
290
     0
  0
SCALE
  5
4D
102
{ACAD_REACTORS
330
47
102
}
330
47
100
AcDbScale
 70
     0
300
1:10
140
1.0
141
10.0
290
     0
  0
SCALE
  5
4E
102
{ACAD_REACTORS
330
47
102
}
330
47
100
AcDbScale
 70
     0
300
1:16
140
1.0
141
16.0
290
     0
  0
SCALE
  5
4F
102
{ACAD_REACTORS
330
47
102
}
330
47
100
AcDbScale
 70
     0
300
1:20
140
1.0
141
20.0
290
     0
  0
SCALE
  5
50
102
{ACAD_REACTORS
330
47
102
}
330
47
100
AcDbScale
 70
     0
300
1:30
140
1.0
141
30.0
290
     0
  0
SCALE
  5
51
102
{ACAD_REACTORS
330
47
102
}
330
47
100
AcDbScale
 70
     0
300
1:40
140
1.0
141
40.0
290
     0
  0
SCALE
  5
52
102
{ACAD_REACTORS
330
47
102
}
330
47
100
AcDbScale
 70
     0
300
1:50
140
1.0
141
50.0
290
     0
  0
SCALE
  5
53
102
{ACAD_REACTORS
330
47
102
}
330
47
100
AcDbScale
 70
     0
300
1:100
140
1.0
141
100.0
290
     0
  0
SCALE
  5
54
102
{ACAD_REACTORS
330
47
102
}
330
47
100
AcDbScale
 70
     0
300
2:1
140
2.0
141
1.0
290
     0
  0
SCALE
  5
55
102
{ACAD_REACTORS
330
47
102
}
330
47
100
AcDbScale
 70
     0
300
4:1
140
4.0
141
1.0
290
     0
  0
SCALE
  5
56
102
{ACAD_REACTORS
330
47
102
}
330
47
100
AcDbScale
 70
     0
300
8:1
140
8.0
141
1.0
290
     0
  0
SCALE
  5
57
102
{ACAD_REACTORS
330
47
102
}
330
47
100
AcDbScale
 70
     0
300
10:1
140
10.0
141
1.0
290
     0
  0
SCALE
  5
58
102
{ACAD_REACTORS
330
47
102
}
330
47
100
AcDbScale
 70
     0
300
100:1
140
100.0
141
1.0
290
     0
  0
SCALE
  5
59
102
{ACAD_REACTORS
330
47
102
}
330
47
100
AcDbScale
 70
     0
300
1/128" = 1'-0"
140
0.0078125
141
12.0
290
     0
  0
SCALE
  5
5A
102
{ACAD_REACTORS
330
47
102
}
330
47
100
AcDbScale
 70
     0
300
1/64" = 1'-0"
140
0.015625
141
12.0
290
     0
  0
SCALE
  5
5B
102
{ACAD_REACTORS
330
47
102
}
330
47
100
AcDbScale
 70
     0
300
1/32" = 1'-0"
140
0.03125
141
12.0
290
     0
  0
SCALE
  5
5C
102
{ACAD_REACTORS
330
47
102
}
330
47
100
AcDbScale
 70
     0
300
1/16" = 1'-0"
140
0.0625
141
12.0
290
     0
  0
SCALE
  5
5D
102
{ACAD_REACTORS
330
47
102
}
330
47
100
AcDbScale
 70
     0
300
3/32" = 1'-0"
140
0.09375
141
12.0
290
     0
  0
SCALE
  5
5E
102
{ACAD_REACTORS
330
47
102
}
330
47
100
AcDbScale
 70
     0
300
1/8" = 1'-0"
140
0.125
141
12.0
290
     0
  0
SCALE
  5
5F
102
{ACAD_REACTORS
330
47
102
}
330
47
100
AcDbScale
 70
     0
300
3/16" = 1'-0"
140
0.1875
141
12.0
290
     0
  0
SCALE
  5
60
102
{ACAD_REACTORS
330
47
102
}
330
47
100
AcDbScale
 70
     0
300
1/4" = 1'-0"
140
0.25
141
12.0
290
     0
  0
SCALE
  5
61
102
{ACAD_REACTORS
330
47
102
}
330
47
100
AcDbScale
 70
     0
300
3/8" = 1'-0"
140
0.375
141
12.0
290
     0
  0
SCALE
  5
62
102
{ACAD_REACTORS
330
47
102
}
330
47
100
AcDbScale
 70
     0
300
1/2" = 1'-0"
140
0.5
141
12.0
290
     0
  0
SCALE
  5
63
102
{ACAD_REACTORS
330
47
102
}
330
47
100
AcDbScale
 70
     0
300
3/4" = 1'-0"
140
0.75
141
12.0
290
     0
  0
SCALE
  5
64
102
{ACAD_REACTORS
330
47
102
}
330
47
100
AcDbScale
 70
     0
300
1" = 1'-0"
140
1.0
141
12.0
290
     0
  0
SCALE
  5
65
102
{ACAD_REACTORS
330
47
102
}
330
47
100
AcDbScale
 70
     0
300
1-1/2" = 1'-0"
140
1.5
141
12.0
290
     0
  0
SCALE
  5
66
102
{ACAD_REACTORS
330
47
102
}
330
47
100
AcDbScale
 70
     0
300
3" = 1'-0"
140
3.0
141
12.0
290
     0
  0
SCALE
  5
67
102
{ACAD_REACTORS
330
47
102
}
330
47
100
AcDbScale
 70
     0
300
6" = 1'-0"
140
6.0
141
12.0
290
     0
  0
SCALE
  5
68
102
{ACAD_REACTORS
330
47
102
}
330
47
100
AcDbScale
 70
     0
300
1'-0" = 1'-0"
140
12.0
141
12.0
290
     0
  0
ENDSEC
  0
EOF
