  0
SECTION
  2
HEADER
  9
$ACADVER
  1
AC1015
  9
$ACADMAINTVER
 70
     6
  9
$DWGCODEPAGE
  3
ANSI_1252
  9
$INSBASE
 10
0.0
 20
0.0
 30
0.0
  9
$EXTMIN
 10
0.0
 20
0.0
 30
0.0
  9
$EXTMAX
 10
950.0
 20
650.0
 30
0.0
  9
$LIMMIN
 10
0.0
 20
0.0
  9
$LIMMAX
 10
950.0
 20
650.0
  9
$ORTHOMODE
 70
     0
  9
$REGENMODE
 70
     1
  9
$FILLMODE
 70
     1
  9
$QTEXTMODE
 70
     0
  9
$MIRRTEXT
 70
     1
  9
$LTSCALE
 40
1.0
  9
$ATTMODE
 70
     1
  9
$TEXTSIZE
 40
3.5
  9
$TRACEWID
 40
1.0
  9
$TEXTSTYLE
  7
Standard
  9
$CLAYER
  8
0
  9
$CELTYPE
  6
ByLayer
  9
$CECOLOR
 62
   256
  9
$CELTSCALE
 40
1.0
  9
$DISPSILH
 70
     0
  9
$DIMSCALE
 40
1.0
  9
$DIMASZ
 40
3.302
  9
$DIMEXO
 40
1.0
  9
$DIMDLI
 40
3.75
  9
$DIMRND
 40
0.0
  9
$DIMDLE
 40
0.0
  9
$DIMEXE
 40
1.0
  9
$DIMTP
 40
0.0
  9
$DIMTM
 40
0.0
  9
$DIMTXT
 40
3.5
  9
$DIMCEN
 40
2.5
  9
$DIMTSZ
 40
0.0
  9
$DIMTOL
 70
     0
  9
$DIMLIM
 70
     0
  9
$DIMTIH
 70
     1
  9
$DIMTOH
 70
     1
  9
$DIMSE1
 70
     0
  9
$DIMSE2
 70
     0
  9
$DIMTAD
 70
     1
  9
$DIMZIN
 70
     1
  9
$DIMBLK
  1

  9
$DIMASO
 70
     1
  9
$DIMSHO
 70
     1
  9
$DIMPOST
  1

  9
$DIMAPOST
  1

  9
$DIMALT
 70
     0
  9
$DIMALTD
 70
     3
  9
$DIMALTF
 40
0.0393700787
  9
$DIMLFAC
 40
1.0
  9
$DIMTOFL
 70
     1
  9
$DIMTVP
 40
0.0
  9
$DIMTIX
 70
     0
  9
$DIMSOXD
 70
     0
  9
$DIMSAH
 70
     0
  9
$DIMBLK1
  1

  9
$DIMBLK2
  1

  9
$DIMSTYLE
  2
ISO-25
  9
$DIMCLRD
 70
     0
  9
$DIMCLRE
 70
     0
  9
$DIMCLRT
 70
     0
  9
$DIMTFAC
 40
1.0
  9
$DIMGAP
 40
1.524
  9
$DIMJUST
 70
     0
  9
$DIMSD1
 70
     0
  9
$DIMSD2
 70
     0
  9
$DIMTOLJ
 70
     0
  9
$DIMTZIN
 70
     1
  9
$DIMALTZ
 70
     0
  9
$DIMALTTZ
 70
     0
  9
$DIMUPT
 70
     0
  9
$DIMDEC
 70
     2
  9
$DIMTDEC
 70
     2
  9
$DIMALTU
 70
     2
  9
$DIMALTTD
 70
     3
  9
$DIMTXSTY
  7
Standard
  9
$DIMAUNIT
 70
     0
  9
$DIMADEC
 70
     2
  9
$DIMALTRND
 40
0.0
  9
$DIMAZIN
 70
     0
  9
$DIMDSEP
 70
    44
  9
$DIMATFIT
 70
     3
  9
$DIMFRAC
 70
     0
  9
$DIMLDRBLK
  1

  9
$DIMLUNIT
 70
     2
  9
$DIMLWD
 70
    -2
  9
$DIMLWE
 70
    -2
  9
$DIMTMOVE
 70
     0
  9
$LUNITS
 70
     2
  9
$LUPREC
 70
     1
  9
$SKETCHINC
 40
1.0
  9
$FILLETRAD
 40
10.0
  9
$AUNITS
 70
     0
  9
$AUPREC
 70
     1
  9
$MENU
  1
.
  9
$ELEVATION
 40
0.0
  9
$PELEVATION
 40
0.0
  9
$THICKNESS
 40
0.0
  9
$LIMCHECK
 70
     0
  9
$CHAMFERA
 40
0.0
  9
$CHAMFERB
 40
0.0
  9
$CHAMFERC
 40
0.0
  9
$CHAMFERD
 40
0.0
  9
$SKPOLY
 70
     0
  9
$TDCREATE
 40
2460130.541427581
  9
$TDUCREATE
 40
2460130.416427581
  9
$TDUPDATE
 40
2460130.541427894
  9
$TDUUPDATE
 40
2460130.416427894
  9
$TDINDWG
 40
0.0000000116
  9
$TDUSRTIMER
 40
0.0000000116
  9
$USRTIMER
 70
     1
  9
$ANGBASE
 50
0.0
  9
$ANGDIR
 70
     0
  9
$PDMODE
 70
     0
  9
$PDSIZE
 40
-1.0
  9
$PLINEWID
 40
0.0
  9
$SPLFRAME
 70
     0
  9
$SPLINETYPE
 70
     6
  9
$SPLINESEGS
 70
     8
  9
$HANDSEED
  5
126
  9
$SURFTAB1
 70
     6
  9
$SURFTAB2
 70
     6
  9
$SURFTYPE
 70
     6
  9
$SURFU
 70
     6
  9
$SURFV
 70
     6
  9
$UCSBASE
  2

  9
$UCSNAME
  2

  9
$UCSORG
 10
0.0
 20
0.0
 30
0.0
  9
$UCSXDIR
 10
1.0
 20
0.0
 30
0.0
  9
$UCSYDIR
 10
0.0
 20
1.0
 30
0.0
  9
$UCSORTHOREF
  2

  9
$UCSORTHOVIEW
 70
     0
  9
$UCSORGTOP
 10
0.0
 20
0.0
 30
0.0
  9
$UCSORGBOTTOM
 10
0.0
 20
0.0
 30
0.0
  9
$UCSORGLEFT
 10
0.0
 20
0.0
 30
0.0
  9
$UCSORGRIGHT
 10
0.0
 20
0.0
 30
0.0
  9
$UCSORGFRONT
 10
0.0
 20
0.0
 30
0.0
  9
$UCSORGBACK
 10
0.0
 20
0.0
 30
0.0
  9
$PUCSBASE
  2

  9
$PUCSNAME
  2

  9
$PUCSORG
 10
0.0
 20
0.0
 30
0.0
  9
$PUCSXDIR
 10
1.0
 20
0.0
 30
0.0
  9
$PUCSYDIR
 10
0.0
 20
1.0
 30
0.0
  9
$PUCSORTHOREF
  2

  9
$PUCSORTHOVIEW
 70
     0
  9
$PUCSORGTOP
 10
0.0
 20
0.0
 30
0.0
  9
$PUCSORGBOTTOM
 10
0.0
 20
0.0
 30
0.0
  9
$PUCSORGLEFT
 10
0.0
 20
0.0
 30
0.0
  9
$PUCSORGRIGHT
 10
0.0
 20
0.0
 30
0.0
  9
$PUCSORGFRONT
 10
0.0
 20
0.0
 30
0.0
  9
$PUCSORGBACK
 10
0.0
 20
0.0
 30
0.0
  9
$USERI1
 70
     0
  9
$USERI2
 70
     0
  9
$USERI3
 70
     0
  9
$USERI4
 70
     0
  9
$USERI5
 70
     0
  9
$USERR1
 40
0.0
  9
$USERR2
 40
0.0
  9
$USERR3
 40
0.0
  9
$USERR4
 40
0.0
  9
$USERR5
 40
0.0
  9
$WORLDVIEW
 70
     1
  9
$SHADEDGE
 70
     3
  9
$SHADEDIF
 70
    70
  9
$TILEMODE
 70
     1
  9
$MAXACTVP
 70
    64
  9
$PINSBASE
 10
0.0
 20
0.0
 30
0.0
  9
$PLIMCHECK
 70
     0
  9
$PEXTMIN
 10
1.0000000000E+20
 20
1.0000000000E+20
 30
1.0000000000E+20
  9
$PEXTMAX
 10
-1.0000000000E+20
 20
-1.0000000000E+20
 30
-1.0000000000E+20
  9
$PLIMMIN
 10
0.0
 20
0.0
  9
$PLIMMAX
 10
420.0
 20
297.0
  9
$UNITMODE
 70
     0
  9
$VISRETAIN
 70
     1
  9
$PLINEGEN
 70
     0
  9
$PSLTSCALE
 70
     1
  9
$TREEDEPTH
 70
  3020
  9
$CMLSTYLE
  2
Standard
  9
$CMLJUST
 70
     0
  9
$CMLSCALE
 40
20.0
  9
$PROXYGRAPHICS
 70
     1
  9
$MEASUREMENT
 70
     1
  9
$CELWEIGHT
370
    -1
  9
$ENDCAPS
280
     0
  9
$JOINSTYLE
280
     0
  9
$LWDISPLAY
290
     1
  9
$INSUNITS
 70
     4
  9
$HYPERLINKBASE
  1

  9
$STYLESHEET
  1

  9
$XEDIT
290
     1
  9
$CEPSNTYPE
380
     0
  9
$PSTYLEMODE
290
     1
  9
$FINGERPRINTGUID
  2
{1b6845f8-1788-473b-a908-1094b129aeae}
  9
$VERSIONGUID
  2
{FAEB1C32-E019-11D5-929B-00C0DF256EC4}
  9
$EXTNAMES
290
     1
  9
$PSVPSCALE
 40
0.0
  9
$OLESTARTUP
290
     0
  0
ENDSEC
  0
SECTION
  2
CLASSES
  0
CLASS
  1
ACDBDICTIONARYWDFLT
  2
AcDbDictionaryWithDefault
  3
ObjectDBX Classes
 90
        0
280
     0
281
     0
  0
CLASS
  1
VISUALSTYLE
  2
AcDbVisualStyle
  3
ObjectDBX Classes
 90
     4095
280
     0
281
     0
  0
CLASS
  1
MATERIAL
  2
AcDbMaterial
  3
ObjectDBX Classes
 90
     1153
280
     0
281
     0
  0
CLASS
  1
SCALE
  2
AcDbScale
  3
ObjectDBX Classes
 90
     1153
280
     0
281
     0
  0
CLASS
  1
TABLESTYLE
  2
AcDbTableStyle
  3
ObjectDBX Classes
 90
     4095
280
     0
281
     0
  0
CLASS
  1
MLEADERSTYLE
  2
AcDbMLeaderStyle
  3
ACDB_MLEADERSTYLE_CLASS
 90
     4095
280
     0
281
     0
  0
CLASS
  1
SUN
  2
AcDbSun
  3
SCENEOE
 90
     1153
280
     0
281
     0
  0
CLASS
  1
ACDBPLACEHOLDER
  2
AcDbPlaceHolder
  3
ObjectDBX Classes
 90
        0
280
     0
281
     0
  0
CLASS
  1
LAYOUT
  2
AcDbLayout
  3
ObjectDBX Classes
 90
        0
280
     0
281
     0
  0
ENDSEC
  0
SECTION
  2
TABLES
  0
TABLE
  2
VPORT
  5
8
330
0
100
AcDbSymbolTable
 70
     1
  0
VPORT
  5
29
330
8
100
AcDbSymbolTableRecord
100
AcDbViewportTableRecord
  2
*Active
 70
     0
 10
0.0
 20
0.0
 11
1.0
 21
1.0
 12
475.0
 22
325.0
 13
0.0
 23
0.0
 14
10.0
 24
10.0
 15
10.0
 25
10.0
 16
0.0
 26
0.0
 36
1.0
 17
0.0
 27
0.0
 37
0.0
 40
650.0
 41
1.4615384615
 42
50.0
 43
0.0
 44
0.0
 50
0.0
 51
0.0
 71
     0
 72
  2000
 73
     1
 74
     3
 75
     0
 76
     0
 77
     0
 78
     0
281
     0
 65
     1
110
0.0
120
0.0
130
0.0
111
1.0
121
0.0
131
0.0
112
0.0
122
1.0
132
0.0
 79
     0
146
0.0
  0
ENDTAB
  0
TABLE
  2
LTYPE
  5
5
330
0
100
AcDbSymbolTable
 70
     6
  0
LTYPE
  5
14
330
5
100
AcDbSymbolTableRecord
100
AcDbLinetypeTableRecord
  2
ByBlock
 70
     0
  3

 72
    65
 73
     0
 40
0.0
  0
LTYPE
  5
15
330
5
100
AcDbSymbolTableRecord
100
AcDbLinetypeTableRecord
  2
ByLayer
 70
     0
  3

 72
    65
 73
     0
 40
0.0
  0
LTYPE
  5
16
330
5
100
AcDbSymbolTableRecord
100
AcDbLinetypeTableRecord
  2
Continuous
 70
     0
  3
Solid line
 72
    65
 73
     0
 40
0.0
  0
LTYPE
  5
6E
330
5
100
AcDbSymbolTableRecord
100
AcDbLinetypeTableRecord
  2
HIDDEN
 70
     0
  3
Hidden __ __ __ __ __ __ __ __ __ __ __ __ __ __
 72
    65
 73
     2
 40
1.905
 49
1.27
 74
     0
 49
-0.635
 74
     0
  0
LTYPE
  5
6F
330
5
100
AcDbSymbolTableRecord
100
AcDbLinetypeTableRecord
  2
PHANTOM
 70
     0
  3
Phantom ______  __  __  ______  __  __  ______
 72
    65
 73
     6
 40
12.7
 49
6.35
 74
     0
 49
-1.27
 74
     0
 49
1.27
 74
     0
 49
-1.27
 74
     0
 49
1.27
 74
     0
 49
-1.27
 74
     0
  0
LTYPE
  5
70
330
5
100
AcDbSymbolTableRecord
100
AcDbLinetypeTableRecord
  2
CENTER
 70
     0
  3
Center ____ _ ____ _ ____ _ ____ _ ____ _ ____
 72
    65
 73
     4
 40
10.16
 49
6.35
 74
     0
 49
-1.27
 74
     0
 49
1.27
 74
     0
 49
-1.27
 74
     0
  0
LTYPE
  5
71
330
5
100
AcDbSymbolTableRecord
100
AcDbLinetypeTableRecord
  2
CENTERX2
 70
     0
  3
Center (2x) ________  __  ________  __  _____
 72
    65
 73
     4
 40
20.32
 49
12.7
 74
     0
 49
-2.54
 74
     0
 49
2.54
 74
     0
 49
-2.54
 74
     0
  0
LTYPE
  5
72
330
5
100
AcDbSymbolTableRecord
100
AcDbLinetypeTableRecord
  2
DOT2
 70
     0
  3
Dot (.5x) ........................................
 72
    65
 73
     2
 40
0.635
 49
0.0
 74
     0
 49
-0.635
 74
     0
  0
ENDTAB
  0
TABLE
  2
LAYER
  5
2
330
0
100
AcDbSymbolTable
 70
     1
  0
LAYER
  5
10
330
2
100
AcDbSymbolTableRecord
100
AcDbLayerTableRecord
  2
0
 70
     0
 62
     7
  6
Continuous
370
    -3
390
F
  0
ENDTAB
  0
TABLE
  2
STYLE
  5
3
330
0
100
AcDbSymbolTable
 70
     1
  0
STYLE
  5
11
330
3
100
AcDbSymbolTableRecord
100
AcDbTextStyleTableRecord
  2
Standard
 70
     0
 40
0.0
 41
1.0
 50
0.0
 71
     0
 42
3.5
  3
txt
  4

  0
ENDTAB
  0
TABLE
  2
VIEW
  5
6
330
0
100
AcDbSymbolTable
 70
     0
  0
ENDTAB
  0
TABLE
  2
UCS
  5
7
330
0
100
AcDbSymbolTable
 70
     0
  0
ENDTAB
  0
TABLE
  2
APPID
  5
9
330
0
100
AcDbSymbolTable
 70
     1
  0
APPID
  5
12
330
9
100
AcDbSymbolTableRecord
100
AcDbRegAppTableRecord
  2
ACAD
 70
     0
  0
ENDTAB
  0
TABLE
  2
DIMSTYLE
  5
A
330
0
100
AcDbSymbolTable
 70
     1
100
AcDbDimStyleTable
  0
DIMSTYLE
105
27
330
A
100
AcDbSymbolTableRecord
100
AcDbDimStyleTableRecord
  2
ISO-25
 70
     0
 41
2.5
 42
0.625
 43
3.75
 44
1.25
 73
     0
 74
     0
 77
     1
 78
     8
140
2.5
141
2.5
143
0.0393700787
147
0.625
171
     3
172
     1
178
     0
271
     2
272
     2
274
     3
278
    44
283
     0
284
     8
340
11
  0
ENDTAB
  0
TABLE
  2
BLOCK_RECORD
  5
1
330
0
100
AcDbSymbolTable
 70
     1
  0
BLOCK_RECORD
  5
1F
330
1
100
AcDbSymbolTableRecord
100
AcDbBlockTableRecord
  2
*Model_Space
340
22
  0
BLOCK_RECORD
  5
1B
330
1
100
AcDbSymbolTableRecord
100
AcDbBlockTableRecord
  2
*Paper_Space
340
1E
  0
BLOCK_RECORD
  5
23
330
1
100
AcDbSymbolTableRecord
100
AcDbBlockTableRecord
  2
*Paper_Space0
340
26
  0
ENDTAB
  0
ENDSEC
  0
SECTION
  2
BLOCKS
  0
BLOCK
  5
20
330
1F
100
AcDbEntity
  8
0
100
AcDbBlockBegin
  2
*Model_Space
 70
     0
 10
0.0
 20
0.0
 30
0.0
  3
*Model_Space
  1

  0
ENDBLK
  5
21
330
1F
100
AcDbEntity
  8
0
100
AcDbBlockEnd
  0
BLOCK
  5
1C
330
1B
100
AcDbEntity
 67
     1
  8
0
100
AcDbBlockBegin
  2
*Paper_Space
 70
     0
 10
0.0
 20
0.0
 30
0.0
  3
*Paper_Space
  1

  0
ENDBLK
  5
1D
330
1B
100
AcDbEntity
 67
     1
  8
0
100
AcDbBlockEnd
  0
BLOCK
  5
24
330
23
100
AcDbEntity
  8
0
100
AcDbBlockBegin
  2
*Paper_Space0
 70
     0
 10
0.0
 20
0.0
 30
0.0
  3
*Paper_Space0
  1

  0
ENDBLK
  5
25
330
23
100
AcDbEntity
  8
0
100
AcDbBlockEnd
  0
ENDSEC
  0
SECTION
  2
ENTITIES
  0
ARC
  5
73
330
1F
100
AcDbEntity
  8
0
  6
Continuous
 62
     7
370
    25
100
AcDbCircle
 10
810.696
 20
463.808
 30
0.0
 40
26.42344685007225
100
AcDbArc
 50
0.0
 51
90.0
  0
LINE
  5
74
330
1F
100
AcDbEntity
  8
0
  6
Continuous
 62
     7
370
    25
100
AcDbLine
 10
360.696
 20
490.2314468501
 30
0.0
 11
810.696
 21
490.2314468501
 31
0.0
  0
ARC
  5
75
330
1F
100
AcDbEntity
  8
0
  6
Continuous
 62
     7
370
    25
100
AcDbCircle
 10
360.696
 20
463.808
 30
0.0
 40
26.42344685007225
100
AcDbArc
 50
90.0
 51
180.0
  0
LINE
  5
76
330
1F
100
AcDbEntity
  8
0
  6
Continuous
 62
     7
370
    25
100
AcDbLine
 10
334.2725531499
 20
128.808
 30
0.0
 11
334.2725531499
 21
463.808
 31
0.0
  0
ARC
  5
77
330
1F
100
AcDbEntity
  8
0
  6
Continuous
 62
     7
370
    25
100
AcDbCircle
 10
360.696
 20
128.808
 30
0.0
 40
26.42344685007238
100
AcDbArc
 50
180.0
 51
270.0
  0
LINE
  5
78
330
1F
100
AcDbEntity
  8
0
  6
Continuous
 62
     7
370
    25
100
AcDbLine
 10
810.696
 20
102.3845531499
 30
0.0
 11
360.696
 21
102.3845531499
 31
0.0
  0
ARC
  5
79
330
1F
100
AcDbEntity
  8
0
  6
Continuous
 62
     7
370
    25
100
AcDbCircle
 10
810.696
 20
128.808
 30
0.0
 40
26.42344685007227
100
AcDbArc
 50
270.0
 51
0.0
  0
LINE
  5
7A
330
1F
100
AcDbEntity
  8
0
  6
Continuous
 62
     7
370
    25
100
AcDbLine
 10
837.1194468501
 20
463.808
 30
0.0
 11
837.1194468501
 21
128.808
 31
0.0
  0
LINE
  5
7B
330
1F
100
AcDbEntity
  8
0
  6
Continuous
 62
     7
370
    25
100
AcDbLine
 10
837.1194468501
 20
463.808
 30
0.0
 11
835.6215025479
 21
463.808
 31
0.0
  0
ARC
  5
7C
330
1F
100
AcDbEntity
  8
0
  6
Continuous
 62
     7
370
    25
100
AcDbCircle
 10
810.696
 20
463.808
 30
0.0
 40
24.92550254794043
100
AcDbArc
 50
0.0
 51
90.0
  0
LINE
  5
7D
330
1F
100
AcDbEntity
  8
0
  6
Continuous
 62
     7
370
    25
100
AcDbLine
 10
810.696
 20
490.2314468501
 30
0.0
 11
810.696
 21
488.7335025479
 31
0.0
  0
ARC
  5
7E
330
1F
100
AcDbEntity
  8
0
  6
Continuous
 62
     7
370
    25
100
AcDbCircle
 10
360.696
 20
463.808
 30
0.0
 40
24.92550254794037
100
AcDbArc
 50
90.0
 51
180.0
  0
LINE
  5
7F
330
1F
100
AcDbEntity
  8
0
  6
Continuous
 62
     7
370
    25
100
AcDbLine
 10
335.7704974521
 20
463.808
 30
0.0
 11
334.2725531499
 21
463.808
 31
0.0
  0
LINE
  5
80
330
1F
100
AcDbEntity
  8
0
  6
Continuous
 62
     7
370
    25
100
AcDbLine
 10
360.696
 20
490.2314468501
 30
0.0
 11
360.696
 21
488.7335025479
 31
0.0
  0
LINE
  5
81
330
1F
100
AcDbEntity
  8
0
  6
Continuous
 62
     7
370
    25
100
AcDbLine
 10
335.7704974521
 20
463.808
 30
0.0
 11
335.7704974521
 21
128.808
 31
0.0
  0
LINE
  5
82
330
1F
100
AcDbEntity
  8
0
  6
Continuous
 62
     7
370
    25
100
AcDbLine
 10
335.7704974521
 20
128.808
 30
0.0
 11
334.2725531499
 21
128.808
 31
0.0
  0
LINE
  5
83
330
1F
100
AcDbEntity
  8
0
  6
Continuous
 62
     7
370
    25
100
AcDbLine
 10
810.696
 20
488.7335025479
 30
0.0
 11
360.696
 21
488.7335025479
 31
0.0
  0
ARC
  5
84
330
1F
100
AcDbEntity
  8
0
  6
Continuous
 62
     7
370
    25
100
AcDbCircle
 10
360.696
 20
128.808
 30
0.0
 40
24.92550254794048
100
AcDbArc
 50
180.0
 51
270.0
  0
LINE
  5
85
330
1F
100
AcDbEntity
  8
0
  6
Continuous
 62
     7
370
    25
100
AcDbLine
 10
360.696
 20
103.8824974521
 30
0.0
 11
360.696
 21
102.3845531499
 31
0.0
  0
LINE
  5
86
330
1F
100
AcDbEntity
  8
0
  6
Continuous
 62
     7
370
    25
100
AcDbLine
 10
360.696
 20
103.8824974521
 30
0.0
 11
810.696
 21
103.8824974521
 31
0.0
  0
LINE
  5
87
330
1F
100
AcDbEntity
  8
0
  6
Continuous
 62
     7
370
    25
100
AcDbLine
 10
810.696
 20
103.8824974521
 30
0.0
 11
810.696
 21
102.3845531499
 31
0.0
  0
ARC
  5
88
330
1F
100
AcDbEntity
  8
0
  6
Continuous
 62
     7
370
    25
100
AcDbCircle
 10
810.696
 20
128.808
 30
0.0
 40
24.92550254794047
100
AcDbArc
 50
270.0
 51
0.0
  0
LINE
  5
89
330
1F
100
AcDbEntity
  8
0
  6
Continuous
 62
     7
370
    25
100
AcDbLine
 10
837.1194468501
 20
128.808
 30
0.0
 11
835.6215025479
 21
128.808
 31
0.0
  0
LINE
  5
8A
330
1F
100
AcDbEntity
  8
0
  6
Continuous
 62
     7
370
    25
100
AcDbLine
 10
835.6215025479
 20
128.808
 30
0.0
 11
835.6215025479
 21
463.808
 31
0.0
  0
SPLINE
  5
8B
330
1F
100
AcDbEntity
  8
0
  6
Continuous
 62
     7
370
    25
100
AcDbSpline
210
0.0
220
0.0
230
1.0
 70
     8
 71
     3
 72
    15
 73
    11
 74
     0
 42
0.00000001
 43
0.00000001
 40
0.0
 40
0.0
 40
0.0
 40
0.0
 40
0.1277272325253086
 40
0.2500006214583806
 40
0.3758169428167386
 40
0.5000000007290374
 40
0.6241813055073757
 40
0.7499993797161455
 40
0.8722718189628137
 40
1.0
 40
1.0
 40
1.0
 40
1.0
 10
360.6959999999998
 20
111.0226142776186
 30
0.0
 10
359.5083502918919
 20
111.0944002830956
 30
0.0
 10
357.1837625024946
 20
111.2349070930099
 30
0.0
 10
353.8264979151708
 20
112.3054668816251
 30
0.0
 10
350.7576561366154
 20
113.9411817628633
 30
0.0
 10
348.0549515668199
 20
116.1669285956642
 30
0.0
 10
345.8291911875547
 20
118.8696420878812
 30
0.0
 10
344.1934759550807
 20
121.9384745349602
 30
0.0
 10
343.1229090083725
 20
125.2957535683312
 30
0.0
 10
342.9824012838202
 20
127.6203414298764
 30
0.0
 10
342.9106142776185
 20
128.8079999999999
 30
0.0
  0
LINE
  5
8C
330
1F
100
AcDbEntity
  8
0
  6
Continuous
 62
     7
370
    25
100
AcDbLine
 10
360.696
 20
103.8824974521
 30
0.0
 11
360.696
 21
111.0226142776
 31
0.0
  0
LINE
  5
8D
330
1F
100
AcDbEntity
  8
0
  6
Continuous
 62
     7
370
    25
100
AcDbLine
 10
335.7704974521
 20
128.808
 30
0.0
 11
342.9106142776
 21
128.808
 31
0.0
  0
SPLINE
  5
8E
330
1F
100
AcDbEntity
  8
0
  6
Continuous
 62
     7
370
    25
100
AcDbSpline
210
0.0
220
0.0
230
1.0
 70
     8
 71
     3
 72
    13
 73
     9
 74
     0
 42
0.00000001
 43
0.00000001
 40
0.0
 40
0.0
 40
0.0
 40
0.0
 40
0.174326166382849
 40
0.3486518694586365
 40
0.5232330571069536
 40
0.6978153437318656
 40
0.8488916051091491
 40
1.0
 40
1.0
 40
1.0
 40
1.0
 10
828.0237454441395
 20
463.7997611321936
 30
0.0
 10
828.0007811527435
 20
444.3227127662578
 30
0.0
 10
827.9548526309836
 20
405.3686677985835
 30
0.0
 10
827.960632462262
 20
346.8906110819424
 30
0.0
 10
828.0221648471376
 20
288.3982084377134
 30
0.0
 10
828.1370094708155
 20
232.5353540307532
 30
0.0
 10
828.2888783333509
 20
179.3318131489679
 30
0.0
 10
828.4172120438155
 20
145.6504649113541
 30
0.0
 10
828.481385722381
 20
128.808
 30
0.0
  0
LINE
  5
8F
330
1F
100
AcDbEntity
  8
0
  6
Continuous
 62
     7
370
    25
100
AcDbLine
 10
828.0420977811
 20
463.808
 30
0.0
 11
828.0237454441
 21
463.7997611322
 31
0.0
  0
LINE
  5
90
330
1F
100
AcDbEntity
  8
0
  6
Continuous
 62
     7
370
    25
100
AcDbLine
 10
835.6215025479
 20
463.808
 30
0.0
 11
828.0420977811
 21
463.808
 31
0.0
  0
LINE
  5
91
330
1F
100
AcDbEntity
  8
0
  6
Continuous
 62
     7
370
    25
100
AcDbLine
 10
835.6215025479
 20
128.808
 30
0.0
 11
828.4813857224
 21
128.808
 31
0.0
  0
SPLINE
  5
92
330
1F
100
AcDbEntity
  8
0
  6
Continuous
 62
     7
370
    25
100
AcDbSpline
210
0.0
220
0.0
230
1.0
 70
     8
 71
     3
 72
    15
 73
    11
 74
     0
 42
0.00000001
 43
0.00000001
 40
0.0
 40
0.0
 40
0.0
 40
0.0
 40
0.1277272200578696
 40
0.2500006214633583
 40
0.3758169207027371
 40
0.5000000007368511
 40
0.6241812827831894
 40
0.7499993797211877
 40
0.8722718058164893
 40
1.0
 40
1.0
 40
1.0
 40
1.0
 10
810.6959999999997
 20
481.1540977811005
 30
0.0
 10
811.8543153870025
 20
481.0840848580372
 30
0.0
 10
814.121487305957
 20
480.9470484904691
 30
0.0
 10
817.3958293733536
 20
479.9029309506597
 30
0.0
 10
820.3888727916011
 20
478.3076172096646
 30
0.0
 10
823.0248221291458
 20
476.1368451065592
 30
0.0
 10
825.195607782309
 20
473.5008868444684
 30
0.0
 10
826.7909218689622
 20
470.5078527706347
 30
0.0
 10
827.8350465719948
 20
467.2334962549335
 30
0.0
 10
827.9720838556862
 20
464.9663242635272
 30
0.0
 10
828.0420977811003
 20
463.808
 30
0.0
  0
LINE
  5
93
330
1F
100
AcDbEntity
  8
0
  6
Continuous
 62
     7
370
    25
100
AcDbLine
 10
810.696
 20
488.7335025479
 30
0.0
 11
810.696
 21
481.1540977811
 31
0.0
  0
LINE
  5
94
330
1F
100
AcDbEntity
  8
0
  6
Continuous
 62
     7
370
    25
100
AcDbLine
 10
360.696
 20
111.0226142776
 30
0.0
 11
360.696
 21
111.0255048759
 31
0.0
  0
SPLINE
  5
95
330
1F
100
AcDbEntity
  8
0
  6
Continuous
 62
     7
370
    25
100
AcDbSpline
210
0.0
220
0.0
230
1.0
 70
     8
 71
     3
 72
    15
 73
    11
 74
     0
 42
0.00000001
 43
0.00000001
 40
0.0
 40
0.0
 40
0.0
 40
0.0
 40
0.1228645840751189
 40
0.2457368046524807
 40
0.3685996278389462
 40
0.4917914502272778
 40
0.6149933900460934
 40
0.738185806191041
 40
0.8690728481063811
 40
1.0
 40
1.0
 40
1.0
 40
1.0
 10
810.6957827585242
 20
111.0255048759212
 30
0.0
 10
792.2891644375565
 20
111.0878479522597
 30
0.0
 10
755.4747837541291
 20
111.2125379797959
 30
0.0
 10
700.1900064872021
 20
111.340470826198
 30
0.0
 10
644.8257677993781
 20
111.4226768926602
 30
0.0
 10
589.3917045147289
 20
111.4518566334795
 30
0.0
 10
533.907097810489
 20
111.4292488519506
 30
0.0
 10
477.2853386340113
 20
111.352528766529
 30
0.0
 10
419.5350199130202
 20
111.2238106826015
 30
0.0
 10
380.3111545024104
 20
111.0916135623653
 30
0.0
 10
360.6962172457351
 20
111.0255048759366
 30
0.0
  0
LINE
  5
96
330
1F
100
AcDbEntity
  8
0
  6
Continuous
 62
     7
370
    25
100
AcDbLine
 10
810.696
 20
111.0226142776
 30
0.0
 11
810.696
 21
111.0255048759
 31
0.0
  0
LINE
  5
97
330
1F
100
AcDbEntity
  8
0
  6
Continuous
 62
     7
370
    25
100
AcDbLine
 10
810.696
 20
103.8824974521
 30
0.0
 11
810.696
 21
111.0226142776
 31
0.0
  0
LINE
  5
98
330
1F
100
AcDbEntity
  8
0
  6
Continuous
 62
     7
370
    25
100
AcDbLine
 10
343.3682545558
 20
463.7997611599
 30
0.0
 11
343.3499022189
 21
463.808
 31
0.0
  0
SPLINE
  5
99
330
1F
100
AcDbEntity
  8
0
  6
Continuous
 62
     7
370
    25
100
AcDbSpline
210
0.0
220
0.0
230
1.0
 70
     8
 71
     3
 72
    15
 73
    11
 74
     0
 42
0.00000001
 43
0.00000001
 40
0.0
 40
0.0
 40
0.0
 40
0.0
 40
0.1247936099348876
 40
0.2495870363348554
 40
0.374455195390765
 40
0.4993230618550084
 40
0.6244441988729217
 40
0.7495651468614222
 40
0.8747824746930583
 40
1.0
 40
1.0
 40
1.0
 40
1.0
 10
342.9106142776185
 20
128.8079999999999
 30
0.0
 10
342.9641280350621
 20
142.7167127008825
 30
0.0
 10
343.0711554712462
 20
170.5341176469965
 30
0.0
 10
343.199027455242
 20
212.3108059363276
 30
0.0
 10
343.3018987590887
 20
254.1203826486108
 30
0.0
 10
343.3762621713311
 20
295.9890228470109
 30
0.0
 10
343.4214964997273
 20
337.9012385024045
 30
0.0
 10
343.4358038573455
 20
379.8602377632678
 30
0.0
 10
343.421167431858
 20
421.8309253600132
 30
0.0
 10
343.3858921904375
 20
449.8101418724649
 30
0.0
 10
343.3682545558193
 20
463.7997611599116
 30
0.0
  0
LINE
  5
9A
330
1F
100
AcDbEntity
  8
0
  6
Continuous
 62
     7
370
    25
100
AcDbLine
 10
335.7704974521
 20
463.808
 30
0.0
 11
343.3499022189
 21
463.808
 31
0.0
  0
SPLINE
  5
9B
330
1F
100
AcDbEntity
  8
0
  6
Continuous
 62
     7
370
    25
100
AcDbSpline
210
0.0
220
0.0
230
1.0
 70
     8
 71
     3
 72
    15
 73
    11
 74
     0
 42
0.00000001
 43
0.00000001
 40
0.0
 40
0.0
 40
0.0
 40
0.0
 40
0.1277272325169644
 40
0.2500006214583753
 40
0.3758169428091939
 40
0.5000000007290262
 40
0.6241813055286989
 40
0.749999379716132
 40
0.8722718189865003
 40
1.0
 40
1.0
 40
1.0
 40
1.0
 10
828.481385722381
 20
128.8079999999999
 30
0.0
 10
828.4095997169128
 20
127.6203502919699
 30
0.0
 10
828.2690929070067
 20
125.2957625025734
 30
0.0
 10
827.1985331184324
 20
121.9384979153064
 30
0.0
 10
825.5628182371763
 20
118.8696561366763
 30
0.0
 10
823.3370714042643
 20
116.1669515667105
 30
0.0
 10
820.6343579119464
 20
113.9411911874413
 30
0.0
 10
817.5655254646559
 20
112.3054759549166
 30
0.0
 10
814.2082464314453
 20
111.234909008325
 30
0.0
 10
811.8836585699019
 20
111.0944012837957
 30
0.0
 10
810.6959999999999
 20
111.0226142776186
 30
0.0
  0
SPLINE
  5
9C
330
1F
100
AcDbEntity
  8
0
  6
Continuous
 62
     7
370
    25
100
AcDbSpline
210
0.0
220
0.0
230
1.0
 70
     8
 71
     3
 72
    15
 73
    11
 74
     0
 42
0.00000001
 43
0.00000001
 40
0.0
 40
0.0
 40
0.0
 40
0.0
 40
0.1277272200198264
 40
0.2500006214633609
 40
0.375816920668618
 40
0.50000000073686
 40
0.624181282785602
 40
0.7499993797211942
 40
0.8722718058192169
 40
1.0
 40
1.0
 40
1.0
 40
1.0
 10
343.3499022188992
 20
463.8079999999998
 30
0.0
 10
343.4199151419236
 20
464.9663153866561
 30
0.0
 10
343.5569515094562
 20
467.2334873056075
 30
0.0
 10
344.6010690490828
 20
470.5078293727527
 30
0.0
 10
346.1963827901572
 20
473.5008727913329
 30
0.0
 10
348.3671548932139
 20
476.1368221289667
 30
0.0
 10
351.0031131555501
 20
478.307607782321
 30
0.0
 10
353.9961472294074
 20
479.9029218689806
 30
0.0
 10
357.270503745091
 20
480.947046572
 30
0.0
 10
359.5376757364972
 20
481.0840838556889
 30
0.0
 10
360.6959999999995
 20
481.1540977811005
 30
0.0
  0
LINE
  5
9D
330
1F
100
AcDbEntity
  8
0
  6
Continuous
 62
     7
370
    25
100
AcDbLine
 10
360.696
 20
488.7335025479
 30
0.0
 11
360.696
 21
481.1540977811
 31
0.0
  0
LINE
  5
9E
330
1F
100
AcDbEntity
  8
0
  6
Continuous
 62
     7
370
    25
100
AcDbLine
 10
561.446
 20
487.0848123394
 30
0.0
 11
561.446
 21
485.933421302
 31
0.0
  0
ARC
  5
9F
330
1F
100
AcDbEntity
  8
0
  6
Continuous
 62
     7
370
    25
100
AcDbCircle
 10
562.1966847631
 20
490.6971679653
 30
0.0
 40
4.822531481003237
100
AcDbArc
 50
261.0448095014
 51
272.9633983002
  0
LINE
  5
A0
330
1F
100
AcDbEntity
  8
0
  6
Continuous
 62
     7
370
    25
100
AcDbLine
 10
562.446
 20
485.8810853458
 30
0.0
 11
608.946
 21
485.8810853458
 31
0.0
  0
ARC
  5
A1
330
1F
100
AcDbEntity
  8
0
  6
Continuous
 62
     7
370
    25
100
AcDbCircle
 10
609.1953152369
 20
490.6971679653
 30
0.0
 40
4.82253148100465
100
AcDbArc
 50
267.0366016998
 51
278.9551904986
  0
LINE
  5
A2
330
1F
100
AcDbEntity
  8
0
  6
Continuous
 62
     7
370
    25
100
AcDbLine
 10
609.946
 20
485.933421302
 30
0.0
 11
609.946
 21
487.0848123394
 31
0.0
  0
ARC
  5
A3
330
1F
100
AcDbEntity
  8
0
  6
Continuous
 62
     7
370
    25
100
AcDbCircle
 10
609.1953152369
 20
482.3210656761
 30
0.0
 40
4.822531481019244
100
AcDbArc
 50
81.0448095014
 51
92.9633983002
  0
LINE
  5
A4
330
1F
100
AcDbEntity
  8
0
  6
Continuous
 62
     7
370
    25
100
AcDbLine
 10
608.946
 20
487.1371482956
 30
0.0
 11
562.446
 21
487.1371482956
 31
0.0
  0
ARC
  5
A5
330
1F
100
AcDbEntity
  8
0
  6
Continuous
 62
     7
370
    25
100
AcDbCircle
 10
562.1966847631
 20
482.3210656761
 30
0.0
 40
4.822531481008772
100
AcDbArc
 50
87.0366016998
 51
98.9551904986
  0
SPLINE
  5
A6
330
1F
100
AcDbEntity
  8
0
  6
Continuous
 62
     7
370
    25
100
AcDbSpline
210
0.0
220
0.0
230
1.0
 70
     8
 71
     3
 72
    17
 73
    13
 74
     0
 42
0.00000001
 43
0.00000001
 40
0.0
 40
0.0
 40
0.0
 40
0.0
 40
0.1251758763215723
 40
0.2503512010402915
 40
0.3339006886820123
 40
0.4174527258850397
 40
0.5009984073784512
 40
0.584104370194409
 40
0.6672165500625096
 40
0.7503262304554915
 40
0.8751628434511921
 40
0.9999999999999999
 40
0.9999999999999999
 40
0.9999999999999999
 40
0.9999999999999999
 10
360.6959999999995
 20
481.1540977811005
 30
0.0
 10
379.4471773355598
 20
481.0859762063647
 30
0.0
 10
416.9494493773174
 20
480.9497333570795
 30
0.0
 10
467.0271387102652
 20
480.8184838654162
 30
0.0
 10
510.8835528328331
 20
480.7315744667192
 30
0.0
 10
548.5096913137199
 20
480.6829227822615
 30
0.0
 10
586.079768586962
 20
480.6652024576057
 30
0.0
 10
623.5836393268029
 20
480.6836121812114
 30
0.0
 10
661.0114869006038
 20
480.732445794445
 30
0.0
 10
704.6848655200038
 20
480.8192778838194
 30
0.0
 10
754.5948170273107
 20
480.9502540092437
 30
0.0
 10
791.9955785346195
 20
481.0861497585307
 30
0.0
 10
810.6959999999997
 20
481.1540977811004
 30
0.0
  0
LINE
  5
A7
330
1F
100
AcDbEntity
  8
0
  6
Continuous
 62
     7
370
    25
100
AcDbLine
 10
562.446
 20
485.8810853458
 30
0.0
 11
562.446
 21
486.6799889736
 31
0.0
  0
ARC
  5
A8
330
1F
100
AcDbEntity
  8
0
  6
Continuous
 62
     7
370
    25
100
AcDbCircle
 10
562.1966847631
 20
491.4960715931
 30
0.0
 40
4.822531481003219
100
AcDbArc
 50
261.0448095014
 51
272.9633983002
  0
LINE
  5
A9
330
1F
100
AcDbEntity
  8
0
  6
Continuous
 62
     7
370
    25
100
AcDbLine
 10
608.946
 20
485.8810853458
 30
0.0
 11
608.946
 21
486.6799889736
 31
0.0
  0
ARC
  5
AA
330
1F
100
AcDbEntity
  8
0
  6
Continuous
 62
     7
370
    25
100
AcDbCircle
 10
609.1953152369
 20
491.4960715931
 30
0.0
 40
4.82253148100464
100
AcDbArc
 50
267.0366016998
 51
278.9551904986
  0
LINE
  5
AB
330
1F
100
AcDbEntity
  8
0
  6
Continuous
 62
     7
370
    25
100
AcDbLine
 10
562.446
 20
486.6799889736
 30
0.0
 11
608.946
 21
486.6799889736
 31
0.0
  0
LINE
  5
AC
330
1F
100
AcDbEntity
  8
0
  6
Continuous
 62
     7
370
    25
100
AcDbLine
 10
342.9106142776
 20
128.808
 30
0.0
 11
342.921352568
 21
128.7975572161
 31
0.0
  0
SPLINE
  5
AD
330
1F
100
AcDbEntity
  8
0
  6
Continuous
 62
     7
370
    25
100
AcDbSpline
210
0.0
220
0.0
230
1.0
 70
     8
 71
     3
 72
    20
 73
    16
 74
     0
 42
0.00000001
 43
0.00000001
 40
0.0
 40
0.0
 40
0.0
 40
0.0
 40
0.1265538351271533
 40
0.2499651511273783
 40
0.3327392171227725
 40
0.4158538357331397
 40
0.5003221320401965
 40
0.5610880491730162
 40
0.6245274612536207
 40
0.6852800061033385
 40
0.7501864226771665
 40
0.8087868269621451
 40
0.8744853467532699
 40
0.9261837418184964
 40
1.0
 40
1.0
 40
1.0
 40
1.0
 10
343.3682545558193
 20
463.7997611599124
 30
0.0
 10
343.5353033740483
 20
463.7804991959048
 30
0.0
 10
343.8652529409842
 20
463.7424535709792
 30
0.0
 10
345.2534040043091
 20
463.3829714186207
 30
0.0
 10
346.8943045270912
 20
462.9234626149766
 30
0.0
 10
348.6319603909193
 20
462.4166797253932
 30
0.0
 10
350.4702589526984
 20
461.8653803659971
 30
0.0
 10
352.32633260623
 20
461.2982268129875
 30
0.0
 10
354.0911036810776
 20
460.7523808689467
 30
0.0
 10
356.0014911408009
 20
460.1548303358703
 30
0.0
 10
357.9534648471003
 20
459.5396808947311
 30
0.0
 10
360.0320999013254
 20
458.8796773548049
 30
0.0
 10
362.0233308903578
 20
458.2454780364375
 30
0.0
 10
364.2273775267938
 20
457.5400870476801
 30
0.0
 10
365.6995306827025
 20
457.0693806681008
 30
0.0
 10
366.5653167453517
 20
456.792554156264
 30
0.0
  0
SPLINE
  5
AE
330
1F
100
AcDbEntity
  8
0
  6
Continuous
 62
     7
370
    25
100
AcDbSpline
210
0.0
220
0.0
230
1.0
 70
     8
 71
     3
 72
    14
 73
    10
 74
     0
 42
0.00000001
 43
0.00000001
 40
0.0
 40
0.0
 40
0.0
 40
0.0
 40
0.1309789567359564
 40
0.2858646397336606
 40
0.4407504587266781
 40
0.5957964818660973
 40
0.7508430992438341
 40
0.8754214680931132
 40
1.0
 40
1.0
 40
1.0
 40
1.0
 10
366.5653167453516
 20
456.792554156264
 30
0.0
 10
366.5736797501764
 20
442.699068963591
 30
0.0
 10
366.5919322040125
 20
411.9397075547433
 30
0.0
 10
366.595103281524
 20
364.501226317703
 30
0.0
 10
366.5787823939237
 20
314.4778056372937
 30
0.0
 10
366.5359315488729
 20
264.4536928986139
 30
0.0
 10
366.4630286454468
 20
217.7176992813408
 30
0.0
 10
366.3658524232713
 20
174.2850550163655
 30
0.0
 10
366.283904086811
 20
147.5377881310704
 30
0.0
 10
366.2429298917659
 20
134.1641459362164
 30
0.0
  0
SPLINE
  5
AF
330
1F
100
AcDbEntity
  8
0
  6
Continuous
 62
     7
370
    25
100
AcDbSpline
210
0.0
220
0.0
230
1.0
 70
     8
 71
     3
 72
    17
 73
    13
 74
     0
 42
0.00000001
 43
0.00000001
 40
0.0
 40
0.0
 40
0.0
 40
0.0
 40
0.1266110475050755
 40
0.2500847048582533
 40
0.3750083979564967
 40
0.5003590782846351
 40
0.6244929809704424
 40
0.7500930130890681
 40
0.808719356142873
 40
0.8744277139388291
 40
0.9260765151140327
 40
1.0
 40
1.0
 40
1.0
 40
1.0
 10
342.921352568014
 20
128.7975572161245
 30
0.0
 10
343.0992992967761
 20
128.7379098626726
 30
0.0
 10
343.4507832787815
 20
128.6200932022978
 30
0.0
 10
345.0331007638945
 20
128.7775104350094
 30
0.0
 10
347.2963498883524
 20
129.1705432336453
 30
0.0
 10
350.2392156105899
 20
129.8105123303983
 30
0.0
 10
353.7265769160456
 20
130.6643912696665
 30
0.0
 10
356.945741395361
 20
131.516542752832
 30
0.0
 10
359.6969213470946
 20
132.2762440673004
 30
0.0
 10
361.6918587905625
 20
132.8394708442159
 30
0.0
 10
363.9002953400014
 20
133.4756041414564
 30
0.0
 10
365.3748628191732
 20
133.9090056456896
 30
0.0
 10
366.2429298917659
 20
134.1641459362165
 30
0.0
  0
SPLINE
  5
B0
330
1F
100
AcDbEntity
  8
0
  6
Continuous
 62
     7
370
    25
100
AcDbSpline
210
0.0
220
0.0
230
1.0
 70
     8
 71
     3
 72
    20
 73
    16
 74
     0
 42
0.00000001
 43
0.00000001
 40
0.0
 40
0.0
 40
0.0
 40
0.0
 40
0.126556252940611
 40
0.249976038970315
 40
0.3327727179852602
 40
0.4158974924307132
 40
0.5003382796972766
 40
0.5611196056253195
 40
0.624538573116369
 40
0.6853094740952352
 40
0.7502030107405545
 40
0.8088034325129289
 40
0.8744829229385416
 40
0.9261303508225135
 40
0.9999999999999999
 40
0.9999999999999999
 40
0.9999999999999999
 40
0.9999999999999999
 10
360.6962172457351
 20
111.0255048759366
 30
0.0
 10
360.6483126514817
 20
111.1913506748934
 30
0.0
 10
360.5536906913518
 20
111.5189320858455
 30
0.0
 10
360.7237125130538
 20
112.8969632636509
 30
0.0
 10
361.0187782039935
 20
114.5277815088755
 30
0.0
 10
361.3847297295423
 20
116.2561695235523
 30
0.0
 10
361.8112796601969
 20
118.0864658108866
 30
0.0
 10
362.2689019115458
 20
119.9359066410988
 30
0.0
 10
362.7219356253931
 20
121.6961085485773
 30
0.0
 10
363.2295376849174
 20
123.6026744594425
 30
0.0
 10
363.7627153572303
 20
125.5522804464649
 30
0.0
 10
364.3446417421623
 20
127.6292395349275
 30
0.0
 10
364.9125783844034
 20
129.6194370385103
 30
0.0
 10
365.5525350816557
 20
131.8238958448971
 30
0.0
 10
365.9871494625527
 20
133.2971200489158
 30
0.0
 10
366.2429298917658
 20
134.1641459362164
 30
0.0
  0
SPLINE
  5
B1
330
1F
100
AcDbEntity
  8
0
  6
Continuous
 62
     7
370
    25
100
AcDbSpline
210
0.0
220
0.0
230
1.0
 70
     8
 71
     3
 72
    15
 73
    11
 74
     0
 42
0.00000001
 43
0.00000001
 40
0.0
 40
0.0
 40
0.0
 40
0.0
 40
0.1269045527305713
 40
0.2538425351363233
 40
0.3780352408674306
 40
0.5022370350306854
 40
0.6264291606887746
 40
0.7509491584005913
 40
0.8754783507243877
 40
0.9999999999999999
 40
0.9999999999999999
 40
0.9999999999999999
 40
0.9999999999999999
 10
366.2429298917658
 20
134.1641459362165
 30
0.0
 10
384.7877069187662
 20
134.2123245582218
 30
0.0
 10
421.8821461077677
 20
134.3086944936266
 30
0.0
 10
477.1868944587758
 20
134.3919357314112
 30
0.0
 10
532.1244085977529
 20
134.4395934659708
 30
0.0
 10
586.6772837777379
 20
134.4529882047514
 30
0.0
 10
641.2779177657826
 20
134.4372389541434
 30
0.0
 10
695.9082275640865
 20
134.3896483998944
 30
0.0
 10
750.5586583194735
 20
134.3055287073953
 30
0.0
 10
786.952633602299
 20
134.2112725750249
 30
0.0
 10
805.1490701082336
 20
134.1641459362165
 30
0.0
  0
SPLINE
  5
B2
330
1F
100
AcDbEntity
  8
0
  6
Continuous
 62
     7
370
    25
100
AcDbSpline
210
0.0
220
0.0
230
1.0
 70
     8
 71
     3
 72
    17
 73
    13
 74
     0
 42
0.00000001
 43
0.00000001
 40
0.0
 40
0.0
 40
0.0
 40
0.0
 40
0.1266118421129017
 40
0.2500858406216119
 40
0.3750095315866838
 40
0.500359986362989
 40
0.6244935788178357
 40
0.7500933215280841
 40
0.808719257481274
 40
0.8744278234757134
 40
0.9260455737944896
 40
1.0
 40
1.0
 40
1.0
 40
1.0
 10
810.6957827585242
 20
111.0255048759212
 30
0.0
 10
810.7436234283726
 20
111.1915835380868
 30
0.0
 10
810.8381191243146
 20
111.5196249056547
 30
0.0
 10
810.6475347506239
 20
113.0684820615163
 30
0.0
 10
810.2242038228243
 20
115.3010881885118
 30
0.0
 10
809.5576767531576
 20
118.217009089248
 30
0.0
 10
808.6817402544981
 20
121.6819066126968
 30
0.0
 10
807.8156658111324
 20
124.8868056476562
 30
0.0
 10
807.047398191836
 20
127.6291491122823
 30
0.0
 10
806.4795861523146
 20
129.6188621979454
 30
0.0
 10
805.839636528058
 20
131.8232737758308
 30
0.0
 10
805.4050281741568
 20
133.2965029499015
 30
0.0
 10
805.1490701082336
 20
134.1641459362165
 30
0.0
  0
SPLINE
  5
B3
330
1F
100
AcDbEntity
  8
0
  6
Continuous
 62
     7
370
    25
100
AcDbSpline
210
0.0
220
0.0
230
1.0
 70
     8
 71
     3
 72
    19
 73
    15
 74
     0
 42
0.00000001
 43
0.00000001
 40
0.0
 40
0.0
 40
0.0
 40
0.0
 40
0.0608674295710719
 40
0.1075448791807586
 40
0.1526926496740193
 40
0.2035546233994846
 40
0.2498841106349481
 40
0.3354901668717939
 40
0.4181187534938946
 40
0.4997447961163763
 40
0.6250694535624723
 40
0.7499672129501789
 40
0.8734152375639432
 40
1.0
 40
1.0
 40
1.0
 40
1.0
 10
805.1490701082338
 20
134.1641459362164
 30
0.0
 10
805.8640819535361
 20
133.9537815240064
 30
0.0
 10
807.1274154482759
 20
133.5820948033012
 30
0.0
 10
808.8980082839365
 20
133.0700516560033
 30
0.0
 10
810.5310295133633
 20
132.6041737750764
 30
0.0
 10
812.1305207115043
 20
132.1557228177489
 30
0.0
 10
814.1360903136452
 20
131.6033097473306
 30
0.0
 10
816.401519785358
 20
130.9979415728889
 30
0.0
 10
818.866585301031
 20
130.368774517009
 30
0.0
 10
821.4859744189506
 20
129.7380940578699
 30
0.0
 10
824.0958975505907
 20
129.1704769978714
 30
0.0
 10
826.3588342464457
 20
128.7775275996866
 30
0.0
 10
827.9412333700407
 20
128.6200886581262
 30
0.0
 10
828.2927062995323
 20
128.7379083326628
 30
0.0
 10
828.4706474320027
 20
128.7975572118655
 30
0.0
  0
SPLINE
  5
B4
330
1F
100
AcDbEntity
  8
0
  6
Continuous
 62
     7
370
    25
100
AcDbSpline
210
0.0
220
0.0
230
1.0
 70
     8
 71
     3
 72
    13
 73
     9
 74
     0
 42
0.00000001
 43
0.00000001
 40
0.0
 40
0.0
 40
0.0
 40
0.0
 40
0.1467168306652288
 40
0.2934600629632736
 40
0.4699775802484281
 40
0.6464941241811077
 40
0.823246899276788
 40
1.0
 40
1.0
 40
1.0
 40
1.0
 10
805.1490701082336
 20
134.1641459362165
 30
0.0
 10
805.1013187251937
 20
149.9150184101491
 30
0.0
 10
805.005807366272
 20
181.419597720982
 30
0.0
 10
804.9020749476094
 20
231.9292110391907
 30
0.0
 10
804.8322410199962
 20
285.678042343005
 30
0.0
 10
804.8009902310081
 20
342.6859551784859
 30
0.0
 10
804.794518427758
 20
399.733847578192
 30
0.0
 10
804.8159616391004
 20
437.7729736171511
 30
0.0
 10
804.8266832546481
 20
456.792554156264
 30
0.0
  0
SPLINE
  5
B5
330
1F
100
AcDbEntity
  8
0
  6
Continuous
 62
     7
370
    25
100
AcDbSpline
210
0.0
220
0.0
230
1.0
 70
     8
 71
     3
 72
    19
 73
    15
 74
     0
 42
0.00000001
 43
0.00000001
 40
0.0
 40
0.0
 40
0.0
 40
0.0
 40
0.0608659247559847
 40
0.1075425235575553
 40
0.1527013716030632
 40
0.2035745727291736
 40
0.2499005732353065
 40
0.3355183321477091
 40
0.418148865597933
 40
0.4997608126338655
 40
0.6250983058137335
 40
0.7499765142157248
 40
0.8734166304077371
 40
1.0
 40
1.0
 40
1.0
 40
1.0
 10
804.8266832546478
 20
456.792554156264
 30
0.0
 10
805.5405407954013
 20
457.0208195886859
 30
0.0
 10
806.8018383391579
 20
457.4241362349376
 30
0.0
 10
808.568964545785
 20
457.9895876881735
 30
0.0
 10
810.1986290976708
 20
458.5099218009984
 30
0.0
 10
811.7944748699844
 20
459.0177546876726
 30
0.0
 10
813.7950583875348
 20
459.652496450464
 30
0.0
 10
816.0542247428966
 20
460.3637727924202
 30
0.0
 10
818.5115959497256
 20
461.128360545808
 30
0.0
 10
821.1216682891762
 20
461.9276182766029
 30
0.0
 10
823.7196763191663
 20
462.7023050292681
 30
0.0
 10
825.9657328885302
 20
463.3383362384142
 30
0.0
 10
827.5260632249124
 20
463.7422429218763
 30
0.0
 10
827.8564667783463
 20
463.7804283750466
 30
0.0
 10
828.0237454441395
 20
463.7997611321936
 30
0.0
  0
LINE
  5
B6
330
1F
100
AcDbEntity
  8
0
  6
Continuous
 62
     7
370
    25
100
AcDbLine
 10
828.470647432
 20
128.7975572119
 30
0.0
 11
828.4813857224
 21
128.808
 31
0.0
  0
LINE
  5
B7
330
1F
100
AcDbEntity
  8
0
  6
Continuous
 62
     7
370
    25
100
AcDbLine
 10
360.6379268359
 20
481.0680904317
 30
0.0
 11
360.696
 21
481.1540977811
 31
0.0
  0
LINE
  5
B8
330
1F
100
AcDbEntity
  8
0
  6
Continuous
 62
     7
370
    25
100
AcDbLine
 10
810.7540731364
 20
481.0680904316
 30
0.0
 11
810.696
 21
481.1540977811
 31
0.0
  0
SPLINE
  5
B9
330
1F
100
AcDbEntity
  8
0
  6
Continuous
 62
     7
370
    25
100
AcDbSpline
210
0.0
220
0.0
230
1.0
 70
     8
 71
     3
 72
    19
 73
    15
 74
     0
 42
0.00000001
 43
0.00000001
 40
0.0
 40
0.0
 40
0.0
 40
0.0
 40
0.0608741305382309
 40
0.1075484788096387
 40
0.1527005278613013
 40
0.2035734358215412
 40
0.2499032095553776
 40
0.3355205804444585
 40
0.4181530964394182
 40
0.4997690907169807
 40
0.6251088724482774
 40
0.7499873174092683
 40
0.8734243250471385
 40
1.0
 40
1.0
 40
1.0
 40
1.0
 10
804.8266832546478
 20
456.792554156264
 30
0.0
 10
805.0516721024298
 20
457.5096126150535
 30
0.0
 10
805.4491678549626
 20
458.7764651479526
 30
0.0
 10
805.998282421244
 20
460.5594408476693
 30
0.0
 10
806.4988568641429
 20
462.2083052403878
 30
0.0
 10
806.9818786420782
 20
463.8285294713834
 30
0.0
 10
807.5784369050831
 20
465.8668942265046
 30
0.0
 10
808.2348572419569
 20
468.1805459042789
 30
0.0
 10
808.9214164529391
 20
470.7156484006308
 30
0.0
 10
809.6152098305045
 20
473.4310286226128
 30
0.0
 10
810.2487776412102
 20
476.170205358314
 30
0.0
 10
810.7030322898383
 20
478.598381000098
 30
0.0
 10
810.907741187812
 20
480.3584952779898
 30
0.0
 10
810.8057227345411
 20
480.8295873453533
 30
0.0
 10
810.7540731364222
 20
481.068090431571
 30
0.0
  0
SPLINE
  5
BA
330
1F
100
AcDbEntity
  8
0
  6
Continuous
 62
     7
370
    25
100
AcDbSpline
210
0.0
220
0.0
230
1.0
 70
     8
 71
     3
 72
    17
 73
    13
 74
     0
 42
0.00000001
 43
0.00000001
 40
0.0
 40
0.0
 40
0.0
 40
0.0
 40
0.0963834082633821
 40
0.1969881951147595
 40
0.2975925354910615
 40
0.3982786070880068
 40
0.4989623615728406
 40
0.5824100541296017
 40
0.6658636207102462
 40
0.7493146815593678
 40
0.8746570506974048
 40
1.0
 40
1.0
 40
1.0
 40
1.0
 10
804.8266832546478
 20
456.792554156264
 30
0.0
 10
790.765116329353
 20
456.7512311779788
 30
0.0
 10
762.0261171695613
 20
456.6667753670062
 30
0.0
 10
718.570695775349
 20
456.5881136034342
 30
0.0
 10
674.4627773982321
 20
456.5528392733188
 30
0.0
 10
630.3210740176947
 20
456.5954750637385
 30
0.0
 10
588.671621089587
 20
456.6383663869634
 30
0.0
 10
549.5421224932693
 20
456.6099954495993
 30
0.0
 10
512.9420444473493
 20
456.5710031580985
 30
0.0
 10
470.2345926412908
 20
456.5634732191855
 30
0.0
 10
421.4283729986092
 20
456.6353836541783
 30
0.0
 10
384.8530303787141
 20
456.7401639080706
 30
0.0
 10
366.5653167453517
 20
456.792554156264
 30
0.0
  0
SPLINE
  5
BB
330
1F
100
AcDbEntity
  8
0
  6
Continuous
 62
     7
370
    25
100
AcDbSpline
210
0.0
220
0.0
230
1.0
 70
     8
 71
     3
 72
    19
 73
    15
 74
     0
 42
0.00000001
 43
0.00000001
 40
0.0
 40
0.0
 40
0.0
 40
0.0
 40
0.0608897064890789
 40
0.1075588614777376
 40
0.1527012962311257
 40
0.2035745910404101
 40
0.2499032051395112
 40
0.3355216991918116
 40
0.4181542219026205
 40
0.4997690875792227
 40
0.6251088699861909
 40
0.7499873161236008
 40
0.873424324847252
 40
1.0
 40
1.0
 40
1.0
 40
1.0
 10
366.5653167453515
 20
456.792554156264
 30
0.0
 10
366.3402715864124
 20
457.5097964468161
 30
0.0
 10
365.9427396804093
 20
458.7767719115331
 30
0.0
 10
365.3936229605501
 20
460.5597509116622
 30
0.0
 10
364.8931012558086
 20
462.208445761646
 30
0.0
 10
364.4101145775033
 20
463.8285511256572
 30
0.0
 10
363.8135558990131
 20
465.8669192373694
 30
0.0
 10
363.1571352746502
 20
468.1805698041028
 30
0.0
 10
362.470578142442
 20
470.7156701377453
 30
0.0
 10
361.7767875702528
 20
473.431037835277
 30
0.0
 10
361.1432221705395
 20
476.170205355318
 30
0.0
 10
360.6889674881022
 20
478.5983809876405
 30
0.0
 10
360.4842586834382
 20
480.3584952802264
 30
0.0
 10
360.5862772039453
 20
480.8295873467412
 30
0.0
 10
360.6379268359203
 20
481.0680904316794
 30
0.0
  0
SPLINE
  5
BC
330
1F
100
AcDbEntity
  8
0
  6
Continuous
 62
     7
370
    25
100
AcDbSpline
210
0.0
220
0.0
230
1.0
 70
     8
 71
     3
 72
    15
 73
    11
 74
     0
 42
0.00000001
 43
0.00000001
 40
0.0
 40
0.0
 40
0.0
 40
0.0
 40
0.1250118151449505
 40
0.2500136578301074
 40
0.3750085946840336
 40
0.5000000004314465
 40
0.6249914061629198
 40
0.7499863429688145
 40
0.8749881843538677
 40
1.0
 40
1.0
 40
1.0
 40
1.0
 10
360.6962172457351
 20
111.0255048759366
 30
0.0
 10
359.5353618415754
 20
111.0948618656612
 30
0.0
 10
357.2137436371738
 20
111.2335703123548
 30
0.0
 10
353.8642413797251
 20
112.2951033912646
 30
0.0
 10
350.7757310475419
 20
113.9397651745497
 30
0.0
 10
348.0678875610459
 20
116.1668274700277
 30
0.0
 10
345.8401905520176
 20
118.8745247758331
 30
0.0
 10
344.1944202783429
 20
121.9633945418741
 30
0.0
 10
343.13137492697
 20
125.3137109145432
 30
0.0
 10
342.9913618829332
 20
127.6362442298796
 30
0.0
 10
342.921352568014
 20
128.7975572161245
 30
0.0
  0
SPLINE
  5
BD
330
1F
100
AcDbEntity
  8
0
  6
Continuous
 62
     7
370
    25
100
AcDbSpline
210
0.0
220
0.0
230
1.0
 70
     8
 71
     3
 72
    15
 73
    11
 74
     0
 42
0.00000001
 43
0.00000001
 40
0.0
 40
0.0
 40
0.0
 40
0.0
 40
0.1250118161848829
 40
0.2500136570302359
 40
0.3750085938317094
 40
0.4999999995622449
 40
0.6249914053105922
 40
0.74998634216894
 40
0.874988185393802
 40
1.0
 40
1.0
 40
1.0
 40
1.0
 10
810.6957827585262
 20
111.0255048759212
 30
0.0
 10
811.8566381721206
 20
111.094861866668
 30
0.0
 10
814.1782563686506
 20
111.2335703138082
 30
0.0
 10
817.5277586167273
 20
112.2951033902407
 30
0.0
 10
820.6162689346505
 20
113.9397651607169
 30
0.0
 10
823.3241124230988
 20
116.1668274516862
 30
0.0
 10
825.5518094355689
 20
118.8745247542421
 30
0.0
 10
827.1975797212692
 20
121.9633945330674
 30
0.0
 10
828.2606250746165
 20
125.3137109135104
 30
0.0
 10
828.4006381181441
 20
127.6362442356135
 30
0.0
 10
828.4706474320025
 20
128.7975572118655
 30
0.0
  0
CIRCLE
  5
BE
330
1F
100
AcDbEntity
  8
0
  6
Continuous
 62
     7
370
    25
100
AcDbCircle
 10
585.696
 20
378.808
 30
0.0
 40
70.00000000000006
  0
SPLINE
  5
BF
330
1F
100
AcDbEntity
  8
0
  6
Continuous
 62
     7
370
    25
100
AcDbSpline
210
0.0
220
0.0
230
1.0
 70
     8
 71
     3
 72
    15
 73
    11
 74
     0
 42
0.00000001
 43
0.00000001
 40
0.0
 40
0.0
 40
0.0
 40
0.0
 40
0.1250638917192724
 40
0.2500737150567459
 40
0.3750463337801978
 40
0.5000000004068829
 40
0.6249536670428697
 40
0.7499262857390456
 40
0.8749361104366915
 40
1.0
 40
1.0
 40
1.0
 40
1.0
 10
343.3682545558199
 20
463.7997611599156
 30
0.0
 10
343.4377265458128
 20
464.9246141671075
 30
0.0
 10
343.5766404912457
 20
467.1738338782021
 30
0.0
 10
344.611731836857
 20
470.4191092741654
 30
0.0
 10
346.2109871773363
 20
473.4122970051506
 30
0.0
 10
348.3737271329689
 20
476.0386760272844
 30
0.0
 10
351.0018705629823
 20
478.2028078126827
 30
0.0
 10
353.9999803915001
 20
479.8066277173245
 30
0.0
 10
357.2529430145161
 20
480.8490728161133
 30
0.0
 10
359.5094362807266
 20
480.9950740382111
 30
0.0
 10
360.6379268359203
 20
481.0680904316794
 30
0.0
  0
SPLINE
  5
C0
330
1F
100
AcDbEntity
  8
0
  6
Continuous
 62
     7
370
    25
100
AcDbSpline
210
0.0
220
0.0
230
1.0
 70
     8
 71
     3
 72
    15
 73
    11
 74
     0
 42
0.00000001
 43
0.00000001
 40
0.0
 40
0.0
 40
0.0
 40
0.0
 40
0.1250638927381412
 40
0.2500737142733154
 40
0.3750463329455627
 40
0.4999999995557892
 40
0.6249536662082673
 40
0.7499262849556604
 40
0.8749361114556033
 40
1.0
 40
1.0
 40
1.0
 40
1.0
 10
828.0237454441393
 20
463.7997611321966
 30
0.0
 10
827.9542734530307
 20
464.924614150403
 30
0.0
 10
827.815359506934
 20
467.173833858152
 30
0.0
 10
826.7802681617919
 20
470.4191092511765
 30
0.0
 10
825.181012830563
 20
473.4122969740954
 30
0.0
 10
823.018272875243
 20
476.0386760028778
 30
0.0
 10
820.3901294434968
 20
478.2028077954866
 30
0.0
 10
817.3920195973279
 20
479.806627714504
 30
0.0
 10
814.1390569609614
 20
480.8490728171035
 30
0.0
 10
811.8825636841758
 20
480.9950740390179
 30
0.0
 10
810.7540731364222
 20
481.0680904315709
 30
0.0
  0
CIRCLE
  5
C1
330
1F
100
AcDbEntity
  8
0
  6
Continuous
 62
     7
370
    25
100
AcDbCircle
 10
585.696
 20
378.808
 30
0.0
 40
58.94765075494627
  0
CIRCLE
  5
C2
330
1F
100
AcDbEntity
  8
0
  6
Continuous
 62
     7
370
    25
100
AcDbCircle
 10
585.696
 20
378.808
 30
0.0
 40
57.49999999999994
  0
CIRCLE
  5
C3
330
1F
100
AcDbEntity
  8
0
  6
Continuous
 62
     7
370
    25
100
AcDbCircle
 10
585.696
 20
378.808
 30
0.0
 40
56.58715574274765
  0
CIRCLE
  5
C4
330
1F
100
AcDbEntity
  8
0
  6
Continuous
 62
     7
370
    25
100
AcDbCircle
 10
585.696
 20
378.808
 30
0.0
 40
45.0
  0
ARC
  5
C5
330
1F
100
AcDbEntity
  8
0
  6
Continuous
 62
     7
370
    25
100
AcDbCircle
 10
105.696
 20
577.808
 30
0.0
 40
10.00000000000001
100
AcDbArc
 50
90.0
 51
180.0
  0
LINE
  5
C6
330
1F
100
AcDbEntity
  8
0
  6
Continuous
 62
     7
370
    25
100
AcDbLine
 10
861.696
 20
587.808
 30
0.0
 11
105.696
 21
587.808
 31
0.0
  0
ARC
  5
C7
330
1F
100
AcDbEntity
  8
0
  6
Continuous
 62
     7
370
    25
100
AcDbCircle
 10
861.696
 20
577.808
 30
0.0
 40
10.0
100
AcDbArc
 50
0.0
 51
90.0
  0
LINE
  5
C8
330
1F
100
AcDbEntity
  8
0
  6
Continuous
 62
     7
370
    25
100
AcDbLine
 10
871.696
 20
77.808
 30
0.0
 11
871.696
 21
577.808
 31
0.0
  0
ARC
  5
C9
330
1F
100
AcDbEntity
  8
0
  6
Continuous
 62
     7
370
    25
100
AcDbCircle
 10
861.696
 20
77.808
 30
0.0
 40
10.00000000000001
100
AcDbArc
 50
270.0
 51
0.0
  0
LINE
  5
CA
330
1F
100
AcDbEntity
  8
0
  6
Continuous
 62
     7
370
    25
100
AcDbLine
 10
105.696
 20
67.808
 30
0.0
 11
861.696
 21
67.808
 31
0.0
  0
ARC
  5
CB
330
1F
100
AcDbEntity
  8
0
  6
Continuous
 62
     7
370
    25
100
AcDbCircle
 10
105.696
 20
77.808
 30
0.0
 40
10.00000000000001
100
AcDbArc
 50
180.0
 51
270.0
  0
LINE
  5
CC
330
1F
100
AcDbEntity
  8
0
  6
Continuous
 62
     7
370
    25
100
AcDbLine
 10
95.696
 20
577.808
 30
0.0
 11
95.696
 21
77.808
 31
0.0
  0
LINE
  5
CD
330
1F
100
AcDbEntity
  8
0
  6
Continuous
 62
     7
370
    25
100
AcDbLine
 10
853.696
 20
327.808
 30
0.0
 11
853.696
 21
546.808
 31
0.0
  0
ARC
  5
CE
330
1F
100
AcDbEntity
  8
0
  6
Continuous
 62
     7
370
    25
100
AcDbCircle
 10
830.696
 20
546.808
 30
0.0
 40
22.99999999999989
100
AcDbArc
 50
0.0
 51
90.0
  0
LINE
  5
CF
330
1F
100
AcDbEntity
  8
0
  6
Continuous
 62
     7
370
    25
100
AcDbLine
 10
830.696
 20
569.808
 30
0.0
 11
136.696
 21
569.808
 31
0.0
  0
ARC
  5
D0
330
1F
100
AcDbEntity
  8
0
  6
Continuous
 62
     7
370
    25
100
AcDbCircle
 10
136.696
 20
546.808
 30
0.0
 40
23.00000000000003
100
AcDbArc
 50
90.0
 51
180.0
  0
LINE
  5
D1
330
1F
100
AcDbEntity
  8
0
  6
Continuous
 62
     7
370
    25
100
AcDbLine
 10
113.696
 20
546.808
 30
0.0
 11
113.696
 21
108.808
 31
0.0
  0
ARC
  5
D2
330
1F
100
AcDbEntity
  8
0
  6
Continuous
 62
     7
370
    25
100
AcDbCircle
 10
136.696
 20
108.808
 30
0.0
 40
23.00000000000003
100
AcDbArc
 50
180.0
 51
270.0
  0
LINE
  5
D3
330
1F
100
AcDbEntity
  8
0
  6
Continuous
 62
     7
370
    25
100
AcDbLine
 10
136.696
 20
85.808
 30
0.0
 11
830.696
 21
85.808
 31
0.0
  0
ARC
  5
D4
330
1F
100
AcDbEntity
  8
0
  6
Continuous
 62
     7
370
    25
100
AcDbCircle
 10
830.696
 20
108.808
 30
0.0
 40
23.00000000000011
100
AcDbArc
 50
270.0
 51
0.0
  0
LINE
  5
D5
330
1F
100
AcDbEntity
  8
0
  6
Continuous
 62
     7
370
    25
100
AcDbLine
 10
853.696
 20
108.808
 30
0.0
 11
853.696
 21
327.808
 31
0.0
  0
LINE
  5
D6
330
1F
100
AcDbEntity
  8
0
  6
Continuous
 62
     7
370
    25
100
AcDbLine
 10
853.696
 20
108.808
 30
0.0
 11
852.9298744107
 21
108.808
 31
0.0
  0
LINE
  5
D7
330
1F
100
AcDbEntity
  8
0
  6
Continuous
 62
     7
370
    25
100
AcDbLine
 10
852.9298744107
 20
108.808
 30
0.0
 11
852.9298744107
 21
327.808
 31
0.0
  0
LINE
  5
D8
330
1F
100
AcDbEntity
  8
0
  6
Continuous
 62
     7
370
    25
100
AcDbLine
 10
853.696
 20
327.808
 30
0.0
 11
852.9298744107
 21
327.808
 31
0.0
  0
LINE
  5
D9
330
1F
100
AcDbEntity
  8
0
  6
Continuous
 62
     7
370
    25
100
AcDbLine
 10
853.696
 20
546.808
 30
0.0
 11
852.9298744107
 21
546.808
 31
0.0
  0
LINE
  5
DA
330
1F
100
AcDbEntity
  8
0
  6
Continuous
 62
     7
370
    25
100
AcDbLine
 10
852.9298744107
 20
327.808
 30
0.0
 11
852.9298744107
 21
546.808
 31
0.0
  0
LINE
  5
DB
330
1F
100
AcDbEntity
  8
0
  6
Continuous
 62
     7
370
    25
100
AcDbLine
 10
113.696
 20
546.808
 30
0.0
 11
114.4621255893
 21
546.808
 31
0.0
  0
LINE
  5
DC
330
1F
100
AcDbEntity
  8
0
  6
Continuous
 62
     7
370
    25
100
AcDbLine
 10
136.696
 20
569.808
 30
0.0
 11
136.696
 21
569.0418744107
 31
0.0
  0
ARC
  5
DD
330
1F
100
AcDbEntity
  8
0
  6
Continuous
 62
     7
370
    25
100
AcDbCircle
 10
136.696
 20
546.808
 30
0.0
 40
22.23387441067959
100
AcDbArc
 50
90.0
 51
180.0
  0
LINE
  5
DE
330
1F
100
AcDbEntity
  8
0
  6
Continuous
 62
     7
370
    25
100
AcDbLine
 10
830.696
 20
569.808
 30
0.0
 11
830.696
 21
569.0418744107
 31
0.0
  0
LINE
  5
DF
330
1F
100
AcDbEntity
  8
0
  6
Continuous
 62
     7
370
    25
100
AcDbLine
 10
830.696
 20
569.0418744107
 30
0.0
 11
136.696
 21
569.0418744107
 31
0.0
  0
ARC
  5
E0
330
1F
100
AcDbEntity
  8
0
  6
Continuous
 62
     7
370
    25
100
AcDbCircle
 10
830.696
 20
546.808
 30
0.0
 40
22.2338744106795
100
AcDbArc
 50
0.0
 51
90.0
  0
LINE
  5
E1
330
1F
100
AcDbEntity
  8
0
  6
Continuous
 62
     7
370
    25
100
AcDbLine
 10
113.696
 20
108.808
 30
0.0
 11
114.4621255893
 21
108.808
 31
0.0
  0
LINE
  5
E2
330
1F
100
AcDbEntity
  8
0
  6
Continuous
 62
     7
370
    25
100
AcDbLine
 10
114.4621255893
 20
546.808
 30
0.0
 11
114.4621255893
 21
108.808
 31
0.0
  0
LINE
  5
E3
330
1F
100
AcDbEntity
  8
0
  6
Continuous
 62
     7
370
    25
100
AcDbLine
 10
830.696
 20
85.808
 30
0.0
 11
830.696
 21
86.5741255893
 31
0.0
  0
ARC
  5
E4
330
1F
100
AcDbEntity
  8
0
  6
Continuous
 62
     7
370
    25
100
AcDbCircle
 10
830.696
 20
108.808
 30
0.0
 40
22.23387441067959
100
AcDbArc
 50
270.0
 51
0.0
  0
LINE
  5
E5
330
1F
100
AcDbEntity
  8
0
  6
Continuous
 62
     7
370
    25
100
AcDbLine
 10
136.696
 20
85.808
 30
0.0
 11
136.696
 21
86.5741255893
 31
0.0
  0
LINE
  5
E6
330
1F
100
AcDbEntity
  8
0
  6
Continuous
 62
     7
370
    25
100
AcDbLine
 10
136.696
 20
86.5741255893
 30
0.0
 11
830.696
 21
86.5741255893
 31
0.0
  0
ARC
  5
E7
330
1F
100
AcDbEntity
  8
0
  6
Continuous
 62
     7
370
    25
100
AcDbCircle
 10
136.696
 20
108.808
 30
0.0
 40
22.23387441067959
100
AcDbArc
 50
180.0
 51
270.0
  0
LINE
  5
E8
330
1F
100
AcDbEntity
  8
0
  6
Continuous
 62
     7
370
    25
100
AcDbLine
 10
114.4621255893
 20
108.808
 30
0.0
 11
115.4197350169
 21
108.808
 31
0.0
  0
LINE
  5
E9
330
1F
100
AcDbEntity
  8
0
  6
Continuous
 62
     7
370
    25
100
AcDbLine
 10
114.4621255893
 20
546.808
 30
0.0
 11
115.4197350169
 21
546.808
 31
0.0
  0
LINE
  5
EA
330
1F
100
AcDbEntity
  8
0
  6
Continuous
 62
     7
370
    25
100
AcDbLine
 10
115.4197350169
 20
546.808
 30
0.0
 11
115.4197350169
 21
108.808
 31
0.0
  0
LINE
  5
EB
330
1F
100
AcDbEntity
  8
0
  6
Continuous
 62
     7
370
    25
100
AcDbLine
 10
136.696
 20
569.0418744107
 30
0.0
 11
136.696
 21
568.0842649831
 31
0.0
  0
ARC
  5
EC
330
1F
100
AcDbEntity
  8
0
  6
Continuous
 62
     7
370
    25
100
AcDbCircle
 10
136.696
 20
546.808
 30
0.0
 40
21.27626498307335
100
AcDbArc
 50
90.0
 51
180.0
  0
LINE
  5
ED
330
1F
100
AcDbEntity
  8
0
  6
Continuous
 62
     7
370
    25
100
AcDbLine
 10
852.9298744107
 20
108.808
 30
0.0
 11
851.9722649831
 21
108.808
 31
0.0
  0
LINE
  5
EE
330
1F
100
AcDbEntity
  8
0
  6
Continuous
 62
     7
370
    25
100
AcDbLine
 10
830.696
 20
86.5741255893
 30
0.0
 11
830.696
 21
87.5317350169
 31
0.0
  0
ARC
  5
EF
330
1F
100
AcDbEntity
  8
0
  6
Continuous
 62
     7
370
    25
100
AcDbCircle
 10
830.696
 20
108.808
 30
0.0
 40
21.27626498307336
100
AcDbArc
 50
270.0
 51
0.0
  0
LINE
  5
F0
330
1F
100
AcDbEntity
  8
0
  6
Continuous
 62
     7
370
    25
100
AcDbLine
 10
851.9722649831
 20
108.808
 30
0.0
 11
851.9722649831
 21
327.808
 31
0.0
  0
LINE
  5
F1
330
1F
100
AcDbEntity
  8
0
  6
Continuous
 62
     7
370
    25
100
AcDbLine
 10
852.9298744107
 20
327.808
 30
0.0
 11
851.9722649831
 21
327.808
 31
0.0
  0
LINE
  5
F2
330
1F
100
AcDbEntity
  8
0
  6
Continuous
 62
     7
370
    25
100
AcDbLine
 10
830.696
 20
569.0418744107
 30
0.0
 11
830.696
 21
568.0842649831
 31
0.0
  0
LINE
  5
F3
330
1F
100
AcDbEntity
  8
0
  6
Continuous
 62
     7
370
    25
100
AcDbLine
 10
830.696
 20
568.0842649831
 30
0.0
 11
136.696
 21
568.0842649831
 31
0.0
  0
LINE
  5
F4
330
1F
100
AcDbEntity
  8
0
  6
Continuous
 62
     7
370
    25
100
AcDbLine
 10
852.9298744107
 20
546.808
 30
0.0
 11
851.9722649831
 21
546.808
 31
0.0
  0
LINE
  5
F5
330
1F
100
AcDbEntity
  8
0
  6
Continuous
 62
     7
370
    25
100
AcDbLine
 10
851.9722649831
 20
327.808
 30
0.0
 11
851.9722649831
 21
546.808
 31
0.0
  0
ARC
  5
F6
330
1F
100
AcDbEntity
  8
0
  6
Continuous
 62
     7
370
    25
100
AcDbCircle
 10
830.696
 20
546.808
 30
0.0
 40
21.27626498307336
100
AcDbArc
 50
0.0
 51
90.0
  0
LINE
  5
F7
330
1F
100
AcDbEntity
  8
0
  6
Continuous
 62
     7
370
    25
100
AcDbLine
 10
136.696
 20
86.5741255893
 30
0.0
 11
136.696
 21
87.5317350169
 31
0.0
  0
LINE
  5
F8
330
1F
100
AcDbEntity
  8
0
  6
Continuous
 62
     7
370
    25
100
AcDbLine
 10
136.696
 20
87.5317350169
 30
0.0
 11
830.696
 21
87.5317350169
 31
0.0
  0
ARC
  5
F9
330
1F
100
AcDbEntity
  8
0
  6
Continuous
 62
     7
370
    25
100
AcDbCircle
 10
136.696
 20
108.808
 30
0.0
 40
21.27626498307335
100
AcDbArc
 50
180.0
 51
270.0
  0
LINE
  5
FA
330
1F
100
AcDbEntity
  8
0
  6
Continuous
 62
     7
370
    25
100
AcDbLine
 10
851.9722649831
 20
546.808
 30
0.0
 11
846.6093858578
 21
546.808
 31
0.0
  0
LINE
  5
FB
330
1F
100
AcDbEntity
  8
0
  6
Continuous
 62
     7
370
    25
100
AcDbLine
 10
851.9722649831
 20
327.808
 30
0.0
 11
846.6093858578
 21
327.808
 31
0.0
  0
LINE
  5
FC
330
1F
100
AcDbEntity
  8
0
  6
Continuous
 62
     7
370
    25
100
AcDbLine
 10
846.6093858578
 20
327.808
 30
0.0
 11
846.6093858578
 21
546.808
 31
0.0
  0
LINE
  5
FD
330
1F
100
AcDbEntity
  8
0
  6
Continuous
 62
     7
370
    25
100
AcDbLine
 10
830.696
 20
87.5317350169
 30
0.0
 11
830.696
 21
92.8946141422
 31
0.0
  0
LINE
  5
FE
330
1F
100
AcDbEntity
  8
0
  6
Continuous
 62
     7
370
    25
100
AcDbLine
 10
136.696
 20
87.5317350169
 30
0.0
 11
136.696
 21
92.8946141422
 31
0.0
  0
LINE
  5
FF
330
1F
100
AcDbEntity
  8
0
  6
Continuous
 62
     7
370
    25
100
AcDbLine
 10
136.696
 20
92.8946141422
 30
0.0
 11
830.696
 21
92.8946141422
 31
0.0
  0
LINE
  5
100
330
1F
100
AcDbEntity
  8
0
  6
Continuous
 62
     7
370
    25
100
AcDbLine
 10
851.9722649831
 20
108.808
 30
0.0
 11
846.6093858578
 21
108.808
 31
0.0
  0
ARC
  5
101
330
1F
100
AcDbEntity
  8
0
  6
Continuous
 62
     7
370
    25
100
AcDbCircle
 10
830.696
 20
108.808
 30
0.0
 40
15.91338585783031
100
AcDbArc
 50
270.0
 51
0.0
  0
LINE
  5
102
330
1F
100
AcDbEntity
  8
0
  6
Continuous
 62
     7
370
    25
100
AcDbLine
 10
115.4197350169
 20
108.808
 30
0.0
 11
120.7826141422
 21
108.808
 31
0.0
  0
ARC
  5
103
330
1F
100
AcDbEntity
  8
0
  6
Continuous
 62
     7
370
    25
100
AcDbCircle
 10
136.696
 20
108.808
 30
0.0
 40
15.91338585783031
100
AcDbArc
 50
180.0
 51
270.0
  0
LINE
  5
104
330
1F
100
AcDbEntity
  8
0
  6
Continuous
 62
     7
370
    25
100
AcDbLine
 10
115.4197350169
 20
546.808
 30
0.0
 11
120.7826141422
 21
546.808
 31
0.0
  0
LINE
  5
105
330
1F
100
AcDbEntity
  8
0
  6
Continuous
 62
     7
370
    25
100
AcDbLine
 10
136.696
 20
568.0842649831
 30
0.0
 11
136.696
 21
562.7213858578
 31
0.0
  0
ARC
  5
106
330
1F
100
AcDbEntity
  8
0
  6
Continuous
 62
     7
370
    25
100
AcDbCircle
 10
136.696
 20
546.808
 30
0.0
 40
15.91338585783026
100
AcDbArc
 50
90.0
 51
180.0
  0
LINE
  5
107
330
1F
100
AcDbEntity
  8
0
  6
Continuous
 62
     7
370
    25
100
AcDbLine
 10
120.7826141422
 20
546.808
 30
0.0
 11
120.7826141422
 21
108.808
 31
0.0
  0
LINE
  5
108
330
1F
100
AcDbEntity
  8
0
  6
Continuous
 62
     7
370
    25
100
AcDbLine
 10
830.696
 20
568.0842649831
 30
0.0
 11
830.696
 21
562.7213858578
 31
0.0
  0
ARC
  5
109
330
1F
100
AcDbEntity
  8
0
  6
Continuous
 62
     7
370
    25
100
AcDbCircle
 10
830.696
 20
546.808
 30
0.0
 40
15.91338585783012
100
AcDbArc
 50
0.0
 51
90.0
  0
LINE
  5
10A
330
1F
100
AcDbEntity
  8
0
  6
Continuous
 62
     7
370
    25
100
AcDbLine
 10
830.696
 20
562.7213858578
 30
0.0
 11
136.696
 21
562.7213858578
 31
0.0
  0
LINE
  5
10B
330
1F
100
AcDbEntity
  8
0
  6
Continuous
 62
     7
370
    25
100
AcDbLine
 10
846.6093858578
 20
108.808
 30
0.0
 11
846.6093858578
 21
327.808
 31
0.0
  0
LINE
  5
10C
330
1F
100
AcDbEntity
  8
0
  6
Continuous
 62
     7
370
    25
100
AcDbLine
 10
841.696
 20
463.308
 30
0.0
 11
841.696
 21
129.308
 31
0.0
  0
ARC
  5
10D
330
1F
100
AcDbEntity
  8
0
  6
Continuous
 62
     7
370
    25
100
AcDbCircle
 10
810.196
 20
463.308
 30
0.0
 40
31.50000000000028
100
AcDbArc
 50
0.0
 51
90.0
  0
LINE
  5
10E
330
1F
100
AcDbEntity
  8
0
  6
Continuous
 62
     7
370
    25
100
AcDbLine
 10
361.196
 20
494.808
 30
0.0
 11
810.196
 21
494.808
 31
0.0
  0
ARC
  5
10F
330
1F
100
AcDbEntity
  8
0
  6
Continuous
 62
     7
370
    25
100
AcDbCircle
 10
361.196
 20
463.308
 30
0.0
 40
31.50000000000028
100
AcDbArc
 50
90.0
 51
180.0
  0
LINE
  5
110
330
1F
100
AcDbEntity
  8
0
  6
Continuous
 62
     7
370
    25
100
AcDbLine
 10
329.696
 20
129.308
 30
0.0
 11
329.696
 21
463.308
 31
0.0
  0
ARC
  5
111
330
1F
100
AcDbEntity
  8
0
  6
Continuous
 62
     7
370
    25
100
AcDbCircle
 10
361.196
 20
129.308
 30
0.0
 40
31.5000000000002
100
AcDbArc
 50
180.0
 51
270.0
  0
LINE
  5
112
330
1F
100
AcDbEntity
  8
0
  6
Continuous
 62
     7
370
    25
100
AcDbLine
 10
810.196
 20
97.808
 30
0.0
 11
361.196
 21
97.808
 31
0.0
  0
ARC
  5
113
330
1F
100
AcDbEntity
  8
0
  6
Continuous
 62
     7
370
    25
100
AcDbCircle
 10
810.196
 20
129.308
 30
0.0
 40
31.50000000000034
100
AcDbArc
 50
270.0
 51
0.0
  0
CIRCLE
  5
114
330
1F
100
AcDbEntity
  8
0
  6
Continuous
 62
     7
370
    25
100
AcDbCircle
 10
585.696
 20
531.808
 30
0.0
 40
17.5
  0
LINE
  5
115
330
1F
100
AcDbEntity
  8
0
  6
Continuous
 62
     7
370
    25
100
AcDbLine
 10
841.696
 20
129.308
 30
0.0
 11
836.696
 21
129.308
 31
0.0
  0
LINE
  5
116
330
1F
100
AcDbEntity
  8
0
  6
Continuous
 62
     7
370
    25
100
AcDbLine
 10
836.696
 20
129.308
 30
0.0
 11
836.696
 21
463.308
 31
0.0
  0
LINE
  5
117
330
1F
100
AcDbEntity
  8
0
  6
Continuous
 62
     7
370
    25
100
AcDbLine
 10
841.696
 20
463.308
 30
0.0
 11
836.696
 21
463.308
 31
0.0
  0
LINE
  5
118
330
1F
100
AcDbEntity
  8
0
  6
Continuous
 62
     7
370
    25
100
AcDbLine
 10
810.196
 20
489.808
 30
0.0
 11
361.196
 21
489.808
 31
0.0
  0
LINE
  5
119
330
1F
100
AcDbEntity
  8
0
  6
Continuous
 62
     7
370
    25
100
AcDbLine
 10
361.196
 20
489.808
 30
0.0
 11
361.196
 21
494.808
 31
0.0
  0
LINE
  5
11A
330
1F
100
AcDbEntity
  8
0
  6
Continuous
 62
     7
370
    25
100
AcDbLine
 10
810.196
 20
494.808
 30
0.0
 11
810.196
 21
489.808
 31
0.0
  0
ARC
  5
11B
330
1F
100
AcDbEntity
  8
0
  6
Continuous
 62
     7
370
    25
100
AcDbCircle
 10
361.196
 20
463.308
 30
0.0
 40
26.50000000000006
100
AcDbArc
 50
90.0
 51
180.0
  0
LINE
  5
11C
330
1F
100
AcDbEntity
  8
0
  6
Continuous
 62
     7
370
    25
100
AcDbLine
 10
334.696
 20
463.308
 30
0.0
 11
329.696
 21
463.308
 31
0.0
  0
ARC
  5
11D
330
1F
100
AcDbEntity
  8
0
  6
Continuous
 62
     7
370
    25
100
AcDbCircle
 10
810.196
 20
463.308
 30
0.0
 40
26.50000000000006
100
AcDbArc
 50
0.0
 51
90.0
  0
LINE
  5
11E
330
1F
100
AcDbEntity
  8
0
  6
Continuous
 62
     7
370
    25
100
AcDbLine
 10
334.696
 20
463.308
 30
0.0
 11
334.696
 21
129.308
 31
0.0
  0
LINE
  5
11F
330
1F
100
AcDbEntity
  8
0
  6
Continuous
 62
     7
370
    25
100
AcDbLine
 10
334.696
 20
129.308
 30
0.0
 11
329.696
 21
129.308
 31
0.0
  0
LINE
  5
120
330
1F
100
AcDbEntity
  8
0
  6
Continuous
 62
     7
370
    25
100
AcDbLine
 10
810.196
 20
97.808
 30
0.0
 11
810.196
 21
102.808
 31
0.0
  0
ARC
  5
121
330
1F
100
AcDbEntity
  8
0
  6
Continuous
 62
     7
370
    25
100
AcDbCircle
 10
810.196
 20
129.308
 30
0.0
 40
26.5
100
AcDbArc
 50
270.0
 51
0.0
  0
ARC
  5
122
330
1F
100
AcDbEntity
  8
0
  6
Continuous
 62
     7
370
    25
100
AcDbCircle
 10
361.196
 20
129.308
 30
0.0
 40
26.49999999999999
100
AcDbArc
 50
180.0
 51
270.0
  0
LINE
  5
123
330
1F
100
AcDbEntity
  8
0
  6
Continuous
 62
     7
370
    25
100
AcDbLine
 10
361.196
 20
102.808
 30
0.0
 11
361.196
 21
97.808
 31
0.0
  0
LINE
  5
124
330
1F
100
AcDbEntity
  8
0
  6
Continuous
 62
     7
370
    25
100
AcDbLine
 10
361.196
 20
102.808
 30
0.0
 11
810.196
 21
102.808
 31
0.0
  0
ENDSEC
  0
SECTION
  2
OBJECTS
  0
DICTIONARY
  5
C
330
0
100
AcDbDictionary
281
     1
  3
ACAD_GROUP
350
D
  3
ACAD_LAYOUT
350
1A
  3
ACAD_MLINESTYLE
350
17
  3
ACAD_PLOTSETTINGS
350
19
  3
ACAD_PLOTSTYLENAME
350
E
  3
ACAD_SCALELIST
350
47
  3
DWGPROPS
350
125
  0
DICTIONARY
  5
D
102
{ACAD_REACTORS
330
C
102
}
330
C
100
AcDbDictionary
281
     1
  0
DICTIONARY
  5
1A
102
{ACAD_REACTORS
330
C
102
}
330
C
100
AcDbDictionary
281
     1
  3
Layout1
350
1E
  3
Layout2
350
26
  3
Model
350
22
  0
DICTIONARY
  5
17
102
{ACAD_REACTORS
330
C
102
}
330
C
100
AcDbDictionary
281
     1
  3
Standard
350
18
  0
DICTIONARY
  5
19
102
{ACAD_REACTORS
330
C
102
}
330
C
100
AcDbDictionary
281
     1
  0
ACDBDICTIONARYWDFLT
  5
E
102
{ACAD_REACTORS
330
C
102
}
330
C
100
AcDbDictionary
281
     1
  3
Normal
350
F
100
AcDbDictionaryWithDefault
340
F
  0
DICTIONARY
  5
47
102
{ACAD_REACTORS
330
C
102
}
330
C
100
AcDbDictionary
281
     1
  3
A0
350
48
  3
A1
350
49
  3
A2
350
4A
  3
A3
350
4B
  3
A4
350
4C
  3
A5
350
4D
  3
A6
350
4E
  3
A7
350
4F
  3
A8
350
50
  3
A9
350
51
  3
B0
350
52
  3
B1
350
53
  3
B2
350
54
  3
B3
350
55
  3
B4
350
56
  3
B5
350
57
  3
B6
350
58
  3
B7
350
59
  3
B8
350
5A
  3
B9
350
5B
  3
C0
350
5C
  3
C1
350
5D
  3
C2
350
5E
  3
C3
350
5F
  3
C4
350
60
  3
C5
350
61
  3
C6
350
62
  3
C7
350
63
  3
C8
350
64
  3
C9
350
65
  3
D0
350
66
  3
D1
350
67
  3
D2
350
68
  0
XRECORD
  5
125
102
{ACAD_REACTORS
330
C
102
}
330
C
100
AcDbXrecord
280
     1
  1
DWGPROPS COOKIE
  2

  3

  4

  6

  7

  8
KalleMourujärvi
  9

300
=
301
=
302
=
303
=
304
=
305
=
306
=
307
=
308
=
309
=
 40
0.0
 41
2460130.416427581
 42
2460130.416427894
  1

 90
        0
  0
LAYOUT
  5
1E
102
{ACAD_REACTORS
330
1A
102
}
330
1A
100
AcDbPlotSettings
  1

  2
none_device
  4

  6

 40
0.0
 41
0.0
 42
0.0
 43
0.0
 44
0.0
 45
0.0
 46
0.0
 47
0.0
 48
0.0
 49
0.0
140
0.0
141
0.0
142
1.0
143
1.0
 70
   688
 72
     1
 73
     0
 74
     5
  7

 75
    16
147
1.0
148
0.0
149
0.0
100
AcDbLayout
  1
Layout1
 70
     1
 71
     1
 10
0.0
 20
0.0
 11
420.0
 21
297.0
 12
0.0
 22
0.0
 32
0.0
 14
1.0000000000E+20
 24
1.0000000000E+20
 34
1.0000000000E+20
 15
-1.0000000000E+20
 25
-1.0000000000E+20
 35
-1.0000000000E+20
146
0.0
 13
0.0
 23
0.0
 33
0.0
 16
1.0
 26
0.0
 36
0.0
 17
0.0
 27
1.0
 37
0.0
 76
     0
330
1B
  0
LAYOUT
  5
26
102
{ACAD_REACTORS
330
1A
102
}
330
1A
100
AcDbPlotSettings
  1

  2
none_device
  4

  6

 40
0.0
 41
0.0
 42
0.0
 43
0.0
 44
0.0
 45
0.0
 46
0.0
 47
0.0
 48
0.0
 49
0.0
140
0.0
141
0.0
142
1.0
143
1.0
 70
   688
 72
     1
 73
     0
 74
     5
  7

 75
    16
147
1.0
148
0.0
149
0.0
100
AcDbLayout
  1
Layout2
 70
     1
 71
     2
 10
0.0
 20
0.0
 11
0.0
 21
0.0
 12
0.0
 22
0.0
 32
0.0
 14
0.0
 24
0.0
 34
0.0
 15
0.0
 25
0.0
 35
0.0
146
0.0
 13
0.0
 23
0.0
 33
0.0
 16
1.0
 26
0.0
 36
0.0
 17
0.0
 27
1.0
 37
0.0
 76
     0
330
23
  0
LAYOUT
  5
22
102
{ACAD_REACTORS
330
1A
102
}
330
1A
100
AcDbPlotSettings
  1

  2
none_device
  4
Letter_(8.50_x_11.00_Inches)
  6

 40
6.35
 41
6.35
 42
6.35000508
 43
6.35000508
 44
215.9
 45
279.4
 46
0.0
 47
0.0
 48
0.0
 49
0.0
140
0.0
141
0.0
142
1.0
143
1.0
 70
  1712
 72
     1
 73
     0
 74
     0
  7

 75
     0
147
1.0
148
0.0
149
0.0
100
AcDbLayout
  1
Model
 70
     1
 71
     0
 10
0.0
 20
0.0
 11
950.0
 21
650.0
 12
0.0
 22
0.0
 32
0.0
 14
0.0
 24
0.0
 34
0.0
 15
950.0
 25
650.0
 35
0.0
146
0.0
 13
0.0
 23
0.0
 33
0.0
 16
1.0
 26
0.0
 36
0.0
 17
0.0
 27
1.0
 37
0.0
 76
     0
330
1F
331
29
  0
MLINESTYLE
  5
18
102
{ACAD_REACTORS
330
17
102
}
330
17
100
AcDbMlineStyle
  2
Standard
 70
     0
  3

 62
   256
 51
90.0
 52
90.0
 71
     2
 49
0.5
 62
   256
  6
BYLAYER
 49
-0.5
 62
   256
  6
BYLAYER
  0
ACDBPLACEHOLDER
  5
F
102
{ACAD_REACTORS
330
E
102
}
330
E
  0
SCALE
  5
48
102
{ACAD_REACTORS
330
47
102
}
330
47
100
AcDbScale
 70
     0
300
1:1
140
1.0
141
1.0
290
     1
  0
SCALE
  5
49
102
{ACAD_REACTORS
330
47
102
}
330
47
100
AcDbScale
 70
     0
300
1:2
140
1.0
141
2.0
290
     0
  0
SCALE
  5
4A
102
{ACAD_REACTORS
330
47
102
}
330
47
100
AcDbScale
 70
     0
300
1:4
140
1.0
141
4.0
290
     0
  0
SCALE
  5
4B
102
{ACAD_REACTORS
330
47
102
}
330
47
100
AcDbScale
 70
     0
300
1:5
140
1.0
141
5.0
290
     0
  0
SCALE
  5
4C
102
{ACAD_REACTORS
330
47
102
}
330
47
100
AcDbScale
 70
     0
300
1:8
140
1.0
141
8.0
290
     0
  0
SCALE
  5
4D
102
{ACAD_REACTORS
330
47
102
}
330
47
100
AcDbScale
 70
     0
300
1:10
140
1.0
141
10.0
290
     0
  0
SCALE
  5
4E
102
{ACAD_REACTORS
330
47
102
}
330
47
100
AcDbScale
 70
     0
300
1:16
140
1.0
141
16.0
290
     0
  0
SCALE
  5
4F
102
{ACAD_REACTORS
330
47
102
}
330
47
100
AcDbScale
 70
     0
300
1:20
140
1.0
141
20.0
290
     0
  0
SCALE
  5
50
102
{ACAD_REACTORS
330
47
102
}
330
47
100
AcDbScale
 70
     0
300
1:30
140
1.0
141
30.0
290
     0
  0
SCALE
  5
51
102
{ACAD_REACTORS
330
47
102
}
330
47
100
AcDbScale
 70
     0
300
1:40
140
1.0
141
40.0
290
     0
  0
SCALE
  5
52
102
{ACAD_REACTORS
330
47
102
}
330
47
100
AcDbScale
 70
     0
300
1:50
140
1.0
141
50.0
290
     0
  0
SCALE
  5
53
102
{ACAD_REACTORS
330
47
102
}
330
47
100
AcDbScale
 70
     0
300
1:100
140
1.0
141
100.0
290
     0
  0
SCALE
  5
54
102
{ACAD_REACTORS
330
47
102
}
330
47
100
AcDbScale
 70
     0
300
2:1
140
2.0
141
1.0
290
     0
  0
SCALE
  5
55
102
{ACAD_REACTORS
330
47
102
}
330
47
100
AcDbScale
 70
     0
300
4:1
140
4.0
141
1.0
290
     0
  0
SCALE
  5
56
102
{ACAD_REACTORS
330
47
102
}
330
47
100
AcDbScale
 70
     0
300
8:1
140
8.0
141
1.0
290
     0
  0
SCALE
  5
57
102
{ACAD_REACTORS
330
47
102
}
330
47
100
AcDbScale
 70
     0
300
10:1
140
10.0
141
1.0
290
     0
  0
SCALE
  5
58
102
{ACAD_REACTORS
330
47
102
}
330
47
100
AcDbScale
 70
     0
300
100:1
140
100.0
141
1.0
290
     0
  0
SCALE
  5
59
102
{ACAD_REACTORS
330
47
102
}
330
47
100
AcDbScale
 70
     0
300
1/128" = 1'-0"
140
0.0078125
141
12.0
290
     0
  0
SCALE
  5
5A
102
{ACAD_REACTORS
330
47
102
}
330
47
100
AcDbScale
 70
     0
300
1/64" = 1'-0"
140
0.015625
141
12.0
290
     0
  0
SCALE
  5
5B
102
{ACAD_REACTORS
330
47
102
}
330
47
100
AcDbScale
 70
     0
300
1/32" = 1'-0"
140
0.03125
141
12.0
290
     0
  0
SCALE
  5
5C
102
{ACAD_REACTORS
330
47
102
}
330
47
100
AcDbScale
 70
     0
300
1/16" = 1'-0"
140
0.0625
141
12.0
290
     0
  0
SCALE
  5
5D
102
{ACAD_REACTORS
330
47
102
}
330
47
100
AcDbScale
 70
     0
300
3/32" = 1'-0"
140
0.09375
141
12.0
290
     0
  0
SCALE
  5
5E
102
{ACAD_REACTORS
330
47
102
}
330
47
100
AcDbScale
 70
     0
300
1/8" = 1'-0"
140
0.125
141
12.0
290
     0
  0
SCALE
  5
5F
102
{ACAD_REACTORS
330
47
102
}
330
47
100
AcDbScale
 70
     0
300
3/16" = 1'-0"
140
0.1875
141
12.0
290
     0
  0
SCALE
  5
60
102
{ACAD_REACTORS
330
47
102
}
330
47
100
AcDbScale
 70
     0
300
1/4" = 1'-0"
140
0.25
141
12.0
290
     0
  0
SCALE
  5
61
102
{ACAD_REACTORS
330
47
102
}
330
47
100
AcDbScale
 70
     0
300
3/8" = 1'-0"
140
0.375
141
12.0
290
     0
  0
SCALE
  5
62
102
{ACAD_REACTORS
330
47
102
}
330
47
100
AcDbScale
 70
     0
300
1/2" = 1'-0"
140
0.5
141
12.0
290
     0
  0
SCALE
  5
63
102
{ACAD_REACTORS
330
47
102
}
330
47
100
AcDbScale
 70
     0
300
3/4" = 1'-0"
140
0.75
141
12.0
290
     0
  0
SCALE
  5
64
102
{ACAD_REACTORS
330
47
102
}
330
47
100
AcDbScale
 70
     0
300
1" = 1'-0"
140
1.0
141
12.0
290
     0
  0
SCALE
  5
65
102
{ACAD_REACTORS
330
47
102
}
330
47
100
AcDbScale
 70
     0
300
1-1/2" = 1'-0"
140
1.5
141
12.0
290
     0
  0
SCALE
  5
66
102
{ACAD_REACTORS
330
47
102
}
330
47
100
AcDbScale
 70
     0
300
3" = 1'-0"
140
3.0
141
12.0
290
     0
  0
SCALE
  5
67
102
{ACAD_REACTORS
330
47
102
}
330
47
100
AcDbScale
 70
     0
300
6" = 1'-0"
140
6.0
141
12.0
290
     0
  0
SCALE
  5
68
102
{ACAD_REACTORS
330
47
102
}
330
47
100
AcDbScale
 70
     0
300
1'-0" = 1'-0"
140
12.0
141
12.0
290
     0
  0
ENDSEC
  0
EOF
