  0
SECTION
  2
HEADER
  9
$ACADVER
  1
AC1015
  9
$ACADMAINTVER
 70
     6
  9
$DWGCODEPAGE
  3
ANSI_1252
  9
$INSBASE
 10
0.0
 20
0.0
 30
0.0
  9
$EXTMIN
 10
0.0
 20
0.0
 30
0.0
  9
$EXTMAX
 10
600.0
 20
450.0
 30
0.0
  9
$LIMMIN
 10
0.0
 20
0.0
  9
$LIMMAX
 10
600.0
 20
450.0
  9
$ORTHOMODE
 70
     0
  9
$REGENMODE
 70
     1
  9
$FILLMODE
 70
     1
  9
$QTEXTMODE
 70
     0
  9
$MIRRTEXT
 70
     1
  9
$LTSCALE
 40
1.0
  9
$ATTMODE
 70
     1
  9
$TEXTSIZE
 40
3.5
  9
$TRACEWID
 40
1.0
  9
$TEXTSTYLE
  7
Standard
  9
$CLAYER
  8
0
  9
$CELTYPE
  6
ByLayer
  9
$CECOLOR
 62
   256
  9
$CELTSCALE
 40
1.0
  9
$DISPSILH
 70
     0
  9
$DIMSCALE
 40
1.0
  9
$DIMASZ
 40
3.302
  9
$DIMEXO
 40
1.0
  9
$DIMDLI
 40
3.75
  9
$DIMRND
 40
0.0
  9
$DIMDLE
 40
0.0
  9
$DIMEXE
 40
1.0
  9
$DIMTP
 40
0.0
  9
$DIMTM
 40
0.0
  9
$DIMTXT
 40
3.5
  9
$DIMCEN
 40
2.5
  9
$DIMTSZ
 40
0.0
  9
$DIMTOL
 70
     0
  9
$DIMLIM
 70
     0
  9
$DIMTIH
 70
     1
  9
$DIMTOH
 70
     1
  9
$DIMSE1
 70
     0
  9
$DIMSE2
 70
     0
  9
$DIMTAD
 70
     1
  9
$DIMZIN
 70
     1
  9
$DIMBLK
  1

  9
$DIMASO
 70
     1
  9
$DIMSHO
 70
     1
  9
$DIMPOST
  1

  9
$DIMAPOST
  1

  9
$DIMALT
 70
     0
  9
$DIMALTD
 70
     3
  9
$DIMALTF
 40
0.0393700787
  9
$DIMLFAC
 40
2.0
  9
$DIMTOFL
 70
     1
  9
$DIMTVP
 40
0.0
  9
$DIMTIX
 70
     0
  9
$DIMSOXD
 70
     0
  9
$DIMSAH
 70
     0
  9
$DIMBLK1
  1

  9
$DIMBLK2
  1

  9
$DIMSTYLE
  2
ISO-25
  9
$DIMCLRD
 70
     0
  9
$DIMCLRE
 70
     0
  9
$DIMCLRT
 70
     0
  9
$DIMTFAC
 40
1.0
  9
$DIMGAP
 40
1.524
  9
$DIMJUST
 70
     0
  9
$DIMSD1
 70
     0
  9
$DIMSD2
 70
     0
  9
$DIMTOLJ
 70
     0
  9
$DIMTZIN
 70
     1
  9
$DIMALTZ
 70
     0
  9
$DIMALTTZ
 70
     0
  9
$DIMUPT
 70
     0
  9
$DIMDEC
 70
     2
  9
$DIMTDEC
 70
     2
  9
$DIMALTU
 70
     2
  9
$DIMALTTD
 70
     3
  9
$DIMTXSTY
  7
Standard
  9
$DIMAUNIT
 70
     0
  9
$DIMADEC
 70
     2
  9
$DIMALTRND
 40
0.0
  9
$DIMAZIN
 70
     0
  9
$DIMDSEP
 70
    44
  9
$DIMATFIT
 70
     3
  9
$DIMFRAC
 70
     0
  9
$DIMLDRBLK
  1

  9
$DIMLUNIT
 70
     2
  9
$DIMLWD
 70
    -2
  9
$DIMLWE
 70
    -2
  9
$DIMTMOVE
 70
     0
  9
$LUNITS
 70
     2
  9
$LUPREC
 70
     1
  9
$SKETCHINC
 40
1.0
  9
$FILLETRAD
 40
10.0
  9
$AUNITS
 70
     0
  9
$AUPREC
 70
     1
  9
$MENU
  1
.
  9
$ELEVATION
 40
0.0
  9
$PELEVATION
 40
0.0
  9
$THICKNESS
 40
0.0
  9
$LIMCHECK
 70
     0
  9
$CHAMFERA
 40
0.0
  9
$CHAMFERB
 40
0.0
  9
$CHAMFERC
 40
0.0
  9
$CHAMFERD
 40
0.0
  9
$SKPOLY
 70
     0
  9
$TDCREATE
 40
2460130.360077211
  9
$TDUCREATE
 40
2460130.235077211
  9
$TDUPDATE
 40
2460130.360077755
  9
$TDUUPDATE
 40
2460130.235077755
  9
$TDINDWG
 40
0.0000000116
  9
$TDUSRTIMER
 40
0.0000000116
  9
$USRTIMER
 70
     1
  9
$ANGBASE
 50
0.0
  9
$ANGDIR
 70
     0
  9
$PDMODE
 70
     0
  9
$PDSIZE
 40
-1.0
  9
$PLINEWID
 40
0.0
  9
$SPLFRAME
 70
     0
  9
$SPLINETYPE
 70
     6
  9
$SPLINESEGS
 70
     8
  9
$HANDSEED
  5
181
  9
$SURFTAB1
 70
     6
  9
$SURFTAB2
 70
     6
  9
$SURFTYPE
 70
     6
  9
$SURFU
 70
     6
  9
$SURFV
 70
     6
  9
$UCSBASE
  2

  9
$UCSNAME
  2

  9
$UCSORG
 10
0.0
 20
0.0
 30
0.0
  9
$UCSXDIR
 10
1.0
 20
0.0
 30
0.0
  9
$UCSYDIR
 10
0.0
 20
1.0
 30
0.0
  9
$UCSORTHOREF
  2

  9
$UCSORTHOVIEW
 70
     0
  9
$UCSORGTOP
 10
0.0
 20
0.0
 30
0.0
  9
$UCSORGBOTTOM
 10
0.0
 20
0.0
 30
0.0
  9
$UCSORGLEFT
 10
0.0
 20
0.0
 30
0.0
  9
$UCSORGRIGHT
 10
0.0
 20
0.0
 30
0.0
  9
$UCSORGFRONT
 10
0.0
 20
0.0
 30
0.0
  9
$UCSORGBACK
 10
0.0
 20
0.0
 30
0.0
  9
$PUCSBASE
  2

  9
$PUCSNAME
  2

  9
$PUCSORG
 10
0.0
 20
0.0
 30
0.0
  9
$PUCSXDIR
 10
1.0
 20
0.0
 30
0.0
  9
$PUCSYDIR
 10
0.0
 20
1.0
 30
0.0
  9
$PUCSORTHOREF
  2

  9
$PUCSORTHOVIEW
 70
     0
  9
$PUCSORGTOP
 10
0.0
 20
0.0
 30
0.0
  9
$PUCSORGBOTTOM
 10
0.0
 20
0.0
 30
0.0
  9
$PUCSORGLEFT
 10
0.0
 20
0.0
 30
0.0
  9
$PUCSORGRIGHT
 10
0.0
 20
0.0
 30
0.0
  9
$PUCSORGFRONT
 10
0.0
 20
0.0
 30
0.0
  9
$PUCSORGBACK
 10
0.0
 20
0.0
 30
0.0
  9
$USERI1
 70
     0
  9
$USERI2
 70
     0
  9
$USERI3
 70
     0
  9
$USERI4
 70
     0
  9
$USERI5
 70
     0
  9
$USERR1
 40
0.0
  9
$USERR2
 40
0.0
  9
$USERR3
 40
0.0
  9
$USERR4
 40
0.0
  9
$USERR5
 40
0.0
  9
$WORLDVIEW
 70
     1
  9
$SHADEDGE
 70
     3
  9
$SHADEDIF
 70
    70
  9
$TILEMODE
 70
     1
  9
$MAXACTVP
 70
    64
  9
$PINSBASE
 10
0.0
 20
0.0
 30
0.0
  9
$PLIMCHECK
 70
     0
  9
$PEXTMIN
 10
1.0000000000E+20
 20
1.0000000000E+20
 30
1.0000000000E+20
  9
$PEXTMAX
 10
-1.0000000000E+20
 20
-1.0000000000E+20
 30
-1.0000000000E+20
  9
$PLIMMIN
 10
0.0
 20
0.0
  9
$PLIMMAX
 10
420.0
 20
297.0
  9
$UNITMODE
 70
     0
  9
$VISRETAIN
 70
     1
  9
$PLINEGEN
 70
     0
  9
$PSLTSCALE
 70
     1
  9
$TREEDEPTH
 70
  3020
  9
$CMLSTYLE
  2
Standard
  9
$CMLJUST
 70
     0
  9
$CMLSCALE
 40
20.0
  9
$PROXYGRAPHICS
 70
     1
  9
$MEASUREMENT
 70
     1
  9
$CELWEIGHT
370
    -1
  9
$ENDCAPS
280
     0
  9
$JOINSTYLE
280
     0
  9
$LWDISPLAY
290
     1
  9
$INSUNITS
 70
     4
  9
$HYPERLINKBASE
  1

  9
$STYLESHEET
  1

  9
$XEDIT
290
     1
  9
$CEPSNTYPE
380
     0
  9
$PSTYLEMODE
290
     1
  9
$FINGERPRINTGUID
  2
{bb7dd5d8-6683-4711-bbde-b1e536a68ca4}
  9
$VERSIONGUID
  2
{FAEB1C32-E019-11D5-929B-00C0DF256EC4}
  9
$EXTNAMES
290
     1
  9
$PSVPSCALE
 40
0.0
  9
$OLESTARTUP
290
     0
  0
ENDSEC
  0
SECTION
  2
CLASSES
  0
CLASS
  1
ACDBDICTIONARYWDFLT
  2
AcDbDictionaryWithDefault
  3
ObjectDBX Classes
 90
        0
280
     0
281
     0
  0
CLASS
  1
VISUALSTYLE
  2
AcDbVisualStyle
  3
ObjectDBX Classes
 90
     4095
280
     0
281
     0
  0
CLASS
  1
MATERIAL
  2
AcDbMaterial
  3
ObjectDBX Classes
 90
     1153
280
     0
281
     0
  0
CLASS
  1
SCALE
  2
AcDbScale
  3
ObjectDBX Classes
 90
     1153
280
     0
281
     0
  0
CLASS
  1
TABLESTYLE
  2
AcDbTableStyle
  3
ObjectDBX Classes
 90
     4095
280
     0
281
     0
  0
CLASS
  1
MLEADERSTYLE
  2
AcDbMLeaderStyle
  3
ACDB_MLEADERSTYLE_CLASS
 90
     4095
280
     0
281
     0
  0
CLASS
  1
SUN
  2
AcDbSun
  3
SCENEOE
 90
     1153
280
     0
281
     0
  0
CLASS
  1
ACDBPLACEHOLDER
  2
AcDbPlaceHolder
  3
ObjectDBX Classes
 90
        0
280
     0
281
     0
  0
CLASS
  1
LAYOUT
  2
AcDbLayout
  3
ObjectDBX Classes
 90
        0
280
     0
281
     0
  0
ENDSEC
  0
SECTION
  2
TABLES
  0
TABLE
  2
VPORT
  5
8
330
0
100
AcDbSymbolTable
 70
     1
  0
VPORT
  5
29
330
8
100
AcDbSymbolTableRecord
100
AcDbViewportTableRecord
  2
*Active
 70
     0
 10
0.0
 20
0.0
 11
1.0
 21
1.0
 12
300.0
 22
225.0
 13
0.0
 23
0.0
 14
10.0
 24
10.0
 15
10.0
 25
10.0
 16
0.0
 26
0.0
 36
1.0
 17
0.0
 27
0.0
 37
0.0
 40
450.0
 41
1.3333333333
 42
50.0
 43
0.0
 44
0.0
 50
0.0
 51
0.0
 71
     0
 72
  2000
 73
     1
 74
     3
 75
     0
 76
     0
 77
     0
 78
     0
281
     0
 65
     1
110
0.0
120
0.0
130
0.0
111
1.0
121
0.0
131
0.0
112
0.0
122
1.0
132
0.0
 79
     0
146
0.0
  0
ENDTAB
  0
TABLE
  2
LTYPE
  5
5
330
0
100
AcDbSymbolTable
 70
     6
  0
LTYPE
  5
14
330
5
100
AcDbSymbolTableRecord
100
AcDbLinetypeTableRecord
  2
ByBlock
 70
     0
  3

 72
    65
 73
     0
 40
0.0
  0
LTYPE
  5
15
330
5
100
AcDbSymbolTableRecord
100
AcDbLinetypeTableRecord
  2
ByLayer
 70
     0
  3

 72
    65
 73
     0
 40
0.0
  0
LTYPE
  5
16
330
5
100
AcDbSymbolTableRecord
100
AcDbLinetypeTableRecord
  2
Continuous
 70
     0
  3
Solid line
 72
    65
 73
     0
 40
0.0
  0
LTYPE
  5
6E
330
5
100
AcDbSymbolTableRecord
100
AcDbLinetypeTableRecord
  2
HIDDEN
 70
     0
  3
Hidden __ __ __ __ __ __ __ __ __ __ __ __ __ __
 72
    65
 73
     2
 40
1.905
 49
1.27
 74
     0
 49
-0.635
 74
     0
  0
LTYPE
  5
6F
330
5
100
AcDbSymbolTableRecord
100
AcDbLinetypeTableRecord
  2
PHANTOM
 70
     0
  3
Phantom ______  __  __  ______  __  __  ______
 72
    65
 73
     6
 40
12.7
 49
6.35
 74
     0
 49
-1.27
 74
     0
 49
1.27
 74
     0
 49
-1.27
 74
     0
 49
1.27
 74
     0
 49
-1.27
 74
     0
  0
LTYPE
  5
70
330
5
100
AcDbSymbolTableRecord
100
AcDbLinetypeTableRecord
  2
CENTER
 70
     0
  3
Center ____ _ ____ _ ____ _ ____ _ ____ _ ____
 72
    65
 73
     4
 40
10.16
 49
6.35
 74
     0
 49
-1.27
 74
     0
 49
1.27
 74
     0
 49
-1.27
 74
     0
  0
LTYPE
  5
71
330
5
100
AcDbSymbolTableRecord
100
AcDbLinetypeTableRecord
  2
CENTERX2
 70
     0
  3
Center (2x) ________  __  ________  __  _____
 72
    65
 73
     4
 40
20.32
 49
12.7
 74
     0
 49
-2.54
 74
     0
 49
2.54
 74
     0
 49
-2.54
 74
     0
  0
LTYPE
  5
72
330
5
100
AcDbSymbolTableRecord
100
AcDbLinetypeTableRecord
  2
DOT2
 70
     0
  3
Dot (.5x) ........................................
 72
    65
 73
     2
 40
0.635
 49
0.0
 74
     0
 49
-0.635
 74
     0
  0
ENDTAB
  0
TABLE
  2
LAYER
  5
2
330
0
100
AcDbSymbolTable
 70
     2
  0
LAYER
  5
10
330
2
100
AcDbSymbolTableRecord
100
AcDbLayerTableRecord
  2
0
 70
     0
 62
     7
  6
Continuous
370
    -3
390
F
  0
LAYER
  5
73
330
2
100
AcDbSymbolTableRecord
100
AcDbLayerTableRecord
  2
FORMAT
 70
     0
 62
     7
  6
Continuous
370
    -3
390
F
  0
ENDTAB
  0
TABLE
  2
STYLE
  5
3
330
0
100
AcDbSymbolTable
 70
     1
  0
STYLE
  5
11
330
3
100
AcDbSymbolTableRecord
100
AcDbTextStyleTableRecord
  2
Standard
 70
     0
 40
0.0
 41
1.0
 50
0.0
 71
     0
 42
3.5
  3
txt
  4

  0
ENDTAB
  0
TABLE
  2
VIEW
  5
6
330
0
100
AcDbSymbolTable
 70
     0
  0
ENDTAB
  0
TABLE
  2
UCS
  5
7
330
0
100
AcDbSymbolTable
 70
     0
  0
ENDTAB
  0
TABLE
  2
APPID
  5
9
330
0
100
AcDbSymbolTable
 70
     1
  0
APPID
  5
12
330
9
100
AcDbSymbolTableRecord
100
AcDbRegAppTableRecord
  2
ACAD
 70
     0
  0
ENDTAB
  0
TABLE
  2
DIMSTYLE
  5
A
330
0
100
AcDbSymbolTable
 70
     1
100
AcDbDimStyleTable
  0
DIMSTYLE
105
27
330
A
100
AcDbSymbolTableRecord
100
AcDbDimStyleTableRecord
  2
ISO-25
 70
     0
 41
2.5
 42
0.625
 43
3.75
 44
1.25
 73
     0
 74
     0
 77
     1
 78
     8
140
2.5
141
2.5
143
0.0393700787
147
0.625
171
     3
172
     1
178
     0
271
     2
272
     2
274
     3
278
    44
283
     0
284
     8
340
11
  0
ENDTAB
  0
TABLE
  2
BLOCK_RECORD
  5
1
330
0
100
AcDbSymbolTable
 70
     1
  0
BLOCK_RECORD
  5
1F
330
1
100
AcDbSymbolTableRecord
100
AcDbBlockTableRecord
  2
*Model_Space
340
22
  0
BLOCK_RECORD
  5
1B
330
1
100
AcDbSymbolTableRecord
100
AcDbBlockTableRecord
  2
*Paper_Space
340
1E
  0
BLOCK_RECORD
  5
23
330
1
100
AcDbSymbolTableRecord
100
AcDbBlockTableRecord
  2
*Paper_Space0
340
26
  0
ENDTAB
  0
ENDSEC
  0
SECTION
  2
BLOCKS
  0
BLOCK
  5
20
330
1F
100
AcDbEntity
  8
0
100
AcDbBlockBegin
  2
*Model_Space
 70
     0
 10
0.0
 20
0.0
 30
0.0
  3
*Model_Space
  1

  0
ENDBLK
  5
21
330
1F
100
AcDbEntity
  8
0
100
AcDbBlockEnd
  0
BLOCK
  5
1C
330
1B
100
AcDbEntity
 67
     1
  8
0
100
AcDbBlockBegin
  2
*Paper_Space
 70
     0
 10
0.0
 20
0.0
 30
0.0
  3
*Paper_Space
  1

  0
ENDBLK
  5
1D
330
1B
100
AcDbEntity
 67
     1
  8
0
100
AcDbBlockEnd
  0
BLOCK
  5
24
330
23
100
AcDbEntity
  8
0
100
AcDbBlockBegin
  2
*Paper_Space0
 70
     0
 10
0.0
 20
0.0
 30
0.0
  3
*Paper_Space0
  1

  0
ENDBLK
  5
25
330
23
100
AcDbEntity
  8
0
100
AcDbBlockEnd
  0
ENDSEC
  0
SECTION
  2
ENTITIES
  0
ARC
  5
74
330
1F
100
AcDbEntity
  8
0
  6
Continuous
 62
     7
370
    25
100
AcDbCircle
 10
272.5958111253
 20
290.0465424747
 30
0.0
 40
12.46275127397018
100
AcDbArc
 50
90.0
 51
180.0
  0
LINE
  5
75
330
1F
100
AcDbEntity
  8
0
  6
Continuous
 62
     7
370
    25
100
AcDbLine
 10
260.1330598513
 20
290.0465424747
 30
0.0
 11
260.1330598513
 21
122.5465424747
 31
0.0
  0
LINE
  5
76
330
1F
100
AcDbEntity
  8
0
  6
Continuous
 62
     7
370
    25
100
AcDbLine
 10
417.5958111253
 20
302.5092937486
 30
0.0
 11
272.5958111253
 21
302.5092937486
 31
0.0
  0
ARC
  5
77
330
1F
100
AcDbEntity
  8
0
  6
Continuous
 62
     7
370
    25
100
AcDbCircle
 10
272.5958111253
 20
122.5465424747
 30
0.0
 40
12.46275127397028
100
AcDbArc
 50
180.0
 51
270.0
  0
ARC
  5
78
330
1F
100
AcDbEntity
  8
0
  6
Continuous
 62
     7
370
    25
100
AcDbCircle
 10
417.5958111253
 20
290.0465424747
 30
0.0
 40
12.46275127397024
100
AcDbArc
 50
0.0
 51
90.0
  0
LINE
  5
79
330
1F
100
AcDbEntity
  8
0
  6
Continuous
 62
     7
370
    25
100
AcDbLine
 10
430.0585623993
 20
122.5465424747
 30
0.0
 11
430.0585623993
 21
290.0465424747
 31
0.0
  0
LINE
  5
7A
330
1F
100
AcDbEntity
  8
0
  6
Continuous
 62
     7
370
    25
100
AcDbLine
 10
272.5958111253
 20
110.0837912007
 30
0.0
 11
417.5958111253
 21
110.0837912007
 31
0.0
  0
ARC
  5
7B
330
1F
100
AcDbEntity
  8
0
  6
Continuous
 62
     7
370
    25
100
AcDbCircle
 10
417.5958111253
 20
122.5465424747
 30
0.0
 40
12.46275127397024
100
AcDbArc
 50
270.0
 51
0.0
  0
LINE
  5
7C
330
1F
100
AcDbEntity
  8
0
  6
Continuous
 62
     7
370
    25
100
AcDbLine
 10
332.9708111253
 20
301.6849486443
 30
0.0
 11
332.9708111253
 21
301.1092531257
 31
0.0
  0
ARC
  5
7D
330
1F
100
AcDbEntity
  8
0
  6
Continuous
 62
     7
370
    25
100
AcDbCircle
 10
333.3461535068
 20
303.4911264573
 30
0.0
 40
2.411265740509574
100
AcDbArc
 50
261.0448095014
 51
272.9633983002
  0
LINE
  5
7E
330
1F
100
AcDbEntity
  8
0
  6
Continuous
 62
     7
370
    25
100
AcDbLine
 10
333.4708111253
 20
301.0830851475
 30
0.0
 11
356.7208111253
 21
301.0830851475
 31
0.0
  0
ARC
  5
7F
330
1F
100
AcDbEntity
  8
0
  6
Continuous
 62
     7
370
    25
100
AcDbCircle
 10
356.8454687438
 20
303.4911264573
 30
0.0
 40
2.411265740504477
100
AcDbArc
 50
267.0366016998
 51
278.9551904986
  0
LINE
  5
80
330
1F
100
AcDbEntity
  8
0
  6
Continuous
 62
     7
370
    25
100
AcDbLine
 10
357.2208111253
 20
301.1092531257
 30
0.0
 11
357.2208111253
 21
301.6849486443
 31
0.0
  0
ARC
  5
81
330
1F
100
AcDbEntity
  8
0
  6
Continuous
 62
     7
370
    25
100
AcDbCircle
 10
356.8454687438
 20
299.3030753127
 30
0.0
 40
2.411265740503897
100
AcDbArc
 50
81.0448095014
 51
92.9633983002
  0
LINE
  5
82
330
1F
100
AcDbEntity
  8
0
  6
Continuous
 62
     7
370
    25
100
AcDbLine
 10
356.7208111253
 20
301.7111166225
 30
0.0
 11
333.4708111253
 21
301.7111166225
 31
0.0
  0
ARC
  5
83
330
1F
100
AcDbEntity
  8
0
  6
Continuous
 62
     7
370
    25
100
AcDbCircle
 10
333.3461535068
 20
299.3030753127
 30
0.0
 40
2.411265740500276
100
AcDbArc
 50
87.0366016998
 51
98.9551904986
  0
SPLINE
  5
84
330
1F
100
AcDbEntity
  8
0
  6
Continuous
 62
     7
370
    25
100
AcDbSpline
210
0.0
220
0.0
230
1.0
 70
     8
 71
     3
 72
    14
 73
    10
 74
     0
 42
0.00000001
 43
0.00000001
 40
0.0
 40
0.0
 40
0.0
 40
0.0
 40
0.1416418592737025
 40
0.2832827544648179
 40
0.4250451509087887
 40
0.5668053210537428
 40
0.6750778940077848
 40
0.7833514471234173
 40
1.0
 40
1.0
 40
1.0
 40
1.0
 10
272.5958111253046
 20
298.5877662583764
 30
0.0
 10
279.4372494669234
 20
298.5702280480509
 30
0.0
 10
293.1200795840427
 20
298.5351517467732
 30
0.0
 10
313.6638005423673
 20
298.4990132345168
 30
0.0
 10
334.2208467067467
 20
298.477940155581
 30
0.0
 10
353.16878705132
 20
298.4769878173241
 30
0.0
 10
370.493877833803
 20
298.4921446467109
 30
0.0
 10
391.4349700171276
 20
298.5227615019521
 30
0.0
 10
407.1304945958621
 20
298.5617619204774
 30
0.0
 10
417.5958111253047
 20
298.5877662583764
 30
0.0
  0
LINE
  5
85
330
1F
100
AcDbEntity
  8
0
  6
Continuous
 62
     7
370
    25
100
AcDbLine
 10
272.5958111253
 20
302.5092937486
 30
0.0
 11
272.5958111253
 21
298.5877662584
 31
0.0
  0
LINE
  5
86
330
1F
100
AcDbEntity
  8
0
  6
Continuous
 62
     7
370
    25
100
AcDbLine
 10
417.5958111253
 20
302.5092937486
 30
0.0
 11
417.5958111253
 21
298.5877662584
 31
0.0
  0
SPLINE
  5
87
330
1F
100
AcDbEntity
  8
0
  6
Continuous
 62
     7
370
    25
100
AcDbSpline
210
0.0
220
0.0
230
1.0
 70
     8
 71
     3
 72
    15
 73
    11
 74
     0
 42
0.00000001
 43
0.00000001
 40
0.0
 40
0.0
 40
0.0
 40
0.0
 40
0.1277272255748724
 40
0.2500006214609099
 40
0.3758169311157548
 40
0.5000000007328511
 40
0.6241812950806366
 40
0.7499993797184973
 40
0.8722718134307319
 40
0.9999999999999999
 40
0.9999999999999999
 40
0.9999999999999999
 40
0.9999999999999999
 10
426.3727841210071
 20
122.5465424746554
 30
0.0
 10
426.3373581945149
 20
121.960445045609
 30
0.0
 10
426.2680189945203
 20
120.8132759840502
 30
0.0
 10
425.7397046768747
 20
119.1564876387249
 30
0.0
 10
424.932489946267
 20
117.6420340064206
 30
0.0
 10
423.8340982991447
 20
116.3082667801721
 30
0.0
 10
422.5003266141736
 20
115.2098683635141
 30
0.0
 10
420.9858776470418
 20
114.4026534584519
 30
0.0
 10
419.3290820829295
 20
113.8743355630943
 30
0.0
 10
418.1819129852511
 20
113.8049959057933
 30
0.0
 10
417.5958111253047
 20
113.769569478953
 30
0.0
  0
LINE
  5
88
330
1F
100
AcDbEntity
  8
0
  6
Continuous
 62
     7
370
    25
100
AcDbLine
 10
430.0585623993
 20
122.5465424747
 30
0.0
 11
426.372784121
 21
122.5465424747
 31
0.0
  0
LINE
  5
89
330
1F
100
AcDbEntity
  8
0
  6
Continuous
 62
     7
370
    25
100
AcDbLine
 10
417.5958111253
 20
110.0837912007
 30
0.0
 11
417.5958111253
 21
113.769569479
 31
0.0
  0
SPLINE
  5
8A
330
1F
100
AcDbEntity
  8
0
  6
Continuous
 62
     7
370
    25
100
AcDbSpline
210
0.0
220
0.0
230
1.0
 70
     8
 71
     3
 72
    15
 73
    11
 74
     0
 42
0.00000001
 43
0.00000001
 40
0.0
 40
0.0
 40
0.0
 40
0.0
 40
0.1277272124220056
 40
0.2500006214662518
 40
0.3758169059605608
 40
0.5000000007414147
 40
0.6241812686443764
 40
0.7499993797240059
 40
0.8722717988525024
 40
0.9999999999999999
 40
0.9999999999999999
 40
0.9999999999999999
 40
0.9999999999999999
 10
264.0545873415837
 20
290.0465424746553
 30
0.0
 10
264.0890617221645
 20
290.6168972866171
 30
0.0
 10
264.1565384673814
 20
291.7332534235977
 30
0.0
 10
264.6706622306373
 20
293.3455403874304
 30
0.0
 10
265.4561951961032
 20
294.8193159064281
 30
0.0
 10
266.5250839819421
 20
296.1172581220021
 30
0.0
 10
267.8230306625852
 20
297.1861536871108
 30
0.0
 10
269.2968015106144
 20
297.9716868278321
 30
0.0
 10
270.9090957037811
 20
298.4858141737442
 30
0.0
 10
272.0254518770295
 20
298.5532913768351
 30
0.0
 10
272.5958111253046
 20
298.5877662583764
 30
0.0
  0
LINE
  5
8B
330
1F
100
AcDbEntity
  8
0
  6
Continuous
 62
     7
370
    25
100
AcDbLine
 10
260.1330598513
 20
290.0465424747
 30
0.0
 11
264.0545873416
 21
290.0465424747
 31
0.0
  0
SPLINE
  5
8C
330
1F
100
AcDbEntity
  8
0
  6
Continuous
 62
     7
370
    25
100
AcDbSpline
210
0.0
220
0.0
230
1.0
 70
     8
 71
     3
 72
    15
 73
    11
 74
     0
 42
0.00000001
 43
0.00000001
 40
0.0
 40
0.0
 40
0.0
 40
0.0
 40
0.127727211702699
 40
0.2500006214663408
 40
0.3758169053141817
 40
0.5000000007414321
 40
0.6241812692474761
 40
0.7499993797239405
 40
0.8722717995237524
 40
0.9999999999999999
 40
0.9999999999999999
 40
0.9999999999999999
 40
0.9999999999999999
 10
417.5958111253047
 20
298.5877662583764
 30
0.0
 10
418.1661659340403
 20
298.5532918781581
 30
0.0
 10
419.2825220709934
 20
298.4858151332704
 30
0.0
 10
420.8948090324812
 20
297.9716913717173
 30
0.0
 10
422.3685845545779
 20
297.1861584055124
 30
0.0
 10
423.6665267729092
 20
296.1172696185482
 30
0.0
 10
424.7354223393044
 20
294.8193229350428
 30
0.0
 10
425.5209554807159
 20
293.3455520841215
 30
0.0
 10
426.0350828250392
 20
291.7332578931426
 30
0.0
 10
426.1025600278226
 20
290.6169017199199
 30
0.0
 10
426.1370349090257
 20
290.0465424746554
 30
0.0
  0
LINE
  5
8D
330
1F
100
AcDbEntity
  8
0
  6
Continuous
 62
     7
370
    25
100
AcDbLine
 10
430.0585623993
 20
290.0465424747
 30
0.0
 11
426.137034909
 21
290.0465424747
 31
0.0
  0
LINE
  5
8E
330
1F
100
AcDbEntity
  8
0
  6
Continuous
 62
     7
370
    25
100
AcDbLine
 10
272.5978992599
 20
113.7760132506
 30
0.0
 11
272.5958111253
 21
113.769569479
 31
0.0
  0
SPLINE
  5
8F
330
1F
100
AcDbEntity
  8
0
  6
Continuous
 62
     7
370
    25
100
AcDbSpline
210
0.0
220
0.0
230
1.0
 70
     8
 71
     3
 72
    13
 73
     9
 74
     0
 42
0.00000001
 43
0.00000001
 40
0.0
 40
0.0
 40
0.0
 40
0.0
 40
0.1664861396825429
 40
0.332981299331609
 40
0.4994660550566638
 40
0.6663067480585368
 40
0.8331579135514222
 40
1.0
 40
1.0
 40
1.0
 40
1.0
 10
417.593722987488
 20
113.776013250588
 30
0.0
 10
409.5511481262634
 20
113.7935543299544
 30
0.0
 10
393.4655626693075
 20
113.8286374390363
 30
0.0
 10
369.3218318017522
 20
113.8573194202408
 30
0.0
 10
345.1560546816523
 20
113.8678398315297
 30
0.0
 10
320.9730443594148
 20
113.8574171015718
 30
0.0
 10
296.7776587249573
 20
113.8287382468335
 30
0.0
 10
280.6576728853949
 20
113.7935879305443
 30
0.0
 10
272.5978992599279
 20
113.7760132505802
 30
0.0
  0
LINE
  5
90
330
1F
100
AcDbEntity
  8
0
  6
Continuous
 62
     7
370
    25
100
AcDbLine
 10
417.5958111253
 20
113.769569479
 30
0.0
 11
417.5937229875
 21
113.7760132506
 31
0.0
  0
LINE
  5
91
330
1F
100
AcDbEntity
  8
0
  6
Continuous
 62
     7
370
    25
100
AcDbLine
 10
272.5958111253
 20
110.0837912007
 30
0.0
 11
272.5958111253
 21
113.769569479
 31
0.0
  0
LINE
  5
92
330
1F
100
AcDbEntity
  8
0
  6
Continuous
 62
     7
370
    25
100
AcDbLine
 10
264.0590593389
 20
290.0455934747
 30
0.0
 11
264.0545873416
 21
290.0465424747
 31
0.0
  0
SPLINE
  5
93
330
1F
100
AcDbEntity
  8
0
  6
Continuous
 62
     7
370
    25
100
AcDbSpline
210
0.0
220
0.0
230
1.0
 70
     8
 71
     3
 72
    14
 73
    10
 74
     0
 42
0.00000001
 43
0.00000001
 40
0.0
 40
0.0
 40
0.0
 40
0.0
 40
0.1421653558241425
 40
0.2843364374989546
 40
0.426500124123032
 40
0.5689494416617653
 40
0.7114078093302308
 40
0.8538541196898948
 40
1.0
 40
1.0
 40
1.0
 40
1.0
 10
263.8188381296023
 20
122.5465424746554
 30
0.0
 10
263.8500252114577
 20
130.4687819408716
 30
0.0
 10
263.9124006312594
 20
146.3135799493537
 30
0.0
 10
263.9853586191541
 20
170.1075999842294
 30
0.0
 10
264.042233414054
 20
193.933086821511
 30
0.0
 10
264.080028694714
 20
217.789006986663
 30
0.0
 10
264.0966387721625
 20
241.6692804705671
 30
0.0
 10
264.0923381261582
 20
265.7591478889047
 30
0.0
 10
264.0702466675091
 20
281.8812200124329
 30
0.0
 10
264.059059338898
 20
290.0455934746801
 30
0.0
  0
LINE
  5
94
330
1F
100
AcDbEntity
  8
0
  6
Continuous
 62
     7
370
    25
100
AcDbLine
 10
260.1330598513
 20
122.5465424747
 30
0.0
 11
263.8188381296
 21
122.5465424747
 31
0.0
  0
SPLINE
  5
95
330
1F
100
AcDbEntity
  8
0
  6
Continuous
 62
     7
370
    25
100
AcDbSpline
210
0.0
220
0.0
230
1.0
 70
     8
 71
     3
 72
    15
 73
    11
 74
     0
 42
0.00000001
 43
0.00000001
 40
0.0
 40
0.0
 40
0.0
 40
0.0
 40
0.1277272255720584
 40
0.2500006214609057
 40
0.3758169317197254
 40
0.5000000007328181
 40
0.6241812956716634
 40
0.7499993797185018
 40
0.8722718134135469
 40
1.0
 40
1.0
 40
1.0
 40
1.0
 10
272.5958111253047
 20
113.769569478953
 30
0.0
 10
272.0097136962707
 20
113.8049954054454
 30
0.0
 10
270.8625446347107
 20
113.874334605442
 30
0.0
 10
269.2057562867305
 20
114.4026489239095
 30
0.0
 10
267.6913026546869
 20
115.2098636553053
 30
0.0
 10
266.3575354269586
 20
116.3082553046866
 30
0.0
 10
265.2591370125853
 20
117.6420269881181
 30
0.0
 10
264.4519221083262
 20
119.1564759554469
 30
0.0
 10
263.9236042137556
 20
120.8132715169527
 30
0.0
 10
263.8542645564497
 20
121.9604406146303
 30
0.0
 10
263.8188381296023
 20
122.5465424746554
 30
0.0
  0
SPLINE
  5
96
330
1F
100
AcDbEntity
  8
0
  6
Continuous
 62
     7
370
    25
100
AcDbSpline
210
0.0
220
0.0
230
1.0
 70
     8
 71
     3
 72
    15
 73
    11
 74
     0
 42
0.00000001
 43
0.00000001
 40
0.0
 40
0.0
 40
0.0
 40
0.0
 40
0.1203969716547334
 40
0.240793319058945
 40
0.3612955072028615
 40
0.4817982483628453
 40
0.6113057324163225
 40
0.74081386611472
 40
0.8704068237473351
 40
1.0
 40
1.0
 40
1.0
 40
1.0
 10
426.1325629117189
 20
290.0455934793505
 30
0.0
 10
426.1231013589985
 20
283.3198463669604
 30
0.0
 10
426.1041783026152
 20
269.8683870147447
 30
0.0
 10
426.0949961974866
 20
249.6779801304752
 30
0.0
 10
426.1013425187335
 20
229.4817303914745
 30
0.0
 10
426.124217284334
 20
208.7805024081727
 30
0.0
 10
426.1632583608647
 20
187.5845176362319
 30
0.0
 10
426.2186841903597
 20
165.8935166548792
 30
0.0
 10
426.2871950881154
 20
144.2110606599929
 30
0.0
 10
426.3442544273336
 20
129.7680525972628
 30
0.0
 10
426.3727841210071
 20
122.5465424746554
 30
0.0
  0
LINE
  5
97
330
1F
100
AcDbEntity
  8
0
  6
Continuous
 62
     7
370
    25
100
AcDbLine
 10
426.137034909
 20
290.0465424747
 30
0.0
 11
426.1325629117
 21
290.0455934794
 31
0.0
  0
LINE
  5
98
330
1F
100
AcDbEntity
  8
0
  6
Continuous
 62
     7
370
    25
100
AcDbLine
 10
333.4708111253
 20
301.0830851475
 30
0.0
 11
333.4708111253
 21
301.4825369615
 31
0.0
  0
ARC
  5
99
330
1F
100
AcDbEntity
  8
0
  6
Continuous
 62
     7
370
    25
100
AcDbCircle
 10
333.3461535068
 20
303.8905782712
 30
0.0
 40
2.411265740505086
100
AcDbArc
 50
261.0448095014
 51
272.9633983002
  0
LINE
  5
9A
330
1F
100
AcDbEntity
  8
0
  6
Continuous
 62
     7
370
    25
100
AcDbLine
 10
356.7208111253
 20
301.0830851475
 30
0.0
 11
356.7208111253
 21
301.4825369615
 31
0.0
  0
ARC
  5
9B
330
1F
100
AcDbEntity
  8
0
  6
Continuous
 62
     7
370
    25
100
AcDbCircle
 10
356.8454687438
 20
303.8905782712
 30
0.0
 40
2.411265740500105
100
AcDbArc
 50
267.0366016998
 51
278.9551904986
  0
LINE
  5
9C
330
1F
100
AcDbEntity
  8
0
  6
Continuous
 62
     7
370
    25
100
AcDbLine
 10
333.4708111253
 20
301.4825369615
 30
0.0
 11
356.7208111253
 21
301.4825369615
 31
0.0
  0
LINE
  5
9D
330
1F
100
AcDbEntity
  8
0
  6
Continuous
 62
     7
370
    25
100
AcDbLine
 10
263.8188381296
 20
122.5465424747
 30
0.0
 11
263.8472476556
 21
122.5237902311
 31
0.0
  0
SPLINE
  5
9E
330
1F
100
AcDbEntity
  8
0
  6
Continuous
 62
     7
370
    25
100
AcDbSpline
210
0.0
220
0.0
230
1.0
 70
     8
 71
     3
 72
    20
 73
    16
 74
     0
 42
0.00000001
 43
0.00000001
 40
0.0
 40
0.0
 40
0.0
 40
0.0
 40
0.1238994817808227
 40
0.2498468348127872
 40
0.332716156894099
 40
0.4158493426865209
 40
0.5003138827337005
 40
0.5610643330988704
 40
0.6244975982562695
 40
0.6852560657042471
 40
0.7501883124678863
 40
0.8087829264722693
 40
0.8744877433555928
 40
0.9261458689734472
 40
1.0
 40
1.0
 40
1.0
 40
1.0
 10
264.0590593388981
 20
290.0455934746801
 30
0.0
 10
264.1420516496199
 20
290.0425192050268
 30
0.0
 10
264.3094080085783
 20
290.0363198526873
 30
0.0
 10
265.0207123543076
 20
289.8638888648052
 30
0.0
 10
265.8731941463344
 20
289.6311127663329
 30
0.0
 10
266.767501931162
 20
289.3727107242962
 30
0.0
 10
267.7120218325375
 20
289.0890725458177
 30
0.0
 10
268.6642245447486
 20
288.79578043981
 30
0.0
 10
269.5684668332968
 20
288.5125507689514
 30
0.0
 10
270.5461800587156
 20
288.2016161520165
 30
0.0
 10
271.5437294931619
 20
287.8808750867785
 30
0.0
 10
272.6043884142063
 20
287.5362087385008
 30
0.0
 10
273.6184394813158
 20
287.2047350463703
 30
0.0
 10
274.7394945965236
 20
286.8356281634919
 30
0.0
 10
275.4865517183418
 20
286.5891071374466
 30
0.0
 10
275.9261363137761
 20
286.4440488248554
 30
0.0
  0
SPLINE
  5
9F
330
1F
100
AcDbEntity
  8
0
  6
Continuous
 62
     7
370
    25
100
AcDbSpline
210
0.0
220
0.0
230
1.0
 70
     8
 71
     3
 72
    14
 73
    10
 74
     0
 42
0.00000001
 43
0.00000001
 40
0.0
 40
0.0
 40
0.0
 40
0.0
 40
0.1285392505246244
 40
0.2736230611079025
 40
0.4187183190146119
 40
0.5638047450221952
 40
0.7092001461728284
 40
0.8546029035485715
 40
1.0
 40
1.0
 40
1.0
 40
1.0
 10
275.9261363137761
 20
286.4440488248554
 30
0.0
 10
275.9268029497734
 20
279.5363001195299
 30
0.0
 10
275.9282220259039
 20
264.8316916952477
 30
0.0
 10
275.9288242461411
 20
242.3220027647158
 30
0.0
 10
275.9304463860792
 20
218.9252851575638
 30
0.0
 10
275.9229794149499
 20
195.5196065361979
 30
0.0
 10
275.8960251574506
 20
172.11077374283
 30
0.0
 10
275.8489788782429
 20
148.6999214215007
 30
0.0
 10
275.8005435251959
 20
133.1095106315262
 30
0.0
 10
275.7763263201115
 20
125.3144569837533
 30
0.0
  0
SPLINE
  5
A0
330
1F
100
AcDbEntity
  8
0
  6
Continuous
 62
     7
370
    25
100
AcDbSpline
210
0.0
220
0.0
230
1.0
 70
     8
 71
     3
 72
    17
 73
    13
 74
     0
 42
0.00000001
 43
0.00000001
 40
0.0
 40
0.0
 40
0.0
 40
0.0
 40
0.1266199350159335
 40
0.2500906723957796
 40
0.3749952093690982
 40
0.5003472215493804
 40
0.6244895802648511
 40
0.7500856353975316
 40
0.808709579801152
 40
0.8744284842896032
 40
0.9260769690972791
 40
1.0
 40
1.0
 40
1.0
 40
1.0
 10
263.8472476556452
 20
122.5237902311436
 30
0.0
 10
263.9558992296925
 20
122.494174622186
 30
0.0
 10
264.1705000759727
 20
122.4356799818542
 30
0.0
 10
265.016253851993
 20
122.5208391688878
 30
0.0
 10
266.1965474243309
 20
122.7274826648784
 30
0.0
 10
267.7088889846914
 20
123.0611710287233
 30
0.0
 10
269.4843786060675
 20
123.5046000669514
 30
0.0
 10
271.111857619557
 20
123.9459731073894
 30
0.0
 10
272.4969999974895
 20
124.3389584881899
 30
0.0
 10
273.4988565732896
 20
124.6301313374492
 30
0.0
 10
274.6056678112284
 20
124.9588357094933
 30
0.0
 10
275.3425368927919
 20
125.1826809382794
 30
0.0
 10
275.7763263201115
 20
125.3144569837574
 30
0.0
  0
SPLINE
  5
A1
330
1F
100
AcDbEntity
  8
0
  6
Continuous
 62
     7
370
    25
100
AcDbSpline
210
0.0
220
0.0
230
1.0
 70
     8
 71
     3
 72
    20
 73
    16
 74
     0
 42
0.00000001
 43
0.00000001
 40
0.0
 40
0.0
 40
0.0
 40
0.0
 40
0.1265688428652102
 40
0.2499873607253515
 40
0.3327598806448891
 40
0.4158800365020228
 40
0.5003308538271436
 40
0.5611043053137724
 40
0.6245378460982882
 40
0.6852967388849942
 40
0.7501963666869378
 40
0.808793912891766
 40
0.8744838204705035
 40
0.9261733936587783
 40
1.0
 40
1.0
 40
1.0
 40
1.0
 10
272.5978992599281
 20
113.7760132505802
 30
0.0
 10
272.5937324430834
 20
113.8589574932685
 30
0.0
 10
272.585502522338
 20
114.0227814790744
 30
0.0
 10
272.7250104333114
 20
114.7112633896976
 30
0.0
 10
272.9192195331236
 20
115.5254556337683
 30
0.0
 10
273.1416967760463
 20
116.3879817406569
 30
0.0
 10
273.3895790796524
 20
117.3010297424018
 30
0.0
 10
273.648485113561
 20
118.2233909223518
 30
0.0
 10
273.9002928293611
 20
119.1009273812355
 30
0.0
 10
274.1783801470141
 20
120.0512926306233
 30
0.0
 10
274.4668793301924
 20
121.0228573030554
 30
0.0
 10
274.7784964037118
 20
122.0578970234771
 30
0.0
 10
275.0798140823076
 20
123.0498723098159
 30
0.0
 10
275.4167011342244
 20
124.1484061474739
 30
0.0
 10
275.6431391224264
 20
124.8826100238151
 30
0.0
 10
275.7763263201117
 20
125.3144569837533
 30
0.0
  0
SPLINE
  5
A2
330
1F
100
AcDbEntity
  8
0
  6
Continuous
 62
     7
370
    25
100
AcDbSpline
210
0.0
220
0.0
230
1.0
 70
     8
 71
     3
 72
    13
 73
     9
 74
     0
 42
0.00000001
 43
0.00000001
 40
0.0
 40
0.0
 40
0.0
 40
0.0
 40
0.1532153516038963
 40
0.3335117285126598
 40
0.5138077669700618
 40
0.6942879125043371
 40
0.8747684420969075
 40
1.0
 40
1.0
 40
1.0
 40
1.0
 10
275.7763263201115
 20
125.3144569837533
 30
0.0
 10
282.8535638870078
 20
125.3246011649027
 30
0.0
 10
298.2589505491253
 20
125.3466825252496
 30
0.0
 10
322.0065949718532
 20
125.3629737906277
 30
0.0
 10
347.0193321320508
 20
125.3680683620111
 30
0.0
 10
372.0400967119166
 20
125.3611221963322
 30
0.0
 10
394.5099979280608
 20
125.3436092257566
 30
0.0
 10
408.6308470681322
 20
125.3229285802636
 30
0.0
 10
414.4152959304978
 20
125.3144569837533
 30
0.0
  0
SPLINE
  5
A3
330
1F
100
AcDbEntity
  8
0
  6
Continuous
 62
     7
370
    25
100
AcDbSpline
210
0.0
220
0.0
230
1.0
 70
     8
 71
     3
 72
    17
 73
    13
 74
     0
 42
0.00000001
 43
0.00000001
 40
0.0
 40
0.0
 40
0.0
 40
0.0
 40
0.1266242002821653
 40
0.2500966973960829
 40
0.3750011391746813
 40
0.5003518892706049
 40
0.6244925771319251
 40
0.7500871058679425
 40
0.8087091135101016
 40
0.8744289188915386
 40
0.9261485744346062
 40
1.0
 40
1.0
 40
1.0
 40
1.0
 10
417.593722987488
 20
113.776013250588
 30
0.0
 10
417.5978555910917
 20
113.859073880033
 30
0.0
 10
417.6060179369198
 20
114.0231277422614
 30
0.0
 10
417.4493682791402
 20
114.7969701629957
 30
0.0
 10
417.1774786258439
 20
115.9115800460848
 30
0.0
 10
416.7866515079429
 20
117.366349987252
 30
0.0
 10
416.2958050139732
 20
119.0940246516422
 30
0.0
 10
415.8245239845598
 20
120.6912997530514
 30
0.0
 10
415.413149241017
 20
122.0578472326442
 30
0.0
 10
415.1117926603288
 20
123.0499167548035
 30
0.0
 10
414.7749100523184
 20
124.1484468572528
 30
0.0
 10
414.5484705455042
 20
124.8826526127121
 30
0.0
 10
414.4152959304978
 20
125.3144569837533
 30
0.0
  0
SPLINE
  5
A4
330
1F
100
AcDbEntity
  8
0
  6
Continuous
 62
     7
370
    25
100
AcDbSpline
210
0.0
220
0.0
230
1.0
 70
     8
 71
     3
 72
    19
 73
    15
 74
     0
 42
0.00000001
 43
0.00000001
 40
0.0
 40
0.0
 40
0.0
 40
0.0
 40
0.0609285033155425
 40
0.1075851967377228
 40
0.1526973776839496
 40
0.2035645507327379
 40
0.2498915470303169
 40
0.335502290193483
 40
0.4181341588158007
 40
0.4997559269722091
 40
0.6250820973863701
 40
0.7499608846711026
 40
0.873406167974859
 40
1.0
 40
1.0
 40
1.0
 40
1.0
 10
414.4152959304979
 20
125.3144569837533
 30
0.0
 10
414.7729193980534
 20
125.2057015340798
 30
0.0
 10
415.4043970976734
 20
125.0136653636059
 30
0.0
 10
416.2912390670696
 20
124.7491124948298
 30
0.0
 10
417.110131308435
 20
124.5084282964093
 30
0.0
 10
417.9138331633186
 20
124.276610956272
 30
0.0
 10
418.9238617792213
 20
123.9908249010449
 30
0.0
 10
420.0681193610182
 20
123.6773621010546
 30
0.0
 10
421.3185948277385
 20
123.3510901978654
 30
0.0
 10
422.6540227009198
 20
123.0233976752612
 30
0.0
 10
423.9951999334401
 20
122.7274486802954
 30
0.0
 10
425.1753355436076
 20
122.5208481362676
 30
0.0
 10
426.0211305926999
 20
122.4356777124954
 30
0.0
 10
426.2357258503004
 20
122.4941738615015
 30
0.0
 10
426.344374594951
 20
122.5237902343304
 30
0.0
  0
SPLINE
  5
A5
330
1F
100
AcDbEntity
  8
0
  6
Continuous
 62
     7
370
    25
100
AcDbSpline
210
0.0
220
0.0
230
1.0
 70
     8
 71
     3
 72
    15
 73
    11
 74
     0
 42
0.00000001
 43
0.00000001
 40
0.0
 40
0.0
 40
0.0
 40
0.0
 40
0.1297941873541709
 40
0.2595881683953805
 40
0.3894568310387371
 40
0.5193249251085723
 40
0.6394460709200769
 40
0.7595667430326071
 40
0.8797831318606987
 40
1.0
 40
1.0
 40
1.0
 40
1.0
 10
414.4152959304978
 20
125.3144569837533
 30
0.0
 10
414.3934311969841
 20
132.2728384609587
 30
0.0
 10
414.3497017647117
 20
146.1895903547484
 30
0.0
 10
414.304330486171
 20
167.0892328248136
 30
0.0
 10
414.2756155048224
 20
188.0049702016314
 30
0.0
 10
414.2637046273101
 20
208.4125805656529
 30
0.0
 10
414.2630931043967
 20
228.3039691966716
 30
0.0
 10
414.2652002613819
 20
247.6805068869434
 30
0.0
 10
414.2626365496699
 20
267.0626657410606
 30
0.0
 10
414.2645361398498
 20
279.9835792108423
 30
0.0
 10
414.2654859368333
 20
286.4440488248554
 30
0.0
  0
SPLINE
  5
A6
330
1F
100
AcDbEntity
  8
0
  6
Continuous
 62
     7
370
    25
100
AcDbSpline
210
0.0
220
0.0
230
1.0
 70
     8
 71
     3
 72
    19
 73
    15
 74
     0
 42
0.00000001
 43
0.00000001
 40
0.0
 40
0.0
 40
0.0
 40
0.0
 40
0.0608916764531275
 40
0.1075592781701916
 40
0.1527038169053529
 40
0.2035793155923097
 40
0.2499014344020618
 40
0.3355488354048972
 40
0.4181785294456946
 40
0.499772241075772
 40
0.6250900273305255
 40
0.7500927226125496
 40
0.8760709826323865
 40
1.0
 40
1.0
 40
1.0
 40
1.0
 10
414.2654859368333
 20
286.4440488248554
 30
0.0
 10
414.6278564268535
 20
286.5636527769892
 30
0.0
 10
415.2679489749171
 20
286.7749216318994
 30
0.0
 10
416.1663743957102
 20
287.0708575999152
 30
0.0
 10
416.9957171041096
 20
287.342963303181
 30
0.0
 10
417.8089359938079
 20
287.6083186461836
 30
0.0
 10
418.8299118234806
 20
287.9397444966514
 30
0.0
 10
419.9847343560415
 20
288.3104990674069
 30
0.0
 10
421.243200386861
 20
288.7078298464091
 30
0.0
 10
422.5819588069268
 20
289.1214211534495
 30
0.0
 10
423.917803474765
 20
289.5193861031676
 30
0.0
 10
425.0823145744027
 20
289.842488658324
 30
0.0
 10
425.8818669285398
 20
290.0362158625582
 30
0.0
 10
426.0494556605256
 20
290.0424847420485
 30
0.0
 10
426.1325629117189
 20
290.0455934793504
 30
0.0
  0
LINE
  5
A7
330
1F
100
AcDbEntity
  8
0
  6
Continuous
 62
     7
370
    25
100
AcDbLine
 10
426.344374595
 20
122.5237902343
 30
0.0
 11
426.372784121
 21
122.5465424747
 31
0.0
  0
SPLINE
  5
A8
330
1F
100
AcDbEntity
  8
0
  6
Continuous
 62
     7
370
    25
100
AcDbSpline
210
0.0
220
0.0
230
1.0
 70
     8
 71
     3
 72
    15
 73
    11
 74
     0
 42
0.00000001
 43
0.00000001
 40
0.0
 40
0.0
 40
0.0
 40
0.0
 40
0.1250485647648301
 40
0.2500560396443399
 40
0.3750352273637297
 40
0.4999999995579325
 40
0.6249647717823614
 40
0.7499439595730042
 40
0.8749514385700528
 40
1.0
 40
1.0
 40
1.0
 40
1.0
 10
417.5937229874893
 20
113.776013250588
 30
0.0
 10
418.1641810417835
 20
113.8108518103741
 30
0.0
 10
419.3049097027505
 20
113.8805174822947
 30
0.0
 10
420.95076877852
 20
114.4042149350469
 30
0.0
 10
422.4686595111367
 20
115.21408784314
 30
0.0
 10
423.800215237785
 20
116.3097915000019
 30
0.0
 10
424.8968913383604
 20
117.6415219833632
 30
0.0
 10
425.7088708500185
 20
119.1607539527859
 30
0.0
 10
426.2356580492911
 20
120.8089890594327
 30
0.0
 10
426.3081317774247
 20
121.9521272395343
 30
0.0
 10
426.344374594951
 20
122.5237902343304
 30
0.0
  0
SPLINE
  5
A9
330
1F
100
AcDbEntity
  8
0
  6
Continuous
 62
     7
370
    25
100
AcDbSpline
210
0.0
220
0.0
230
1.0
 70
     8
 71
     3
 72
    15
 73
    11
 74
     0
 42
0.00000001
 43
0.00000001
 40
0.0
 40
0.0
 40
0.0
 40
0.0
 40
0.1250485637390561
 40
0.2500560404331566
 40
0.375035228204171
 40
0.500000000414975
 40
0.6249647726227974
 40
0.7499439603618161
 40
0.8749514375442706
 40
1.0
 40
1.0
 40
1.0
 40
1.0
 10
272.5978992599278
 20
113.7760132505804
 30
0.0
 10
272.027441210547
 20
113.8108518098444
 30
0.0
 10
270.8867125464493
 20
113.8805174815121
 30
0.0
 10
269.2408534671261
 20
114.4042149351554
 30
0.0
 10
267.7229627285016
 20
115.2140878489782
 30
0.0
 10
266.3914070035897
 20
116.3097915073676
 30
0.0
 10
265.2947309053311
 20
117.6415219915061
 30
0.0
 10
264.4827513999951
 20
119.1607539538175
 30
0.0
 10
263.9559642020042
 20
120.8089890557071
 30
0.0
 10
263.883490473679
 20
121.9521272318396
 30
0.0
 10
263.8472476556452
 20
122.5237902311436
 30
0.0
  0
LINE
  5
AA
330
1F
100
AcDbEntity
  8
0
  6
Continuous
 62
     7
370
    25
100
AcDbLine
 10
272.5862132072
 20
298.570724054
 30
0.0
 11
272.5958111253
 21
298.5877662584
 31
0.0
  0
LINE
  5
AB
330
1F
100
AcDbEntity
  8
0
  6
Continuous
 62
     7
370
    25
100
AcDbLine
 10
417.6054090481
 20
298.570724054
 30
0.0
 11
417.5958111253
 21
298.5877662584
 31
0.0
  0
SPLINE
  5
AC
330
1F
100
AcDbEntity
  8
0
  6
Continuous
 62
     7
370
    25
100
AcDbSpline
210
0.0
220
0.0
230
1.0
 70
     8
 71
     3
 72
    19
 73
    15
 74
     0
 42
0.00000001
 43
0.00000001
 40
0.0
 40
0.0
 40
0.0
 40
0.0
 40
0.0571951907011238
 40
0.1012386229203414
 40
0.1527044771278951
 40
0.2035799468192287
 40
0.2499049111694465
 40
0.3355521358503278
 40
0.4181835141861062
 40
0.4997809440829022
 40
0.6251008314803019
 40
0.7501036376053268
 40
0.8760744652838685
 40
1.0
 40
1.0
 40
1.0
 40
1.0
 10
414.2654859368333
 20
286.4440488248554
 30
0.0
 10
414.3771060259476
 20
286.7850854113726
 30
0.0
 10
414.5746797025741
 20
287.3887388647699
 30
0.0
 10
414.866957895805
 20
288.2917773746984
 30
0.0
 10
415.1415071505712
 20
289.148331494862
 30
0.0
 10
415.4122714437158
 20
290.0037697008758
 30
0.0
 10
415.7342976435848
 20
291.0338434404395
 30
0.0
 10
416.0916169889021
 20
292.2017878603799
 30
0.0
 10
416.4699150217015
 20
293.4789962215817
 30
0.0
 10
416.8578708826241
 20
294.843149345429
 30
0.0
 10
417.2216308705642
 20
296.213050679984
 30
0.0
 10
417.5005294131648
 20
297.4217568529514
 30
0.0
 10
417.6462602067033
 20
298.2694869751689
 30
0.0
 10
417.6189515979131
 20
298.4708610808615
 30
0.0
 10
417.6054090480565
 20
298.5707240540028
 30
0.0
  0
SPLINE
  5
AD
330
1F
100
AcDbEntity
  8
0
  6
Continuous
 62
     7
370
    25
100
AcDbSpline
210
0.0
220
0.0
230
1.0
 70
     8
 71
     3
 72
    14
 73
    10
 74
     0
 42
0.00000001
 43
0.00000001
 40
0.0
 40
0.0
 40
0.0
 40
0.0
 40
0.2145322134219049
 40
0.3218404806755494
 40
0.4291479606400775
 40
0.5717931378587127
 40
0.7144401314222913
 40
0.8572195843739367
 40
1.0
 40
1.0
 40
1.0
 40
1.0
 10
414.2654859368333
 20
286.4440488248554
 30
0.0
 10
404.3779848382729
 20
286.4338970802544
 30
0.0
 10
389.5447900677397
 20
286.4186674683004
 30
0.0
 10
369.75262387688
 20
286.435981259038
 30
0.0
 10
353.2722794965742
 20
286.4568783991031
 30
0.0
 10
335.1585799852583
 20
286.4532177545431
 30
0.0
 10
315.4121353125084
 20
286.4288345501092
 30
0.0
 10
295.6661312709718
 20
286.4218339104615
 30
0.0
 10
282.5061494210747
 20
286.4366438367484
 30
0.0
 10
275.9261363137761
 20
286.4440488248554
 30
0.0
  0
SPLINE
  5
AE
330
1F
100
AcDbEntity
  8
0
  6
Continuous
 62
     7
370
    25
100
AcDbSpline
210
0.0
220
0.0
230
1.0
 70
     8
 71
     3
 72
    19
 73
    15
 74
     0
 42
0.00000001
 43
0.00000001
 40
0.0
 40
0.0
 40
0.0
 40
0.0
 40
0.0572170919384315
 40
0.101239719151711
 40
0.1527050890721168
 40
0.2035808683506699
 40
0.2499049067935507
 40
0.3355531512428718
 40
0.4181845737194115
 40
0.4997809419083348
 40
0.6251008305048584
 40
0.7501036373913962
 40
0.8760750143916406
 40
1.0
 40
1.0
 40
1.0
 40
1.0
 10
275.9261363137761
 20
286.4440488248554
 30
0.0
 10
275.8144738457592
 20
286.7852161201384
 30
0.0
 10
275.616898671649
 20
287.3888763200551
 30
0.0
 10
275.3246197975997
 20
288.2919155851678
 30
0.0
 10
275.0501104126799
 20
289.1483469260419
 30
0.0
 10
274.7793479563053
 20
290.003778441068
 30
0.0
 10
274.4573214367686
 20
291.0338542598871
 30
0.0
 10
274.1000016453817
 20
292.2017990333367
 30
0.0
 10
273.7217046553272
 20
293.4790063754521
 30
0.0
 10
273.3337501791235
 20
294.8431537088566
 30
0.0
 10
272.969991578143
 20
296.2130506994075
 30
0.0
 10
272.6910921980264
 20
297.4217586155629
 30
0.0
 10
272.5453630748443
 20
298.2694879464448
 30
0.0
 10
272.5726710377038
 20
298.4708616986955
 30
0.0
 10
272.5862132072216
 20
298.5707240539897
 30
0.0
  0
SPLINE
  5
AF
330
1F
100
AcDbEntity
  8
0
  6
Continuous
 62
     7
370
    25
100
AcDbSpline
210
0.0
220
0.0
230
1.0
 70
     8
 71
     3
 72
    15
 73
    11
 74
     0
 42
0.00000001
 43
0.00000001
 40
0.0
 40
0.0
 40
0.0
 40
0.0
 40
0.1250258700962937
 40
0.2500298668122475
 40
0.3750187806357311
 40
0.4999999995599278
 40
0.6249812185054349
 40
0.7499701323940459
 40
0.8749741324286378
 40
1.0
 40
1.0
 40
1.0
 40
1.0
 10
426.1325629117189
 20
290.045593479353
 30
0.0
 10
426.0989069624291
 20
290.601975013922
 30
0.0
 10
426.031600951986
 20
291.714640743646
 30
0.0
 10
425.5215793108068
 20
293.3199617197654
 30
0.0
 10
424.7321771749584
 20
294.8002985703453
 30
0.0
 10
423.6637521726504
 20
296.0984582740109
 30
0.0
 10
422.3650250568279
 20
297.1668890232378
 30
0.0
 10
420.8835576027874
 20
297.9568829364457
 30
0.0
 10
419.2766205101642
 20
298.4680183849454
 30
0.0
 10
418.1625120152899
 20
298.536486834907
 30
0.0
 10
417.6054090480565
 20
298.5707240540028
 30
0.0
  0
SPLINE
  5
B0
330
1F
100
AcDbEntity
  8
0
  6
Continuous
 62
     7
370
    25
100
AcDbSpline
210
0.0
220
0.0
230
1.0
 70
     8
 71
     3
 72
    15
 73
    11
 74
     0
 42
0.00000001
 43
0.00000001
 40
0.0
 40
0.0
 40
0.0
 40
0.0
 40
0.1250258690640316
 40
0.2500298676061386
 40
0.3750187814816449
 40
0.500000000422577
 40
0.6249812193513479
 40
0.7499701331879421
 40
0.8749741313963781
 40
1.0
 40
1.0
 40
1.0
 40
1.0
 10
264.0590593388981
 20
290.0455934746801
 30
0.0
 10
264.0927152877085
 20
290.6019750049333
 30
0.0
 10
264.1600212979627
 20
291.714640738746
 30
0.0
 10
264.6700429404816
 20
293.3199617198198
 30
0.0
 10
265.4594450826735
 20
294.8002985776441
 30
0.0
 10
266.5278700874569
 20
296.0984582807853
 30
0.0
 10
267.8265972052267
 20
297.1668890287084
 30
0.0
 10
269.3080646536401
 20
297.9568829364375
 30
0.0
 10
270.9150017430604
 20
298.4680183841527
 30
0.0
 10
272.0291102350581
 20
298.5364868343732
 30
0.0
 10
272.5862132072216
 20
298.5707240539898
 30
0.0
  0
CIRCLE
  5
B1
330
1F
100
AcDbEntity
  8
0
  6
Continuous
 62
     7
370
    25
100
AcDbCircle
 10
345.0958111253
 20
247.5465424747
 30
0.0
 40
35.00000000000003
  0
CIRCLE
  5
B2
330
1F
100
AcDbEntity
  8
0
  6
Continuous
 62
     7
370
    25
100
AcDbCircle
 10
345.0958111253
 20
247.5465424747
 30
0.0
 40
29.4738253774731
  0
CIRCLE
  5
B3
330
1F
100
AcDbEntity
  8
0
  6
Continuous
 62
     7
370
    25
100
AcDbCircle
 10
345.0958111253
 20
247.5465424747
 30
0.0
 40
28.75
  0
CIRCLE
  5
B4
330
1F
100
AcDbEntity
  8
0
  6
Continuous
 62
     7
370
    25
100
AcDbCircle
 10
345.0958111253
 20
247.5465424747
 30
0.0
 40
28.29357787137383
  0
CIRCLE
  5
B5
330
1F
100
AcDbEntity
  8
0
  6
Continuous
 62
     7
370
    25
100
AcDbCircle
 10
345.0958111253
 20
247.5465424747
 30
0.0
 40
22.50000000000003
  0
ARC
  5
B6
330
1F
100
AcDbEntity
  8
0
  6
Continuous
 62
     7
370
    25
100
AcDbCircle
 10
85.5958111253
 20
290.0465424747
 30
0.0
 40
12.46275127397024
100
AcDbArc
 50
90.0
 51
180.0
  0
LINE
  5
B7
330
1F
100
AcDbEntity
  8
0
  6
Continuous
 62
     7
370
    25
100
AcDbLine
 10
73.1330598513
 20
290.0465424747
 30
0.0
 11
73.1330598513
 21
122.5465424747
 31
0.0
  0
LINE
  5
B8
330
1F
100
AcDbEntity
  8
0
  6
Continuous
 62
     7
370
    25
100
AcDbLine
 10
230.5958111253
 20
302.5092937486
 30
0.0
 11
85.5958111253
 21
302.5092937486
 31
0.0
  0
ARC
  5
B9
330
1F
100
AcDbEntity
  8
0
  6
Continuous
 62
     7
370
    25
100
AcDbCircle
 10
85.5958111253
 20
122.5465424747
 30
0.0
 40
12.46275127397024
100
AcDbArc
 50
180.0
 51
270.0
  0
ARC
  5
BA
330
1F
100
AcDbEntity
  8
0
  6
Continuous
 62
     7
370
    25
100
AcDbCircle
 10
230.5958111253
 20
290.0465424747
 30
0.0
 40
12.46275127397024
100
AcDbArc
 50
0.0
 51
90.0
  0
LINE
  5
BB
330
1F
100
AcDbEntity
  8
0
  6
Continuous
 62
     7
370
    25
100
AcDbLine
 10
243.0585623993
 20
122.5465424747
 30
0.0
 11
243.0585623993
 21
290.0465424747
 31
0.0
  0
LINE
  5
BC
330
1F
100
AcDbEntity
  8
0
  6
Continuous
 62
     7
370
    25
100
AcDbLine
 10
85.5958111253
 20
110.0837912007
 30
0.0
 11
230.5958111253
 21
110.0837912007
 31
0.0
  0
ARC
  5
BD
330
1F
100
AcDbEntity
  8
0
  6
Continuous
 62
     7
370
    25
100
AcDbCircle
 10
230.5958111253
 20
122.5465424747
 30
0.0
 40
12.46275127397023
100
AcDbArc
 50
270.0
 51
0.0
  0
LINE
  5
BE
330
1F
100
AcDbEntity
  8
0
  6
Continuous
 62
     7
370
    25
100
AcDbLine
 10
85.5978992599
 20
113.7760132506
 30
0.0
 11
85.5958111253
 21
113.769569479
 31
0.0
  0
SPLINE
  5
BF
330
1F
100
AcDbEntity
  8
0
  6
Continuous
 62
     7
370
    25
100
AcDbSpline
210
0.0
220
0.0
230
1.0
 70
     8
 71
     3
 72
    13
 73
     9
 74
     0
 42
0.00000001
 43
0.00000001
 40
0.0
 40
0.0
 40
0.0
 40
0.0
 40
0.1664861396825426
 40
0.3329812993316086
 40
0.4994660550566635
 40
0.6663067480585367
 40
0.8331579135514221
 40
1.0
 40
1.0
 40
1.0
 40
1.0
 10
230.5937229874887
 20
113.7760132505876
 30
0.0
 10
222.5511481262642
 20
113.7935543299541
 30
0.0
 10
206.4655626693082
 20
113.8286374390364
 30
0.0
 10
182.321831801753
 20
113.85731942024
 30
0.0
 10
158.1560546816529
 20
113.8678398315296
 30
0.0
 10
133.9730443594155
 20
113.8574171015715
 30
0.0
 10
109.777658724958
 20
113.8287382468332
 30
0.0
 10
93.65767288539558
 20
113.7935879305438
 30
0.0
 10
85.59789925992855
 20
113.77601325058
 30
0.0
  0
LINE
  5
C0
330
1F
100
AcDbEntity
  8
0
  6
Continuous
 62
     7
370
    25
100
AcDbLine
 10
230.5958111253
 20
113.769569479
 30
0.0
 11
230.5937229875
 21
113.7760132506
 31
0.0
  0
LINE
  5
C1
330
1F
100
AcDbEntity
  8
0
  6
Continuous
 62
     7
370
    25
100
AcDbLine
 10
230.5958111253
 20
110.0837912007
 30
0.0
 11
230.5958111253
 21
113.769569479
 31
0.0
  0
LINE
  5
C2
330
1F
100
AcDbEntity
  8
0
  6
Continuous
 62
     7
370
    25
100
AcDbLine
 10
85.5958111253
 20
110.0837912007
 30
0.0
 11
85.5958111253
 21
113.769569479
 31
0.0
  0
LINE
  5
C3
330
1F
100
AcDbEntity
  8
0
  6
Continuous
 62
     7
370
    25
100
AcDbLine
 10
145.9708111253
 20
301.6849486443
 30
0.0
 11
145.9708111253
 21
301.1092531257
 31
0.0
  0
ARC
  5
C4
330
1F
100
AcDbEntity
  8
0
  6
Continuous
 62
     7
370
    25
100
AcDbCircle
 10
146.3461535068
 20
303.4911264573
 30
0.0
 40
2.411265740503782
100
AcDbArc
 50
261.0448095014
 51
272.9633983002
  0
LINE
  5
C5
330
1F
100
AcDbEntity
  8
0
  6
Continuous
 62
     7
370
    25
100
AcDbLine
 10
146.4708111253
 20
301.0830851475
 30
0.0
 11
169.7208111253
 21
301.0830851475
 31
0.0
  0
ARC
  5
C6
330
1F
100
AcDbEntity
  8
0
  6
Continuous
 62
     7
370
    25
100
AcDbCircle
 10
169.8454687438
 20
303.4911264573
 30
0.0
 40
2.411265740499932
100
AcDbArc
 50
267.0366016998
 51
278.9551904986
  0
LINE
  5
C7
330
1F
100
AcDbEntity
  8
0
  6
Continuous
 62
     7
370
    25
100
AcDbLine
 10
170.2208111253
 20
301.1092531257
 30
0.0
 11
170.2208111253
 21
301.6849486443
 31
0.0
  0
ARC
  5
C8
330
1F
100
AcDbEntity
  8
0
  6
Continuous
 62
     7
370
    25
100
AcDbCircle
 10
169.8454687438
 20
299.3030753127
 30
0.0
 40
2.411265740508383
100
AcDbArc
 50
81.0448095014
 51
92.9633983002
  0
LINE
  5
C9
330
1F
100
AcDbEntity
  8
0
  6
Continuous
 62
     7
370
    25
100
AcDbLine
 10
169.7208111253
 20
301.7111166225
 30
0.0
 11
146.4708111253
 21
301.7111166225
 31
0.0
  0
ARC
  5
CA
330
1F
100
AcDbEntity
  8
0
  6
Continuous
 62
     7
370
    25
100
AcDbCircle
 10
146.3461535068
 20
299.3030753127
 30
0.0
 40
2.411265740503854
100
AcDbArc
 50
87.0366016998
 51
98.9551904986
  0
SPLINE
  5
CB
330
1F
100
AcDbEntity
  8
0
  6
Continuous
 62
     7
370
    25
100
AcDbSpline
210
0.0
220
0.0
230
1.0
 70
     8
 71
     3
 72
    14
 73
    10
 74
     0
 42
0.00000001
 43
0.00000001
 40
0.0
 40
0.0
 40
0.0
 40
0.0
 40
0.1416418592737026
 40
0.2832827544648179
 40
0.4250451509087887
 40
0.5668053210537427
 40
0.6750778940077848
 40
0.7833514471234173
 40
1.0
 40
1.0
 40
1.0
 40
1.0
 10
85.59581112530529
 20
298.5877662583761
 30
0.0
 10
92.43724946692409
 20
298.5702280480505
 30
0.0
 10
106.1200795840434
 20
298.5351517467728
 30
0.0
 10
126.6638005423679
 20
298.4990132345164
 30
0.0
 10
147.2208467067474
 20
298.4779401555808
 30
0.0
 10
166.1687870513207
 20
298.4769878173238
 30
0.0
 10
183.4938778338036
 20
298.4921446467108
 30
0.0
 10
204.4349700171283
 20
298.5227615019517
 30
0.0
 10
220.1304945958628
 20
298.5617619204771
 30
0.0
 10
230.5958111253054
 20
298.5877662583761
 30
0.0
  0
LINE
  5
CC
330
1F
100
AcDbEntity
  8
0
  6
Continuous
 62
     7
370
    25
100
AcDbLine
 10
85.5958111253
 20
302.5092937486
 30
0.0
 11
85.5958111253
 21
298.5877662584
 31
0.0
  0
LINE
  5
CD
330
1F
100
AcDbEntity
  8
0
  6
Continuous
 62
     7
370
    25
100
AcDbLine
 10
230.5958111253
 20
302.5092937486
 30
0.0
 11
230.5958111253
 21
298.5877662584
 31
0.0
  0
SPLINE
  5
CE
330
1F
100
AcDbEntity
  8
0
  6
Continuous
 62
     7
370
    25
100
AcDbSpline
210
0.0
220
0.0
230
1.0
 70
     8
 71
     3
 72
    15
 73
    11
 74
     0
 42
0.00000001
 43
0.00000001
 40
0.0
 40
0.0
 40
0.0
 40
0.0
 40
0.1277272117027006
 40
0.2500006214663431
 40
0.3758169053141816
 40
0.5000000007414285
 40
0.624181269247472
 40
0.7499993797239369
 40
0.8722717995237447
 40
1.0
 40
1.0
 40
1.0
 40
1.0
 10
230.5958111253054
 20
298.5877662583761
 30
0.0
 10
231.166165934041
 20
298.5532918781578
 30
0.0
 10
232.2825220709941
 20
298.4858151332701
 30
0.0
 10
233.8948090324819
 20
297.9716913717169
 30
0.0
 10
235.3685845545787
 20
297.1861584055123
 30
0.0
 10
236.6665267729098
 20
296.1172696185478
 30
0.0
 10
237.7354223393049
 20
294.8193229350427
 30
0.0
 10
238.5209554807167
 20
293.3455520841212
 30
0.0
 10
239.0350828250398
 20
291.7332578931424
 30
0.0
 10
239.1025600278233
 20
290.6169017199197
 30
0.0
 10
239.1370349090264
 20
290.0465424746551
 30
0.0
  0
LINE
  5
CF
330
1F
100
AcDbEntity
  8
0
  6
Continuous
 62
     7
370
    25
100
AcDbLine
 10
243.0585623993
 20
290.0465424747
 30
0.0
 11
239.137034909
 21
290.0465424747
 31
0.0
  0
SPLINE
  5
D0
330
1F
100
AcDbEntity
  8
0
  6
Continuous
 62
     7
370
    25
100
AcDbSpline
210
0.0
220
0.0
230
1.0
 70
     8
 71
     3
 72
    15
 73
    11
 74
     0
 42
0.00000001
 43
0.00000001
 40
0.0
 40
0.0
 40
0.0
 40
0.0
 40
0.1277272255748725
 40
0.2500006214609047
 40
0.3758169311157493
 40
0.5000000007328542
 40
0.6241812950806378
 40
0.7499993797184944
 40
0.8722718134307311
 40
1.0
 40
1.0
 40
1.0
 40
1.0
 10
239.3727841210078
 20
122.5465424746551
 30
0.0
 10
239.3373581945156
 20
121.9604450456088
 30
0.0
 10
239.2680189945209
 20
120.8132759840501
 30
0.0
 10
238.7397046768755
 20
119.1564876387244
 30
0.0
 10
237.9324899462677
 20
117.6420340064204
 30
0.0
 10
236.8340982991453
 20
116.3082667801719
 30
0.0
 10
235.5003266141744
 20
115.2098683635136
 30
0.0
 10
233.9858776470424
 20
114.4026534584518
 30
0.0
 10
232.3290820829302
 20
113.8743355630939
 30
0.0
 10
231.1819129852519
 20
113.8049959057929
 30
0.0
 10
230.5958111253054
 20
113.7695694789528
 30
0.0
  0
LINE
  5
D1
330
1F
100
AcDbEntity
  8
0
  6
Continuous
 62
     7
370
    25
100
AcDbLine
 10
243.0585623993
 20
122.5465424747
 30
0.0
 11
239.372784121
 21
122.5465424747
 31
0.0
  0
SPLINE
  5
D2
330
1F
100
AcDbEntity
  8
0
  6
Continuous
 62
     7
370
    25
100
AcDbSpline
210
0.0
220
0.0
230
1.0
 70
     8
 71
     3
 72
    15
 73
    11
 74
     0
 42
0.00000001
 43
0.00000001
 40
0.0
 40
0.0
 40
0.0
 40
0.0
 40
0.1277272124220016
 40
0.2500006214662485
 40
0.3758169059605618
 40
0.500000000741416
 40
0.6241812686443764
 40
0.7499993797240042
 40
0.8722717988525033
 40
1.0
 40
1.0
 40
1.0
 40
1.0
 10
77.05458734158441
 20
290.046542474655
 30
0.0
 10
77.0890617221652
 20
290.6168972866169
 30
0.0
 10
77.1565384673821
 20
291.7332534235974
 30
0.0
 10
77.67066223063802
 20
293.3455403874303
 30
0.0
 10
78.45619519610392
 20
294.8193159064278
 30
0.0
 10
79.5250839819428
 20
296.1172581220019
 30
0.0
 10
80.82303066258586
 20
297.1861536871105
 30
0.0
 10
82.29680151061508
 20
297.9716868278318
 30
0.0
 10
83.9090957037818
 20
298.485814173744
 30
0.0
 10
85.0254518770302
 20
298.5532913768348
 30
0.0
 10
85.59581112530529
 20
298.5877662583761
 30
0.0
  0
LINE
  5
D3
330
1F
100
AcDbEntity
  8
0
  6
Continuous
 62
     7
370
    25
100
AcDbLine
 10
73.1330598513
 20
290.0465424747
 30
0.0
 11
77.0545873416
 21
290.0465424747
 31
0.0
  0
LINE
  5
D4
330
1F
100
AcDbEntity
  8
0
  6
Continuous
 62
     7
370
    25
100
AcDbLine
 10
77.0590593389
 20
290.0455934747
 30
0.0
 11
77.0545873416
 21
290.0465424747
 31
0.0
  0
SPLINE
  5
D5
330
1F
100
AcDbEntity
  8
0
  6
Continuous
 62
     7
370
    25
100
AcDbSpline
210
0.0
220
0.0
230
1.0
 70
     8
 71
     3
 72
    14
 73
    10
 74
     0
 42
0.00000001
 43
0.00000001
 40
0.0
 40
0.0
 40
0.0
 40
0.0
 40
0.1421653558241425
 40
0.2843364374989546
 40
0.426500124123032
 40
0.5689494416617653
 40
0.7114078093302308
 40
0.8538541196898948
 40
1.0
 40
1.0
 40
1.0
 40
1.0
 10
76.818838129603
 20
122.5465424746551
 30
0.0
 10
76.85002521145847
 20
130.4687819408713
 30
0.0
 10
76.91240063126011
 20
146.3135799493535
 30
0.0
 10
76.98535861915484
 20
170.1075999842292
 30
0.0
 10
77.04223341405472
 20
193.9330868215107
 30
0.0
 10
77.08002869471473
 20
217.7890069866628
 30
0.0
 10
77.09663877216313
 20
241.6692804705668
 30
0.0
 10
77.09233812615892
 20
265.7591478889044
 30
0.0
 10
77.07024666750978
 20
281.8812200124327
 30
0.0
 10
77.05905933889873
 20
290.0455934746798
 30
0.0
  0
LINE
  5
D6
330
1F
100
AcDbEntity
  8
0
  6
Continuous
 62
     7
370
    25
100
AcDbLine
 10
73.1330598513
 20
122.5465424747
 30
0.0
 11
76.8188381296
 21
122.5465424747
 31
0.0
  0
SPLINE
  5
D7
330
1F
100
AcDbEntity
  8
0
  6
Continuous
 62
     7
370
    25
100
AcDbSpline
210
0.0
220
0.0
230
1.0
 70
     8
 71
     3
 72
    15
 73
    11
 74
     0
 42
0.00000001
 43
0.00000001
 40
0.0
 40
0.0
 40
0.0
 40
0.0
 40
0.1277272255720583
 40
0.2500006214609079
 40
0.3758169317197229
 40
0.5000000007328164
 40
0.6241812956716677
 40
0.749999379718506
 40
0.8722718134135469
 40
1.0
 40
1.0
 40
1.0
 40
1.0
 10
85.5958111253054
 20
113.7695694789527
 30
0.0
 10
85.00971369627136
 20
113.8049954054452
 30
0.0
 10
83.86254463471141
 20
113.8743346054417
 30
0.0
 10
82.20575628673124
 20
114.4026489239094
 30
0.0
 10
80.69130265468769
 20
115.2098636553047
 30
0.0
 10
79.35753542695917
 20
116.3082553046864
 30
0.0
 10
78.25913701258614
 20
117.6420269881178
 30
0.0
 10
77.45192210832697
 20
119.1564759554467
 30
0.0
 10
76.92360421375629
 20
120.8132715169524
 30
0.0
 10
76.85426455645039
 20
121.9604406146301
 30
0.0
 10
76.818838129603
 20
122.5465424746551
 30
0.0
  0
SPLINE
  5
D8
330
1F
100
AcDbEntity
  8
0
  6
Continuous
 62
     7
370
    25
100
AcDbSpline
210
0.0
220
0.0
230
1.0
 70
     8
 71
     3
 72
    15
 73
    11
 74
     0
 42
0.00000001
 43
0.00000001
 40
0.0
 40
0.0
 40
0.0
 40
0.0
 40
0.1203969716547338
 40
0.240793319058945
 40
0.3612955072028615
 40
0.4817982483628453
 40
0.6113057324163225
 40
0.7408138661147203
 40
0.8704068237473348
 40
1.0
 40
1.0
 40
1.0
 40
1.0
 10
239.1325629117196
 20
290.0455934793502
 30
0.0
 10
239.1231013589992
 20
283.3198463669601
 30
0.0
 10
239.104178302616
 20
269.8683870147443
 30
0.0
 10
239.0949961974873
 20
249.6779801304749
 30
0.0
 10
239.1013425187343
 20
229.4817303914743
 30
0.0
 10
239.1242172843347
 20
208.7805024081723
 30
0.0
 10
239.1632583608655
 20
187.5845176362315
 30
0.0
 10
239.2186841903603
 20
165.893516654879
 30
0.0
 10
239.2871950881161
 20
144.2110606599924
 30
0.0
 10
239.3442544273343
 20
129.7680525972625
 30
0.0
 10
239.3727841210078
 20
122.5465424746551
 30
0.0
  0
LINE
  5
D9
330
1F
100
AcDbEntity
  8
0
  6
Continuous
 62
     7
370
    25
100
AcDbLine
 10
239.137034909
 20
290.0465424747
 30
0.0
 11
239.1325629117
 21
290.0455934794
 31
0.0
  0
LINE
  5
DA
330
1F
100
AcDbEntity
  8
0
  6
Continuous
 62
     7
370
    25
100
AcDbLine
 10
169.7208111253
 20
301.0830851475
 30
0.0
 11
169.7208111253
 21
301.4825369615
 31
0.0
  0
ARC
  5
DB
330
1F
100
AcDbEntity
  8
0
  6
Continuous
 62
     7
370
    25
100
AcDbCircle
 10
169.8454687438
 20
303.8905782712
 30
0.0
 40
2.411265740499933
100
AcDbArc
 50
267.0366016998
 51
278.9551904986
  0
LINE
  5
DC
330
1F
100
AcDbEntity
  8
0
  6
Continuous
 62
     7
370
    25
100
AcDbLine
 10
146.4708111253
 20
301.0830851475
 30
0.0
 11
146.4708111253
 21
301.4825369615
 31
0.0
  0
ARC
  5
DD
330
1F
100
AcDbEntity
  8
0
  6
Continuous
 62
     7
370
    25
100
AcDbCircle
 10
146.3461535068
 20
303.8905782712
 30
0.0
 40
2.411265740503782
100
AcDbArc
 50
261.0448095014
 51
272.9633983002
  0
LINE
  5
DE
330
1F
100
AcDbEntity
  8
0
  6
Continuous
 62
     7
370
    25
100
AcDbLine
 10
146.4708111253
 20
301.4825369615
 30
0.0
 11
169.7208111253
 21
301.4825369615
 31
0.0
  0
LINE
  5
DF
330
1F
100
AcDbEntity
  8
0
  6
Continuous
 62
     7
370
    25
100
AcDbLine
 10
76.8188381296
 20
122.5465424747
 30
0.0
 11
76.8472476556
 21
122.5237902311
 31
0.0
  0
SPLINE
  5
E0
330
1F
100
AcDbEntity
  8
0
  6
Continuous
 62
     7
370
    25
100
AcDbSpline
210
0.0
220
0.0
230
1.0
 70
     8
 71
     3
 72
    20
 73
    16
 74
     0
 42
0.00000001
 43
0.00000001
 40
0.0
 40
0.0
 40
0.0
 40
0.0
 40
0.1238994817808226
 40
0.2498468348127874
 40
0.3327161568940996
 40
0.4158493426865206
 40
0.5003138827337013
 40
0.5610643330988697
 40
0.6244975982562703
 40
0.6852560657042478
 40
0.7501883124678863
 40
0.8087829264722679
 40
0.874487743355592
 40
0.9261458689734473
 40
1.0
 40
1.0
 40
1.0
 40
1.0
 10
77.05905933889873
 20
290.0455934746798
 30
0.0
 10
77.1420516496206
 20
290.0425192050266
 30
0.0
 10
77.30940800857891
 20
290.0363198526871
 30
0.0
 10
78.02071235430833
 20
289.8638888648051
 30
0.0
 10
78.87319414633512
 20
289.6311127663325
 30
0.0
 10
79.7675019311627
 20
289.3727107242959
 30
0.0
 10
80.71202183253823
 20
289.0890725458173
 30
0.0
 10
81.66422454474926
 20
288.7957804398097
 30
0.0
 10
82.56846683329746
 20
288.512550768951
 30
0.0
 10
83.54618005871627
 20
288.2016161520164
 30
0.0
 10
84.54372949316272
 20
287.8808750867781
 30
0.0
 10
85.6043884142069
 20
287.5362087385006
 30
0.0
 10
86.61843948131647
 20
287.2047350463701
 30
0.0
 10
87.73949459652422
 20
286.8356281634918
 30
0.0
 10
88.48655171834247
 20
286.5891071374464
 30
0.0
 10
88.9261363137768
 20
286.4440488248551
 30
0.0
  0
SPLINE
  5
E1
330
1F
100
AcDbEntity
  8
0
  6
Continuous
 62
     7
370
    25
100
AcDbSpline
210
0.0
220
0.0
230
1.0
 70
     8
 71
     3
 72
    14
 73
    10
 74
     0
 42
0.00000001
 43
0.00000001
 40
0.0
 40
0.0
 40
0.0
 40
0.0
 40
0.1285392505246247
 40
0.2736230611079027
 40
0.4187183190146121
 40
0.5638047450221955
 40
0.7092001461728286
 40
0.8546029035485716
 40
1.0
 40
1.0
 40
1.0
 40
1.0
 10
88.92613631377682
 20
286.4440488248552
 30
0.0
 10
88.9268029497742
 20
279.5363001195297
 30
0.0
 10
88.92822202590467
 20
264.8316916952473
 30
0.0
 10
88.92882424614169
 20
242.3220027647157
 30
0.0
 10
88.93044638607991
 20
218.9252851575634
 30
0.0
 10
88.92297941495065
 20
195.5196065361976
 30
0.0
 10
88.89602515745126
 20
172.1107737428297
 30
0.0
 10
88.84897887824361
 20
148.6999214215003
 30
0.0
 10
88.80054352519656
 20
133.1095106315259
 30
0.0
 10
88.7763263201122
 20
125.314456983753
 30
0.0
  0
SPLINE
  5
E2
330
1F
100
AcDbEntity
  8
0
  6
Continuous
 62
     7
370
    25
100
AcDbSpline
210
0.0
220
0.0
230
1.0
 70
     8
 71
     3
 72
    17
 73
    13
 74
     0
 42
0.00000001
 43
0.00000001
 40
0.0
 40
0.0
 40
0.0
 40
0.0
 40
0.1266199350159332
 40
0.2500906723957796
 40
0.3749952093690982
 40
0.5003472215493808
 40
0.6244895802648521
 40
0.7500856353975306
 40
0.8087095798011517
 40
0.8744284842896031
 40
0.9260769690972782
 40
1.0
 40
1.0
 40
1.0
 40
1.0
 10
76.84724765564587
 20
122.5237902311433
 30
0.0
 10
76.9558992296932
 20
122.4941746221857
 30
0.0
 10
77.17050007597334
 20
122.4356799818539
 30
0.0
 10
78.01625385199377
 20
122.5208391688875
 30
0.0
 10
79.1965474243316
 20
122.7274826648779
 30
0.0
 10
80.70888898469197
 20
123.0611710287232
 30
0.0
 10
82.48437860606828
 20
123.5046000669512
 30
0.0
 10
84.1118576195577
 20
123.9459731073888
 30
0.0
 10
85.49699999749022
 20
124.3389584881899
 30
0.0
 10
86.49885657329034
 20
124.6301313374489
 30
0.0
 10
87.60566781122905
 20
124.958835709493
 30
0.0
 10
88.34253689279254
 20
125.1826809382792
 30
0.0
 10
88.77632632011223
 20
125.3144569837571
 30
0.0
  0
SPLINE
  5
E3
330
1F
100
AcDbEntity
  8
0
  6
Continuous
 62
     7
370
    25
100
AcDbSpline
210
0.0
220
0.0
230
1.0
 70
     8
 71
     3
 72
    20
 73
    16
 74
     0
 42
0.00000001
 43
0.00000001
 40
0.0
 40
0.0
 40
0.0
 40
0.0
 40
0.1265688428652104
 40
0.2499873607253519
 40
0.3327598806448896
 40
0.4158800365020201
 40
0.500330853827145
 40
0.5611043053137739
 40
0.6245378460982852
 40
0.6852967388849963
 40
0.7501963666869375
 40
0.808793912891763
 40
0.8744838204705032
 40
0.9261733936587782
 40
1.0
 40
1.0
 40
1.0
 40
1.0
 10
85.59789925992872
 20
113.77601325058
 30
0.0
 10
85.59373244308408
 20
113.8589574932685
 30
0.0
 10
85.58550252233866
 20
114.0227814790744
 30
0.0
 10
85.72501043331204
 20
114.7112633896975
 30
0.0
 10
85.91921953312432
 20
115.5254556337679
 30
0.0
 10
86.14169677604703
 20
116.3879817406565
 30
0.0
 10
86.38957907965317
 20
117.3010297424015
 30
0.0
 10
86.64848511356158
 20
118.2233909223513
 30
0.0
 10
86.9002928293619
 20
119.1009273812354
 30
0.0
 10
87.17838014701468
 20
120.0512926306232
 30
0.0
 10
87.46687933019315
 20
121.0228573030549
 30
0.0
 10
87.7784964037125
 20
122.0578970234769
 30
0.0
 10
88.0798140823083
 20
123.0498723098154
 30
0.0
 10
88.4167011342251
 20
124.1484061474737
 30
0.0
 10
88.64313912242713
 20
124.8826100238151
 30
0.0
 10
88.77632632011237
 20
125.314456983753
 30
0.0
  0
SPLINE
  5
E4
330
1F
100
AcDbEntity
  8
0
  6
Continuous
 62
     7
370
    25
100
AcDbSpline
210
0.0
220
0.0
230
1.0
 70
     8
 71
     3
 72
    13
 73
     9
 74
     0
 42
0.00000001
 43
0.00000001
 40
0.0
 40
0.0
 40
0.0
 40
0.0
 40
0.1532153516038963
 40
0.3335117285126596
 40
0.5138077669700615
 40
0.6942879125043367
 40
0.8747684420969071
 40
1.0
 40
1.0
 40
1.0
 40
1.0
 10
88.77632632011223
 20
125.314456983753
 30
0.0
 10
95.85356388700852
 20
125.3246011649024
 30
0.0
 10
111.2589505491261
 20
125.3466825252494
 30
0.0
 10
135.0065949718539
 20
125.3629737906274
 30
0.0
 10
160.0193321320516
 20
125.3680683620105
 30
0.0
 10
185.0400967119173
 20
125.3611221963319
 30
0.0
 10
207.5099979280616
 20
125.3436092257562
 30
0.0
 10
221.630847068133
 20
125.3229285802632
 30
0.0
 10
227.4152959304986
 20
125.314456983753
 30
0.0
  0
SPLINE
  5
E5
330
1F
100
AcDbEntity
  8
0
  6
Continuous
 62
     7
370
    25
100
AcDbSpline
210
0.0
220
0.0
230
1.0
 70
     8
 71
     3
 72
    17
 73
    13
 74
     0
 42
0.00000001
 43
0.00000001
 40
0.0
 40
0.0
 40
0.0
 40
0.0
 40
0.1266242002821653
 40
0.2500966973960828
 40
0.3750011391746839
 40
0.5003518892706039
 40
0.6244925771319284
 40
0.7500871058679406
 40
0.808709113510102
 40
0.8744289188915414
 40
0.9261485744346062
 40
1.0
 40
1.0
 40
1.0
 40
1.0
 10
230.5937229874887
 20
113.7760132505876
 30
0.0
 10
230.5978555910923
 20
113.8590738800327
 30
0.0
 10
230.6060179369205
 20
114.0231277422612
 30
0.0
 10
230.4493682791408
 20
114.7969701629953
 30
0.0
 10
230.1774786258447
 20
115.9115800460846
 30
0.0
 10
229.7866515079435
 20
117.3663499872517
 30
0.0
 10
229.2958050139739
 20
119.0940246516419
 30
0.0
 10
228.8245239845604
 20
120.6912997530513
 30
0.0
 10
228.4131492410177
 20
122.0578472326439
 30
0.0
 10
228.1117926603296
 20
123.0499167548031
 30
0.0
 10
227.774910052319
 20
124.1484468572526
 30
0.0
 10
227.5484705455049
 20
124.8826526127118
 30
0.0
 10
227.4152959304986
 20
125.314456983753
 30
0.0
  0
SPLINE
  5
E6
330
1F
100
AcDbEntity
  8
0
  6
Continuous
 62
     7
370
    25
100
AcDbSpline
210
0.0
220
0.0
230
1.0
 70
     8
 71
     3
 72
    19
 73
    15
 74
     0
 42
0.00000001
 43
0.00000001
 40
0.0
 40
0.0
 40
0.0
 40
0.0
 40
0.0609285033155397
 40
0.1075851967377192
 40
0.1526973776839468
 40
0.203564550732738
 40
0.2498915470303136
 40
0.3355022901934819
 40
0.4181341588157978
 40
0.4997559269722091
 40
0.6250820973863699
 40
0.749960884671103
 40
0.873406167974859
 40
1.0
 40
1.0
 40
1.0
 40
1.0
 10
227.4152959304986
 20
125.314456983753
 30
0.0
 10
227.7729193980541
 20
125.2057015340794
 30
0.0
 10
228.4043970976741
 20
125.0136653636054
 30
0.0
 10
229.2912390670704
 20
124.7491124948294
 30
0.0
 10
230.1101313084357
 20
124.508428296409
 30
0.0
 10
230.9138331633193
 20
124.2766109562718
 30
0.0
 10
231.923861779222
 20
123.9908249010447
 30
0.0
 10
233.0681193610189
 20
123.6773621010542
 30
0.0
 10
234.3185948277391
 20
123.3510901978654
 30
0.0
 10
235.6540227009206
 20
123.0233976752608
 30
0.0
 10
236.9951999334407
 20
122.727448680295
 30
0.0
 10
238.1753355436084
 20
122.5208481362673
 30
0.0
 10
239.0211305927006
 20
122.4356777124951
 30
0.0
 10
239.2357258503009
 20
122.4941738615013
 30
0.0
 10
239.3443745949517
 20
122.5237902343301
 30
0.0
  0
SPLINE
  5
E7
330
1F
100
AcDbEntity
  8
0
  6
Continuous
 62
     7
370
    25
100
AcDbSpline
210
0.0
220
0.0
230
1.0
 70
     8
 71
     3
 72
    15
 73
    11
 74
     0
 42
0.00000001
 43
0.00000001
 40
0.0
 40
0.0
 40
0.0
 40
0.0
 40
0.1297941873541713
 40
0.2595881683953805
 40
0.3894568310387371
 40
0.5193249251085723
 40
0.6394460709200769
 40
0.7595667430326071
 40
0.8797831318606987
 40
1.0
 40
1.0
 40
1.0
 40
1.0
 10
227.4152959304986
 20
125.314456983753
 30
0.0
 10
227.393431196985
 20
132.2728384609582
 30
0.0
 10
227.3497017647125
 20
146.1895903547482
 30
0.0
 10
227.3043304861716
 20
167.0892328248134
 30
0.0
 10
227.2756155048231
 20
188.004970201631
 30
0.0
 10
227.2637046273108
 20
208.4125805656526
 30
0.0
 10
227.2630931043974
 20
228.3039691966713
 30
0.0
 10
227.2652002613826
 20
247.6805068869432
 30
0.0
 10
227.2626365496706
 20
267.0626657410603
 30
0.0
 10
227.2645361398505
 20
279.983579210842
 30
0.0
 10
227.265485936834
 20
286.4440488248551
 30
0.0
  0
SPLINE
  5
E8
330
1F
100
AcDbEntity
  8
0
  6
Continuous
 62
     7
370
    25
100
AcDbSpline
210
0.0
220
0.0
230
1.0
 70
     8
 71
     3
 72
    19
 73
    15
 74
     0
 42
0.00000001
 43
0.00000001
 40
0.0
 40
0.0
 40
0.0
 40
0.0
 40
0.0608916764531288
 40
0.1075592781701929
 40
0.152703816905354
 40
0.2035793155923094
 40
0.2499014344020641
 40
0.3355488354049002
 40
0.4181785294456966
 40
0.4997722410757717
 40
0.6250900273305251
 40
0.7500927226125499
 40
0.8760709826323865
 40
1.0
 40
1.0
 40
1.0
 40
1.0
 10
227.265485936834
 20
286.4440488248551
 30
0.0
 10
227.6278564268542
 20
286.5636527769889
 30
0.0
 10
228.2679489749178
 20
286.7749216318991
 30
0.0
 10
229.1663743957109
 20
287.0708575999148
 30
0.0
 10
229.9957171041104
 20
287.3429633031807
 30
0.0
 10
230.8089359938085
 20
287.6083186461834
 30
0.0
 10
231.8299118234813
 20
287.939744496651
 30
0.0
 10
232.9847343560422
 20
288.3104990674067
 30
0.0
 10
234.2432003868619
 20
288.7078298464087
 30
0.0
 10
235.5819588069275
 20
289.1214211534493
 30
0.0
 10
236.9178034747658
 20
289.5193861031673
 30
0.0
 10
238.0823145744035
 20
289.8424886583238
 30
0.0
 10
238.8818669285404
 20
290.036215862558
 30
0.0
 10
239.0494556605262
 20
290.0424847420483
 30
0.0
 10
239.1325629117196
 20
290.0455934793501
 30
0.0
  0
LINE
  5
E9
330
1F
100
AcDbEntity
  8
0
  6
Continuous
 62
     7
370
    25
100
AcDbLine
 10
239.344374595
 20
122.5237902343
 30
0.0
 11
239.372784121
 21
122.5465424747
 31
0.0
  0
SPLINE
  5
EA
330
1F
100
AcDbEntity
  8
0
  6
Continuous
 62
     7
370
    25
100
AcDbSpline
210
0.0
220
0.0
230
1.0
 70
     8
 71
     3
 72
    15
 73
    11
 74
     0
 42
0.00000001
 43
0.00000001
 40
0.0
 40
0.0
 40
0.0
 40
0.0
 40
0.1250485637390568
 40
0.2500560404331583
 40
0.375035228204167
 40
0.5000000004149718
 40
0.6249647726227939
 40
0.7499439603618202
 40
0.8749514375442666
 40
1.0
 40
1.0
 40
1.0
 40
1.0
 10
85.59789925992852
 20
113.7760132505801
 30
0.0
 10
85.02744121054772
 20
113.8108518098441
 30
0.0
 10
83.88671254645003
 20
113.880517481512
 30
0.0
 10
82.24085346712687
 20
114.4042149351551
 30
0.0
 10
80.72296272850218
 20
115.2140878489782
 30
0.0
 10
79.3914070035904
 20
116.3097915073672
 30
0.0
 10
78.29473090533173
 20
117.6415219915057
 30
0.0
 10
77.48275139999586
 20
119.1607539538173
 30
0.0
 10
76.95596420200485
 20
120.8089890557069
 30
0.0
 10
76.8834904736797
 20
121.9521272318393
 30
0.0
 10
76.84724765564584
 20
122.5237902311433
 30
0.0
  0
SPLINE
  5
EB
330
1F
100
AcDbEntity
  8
0
  6
Continuous
 62
     7
370
    25
100
AcDbSpline
210
0.0
220
0.0
230
1.0
 70
     8
 71
     3
 72
    15
 73
    11
 74
     0
 42
0.00000001
 43
0.00000001
 40
0.0
 40
0.0
 40
0.0
 40
0.0
 40
0.1250485647648274
 40
0.2500560396443413
 40
0.3750352273637332
 40
0.4999999995579346
 40
0.6249647717823636
 40
0.7499439595730085
 40
0.8749514385700565
 40
0.9999999999999999
 40
0.9999999999999999
 40
0.9999999999999999
 40
0.9999999999999999
 10
230.59372298749
 20
113.7760132505877
 30
0.0
 10
231.1641810417842
 20
113.8108518103739
 30
0.0
 10
232.3049097027512
 20
113.8805174822944
 30
0.0
 10
233.9507687785207
 20
114.4042149350465
 30
0.0
 10
235.4686595111372
 20
115.2140878431399
 30
0.0
 10
236.8002152377856
 20
116.3097915000018
 30
0.0
 10
237.896891338361
 20
117.641521983363
 30
0.0
 10
238.7088708500192
 20
119.1607539527858
 30
0.0
 10
239.2356580492919
 20
120.8089890594324
 30
0.0
 10
239.3081317774254
 20
121.952127239534
 30
0.0
 10
239.3443745949517
 20
122.5237902343301
 30
0.0
  0
LINE
  5
EC
330
1F
100
AcDbEntity
  8
0
  6
Continuous
 62
     7
370
    25
100
AcDbLine
 10
85.5862132072
 20
298.570724054
 30
0.0
 11
85.5958111253
 21
298.5877662584
 31
0.0
  0
LINE
  5
ED
330
1F
100
AcDbEntity
  8
0
  6
Continuous
 62
     7
370
    25
100
AcDbLine
 10
230.6054090481
 20
298.570724054
 30
0.0
 11
230.5958111253
 21
298.5877662584
 31
0.0
  0
SPLINE
  5
EE
330
1F
100
AcDbEntity
  8
0
  6
Continuous
 62
     7
370
    25
100
AcDbSpline
210
0.0
220
0.0
230
1.0
 70
     8
 71
     3
 72
    19
 73
    15
 74
     0
 42
0.00000001
 43
0.00000001
 40
0.0
 40
0.0
 40
0.0
 40
0.0
 40
0.0571951907011247
 40
0.1012386229203415
 40
0.1527044771278955
 40
0.2035799468192264
 40
0.2499049111694469
 40
0.3355521358503253
 40
0.4181835141861061
 40
0.4997809440829024
 40
0.6251008314803022
 40
0.7501036376053272
 40
0.8760744652838689
 40
1.0
 40
1.0
 40
1.0
 40
1.0
 10
227.265485936834
 20
286.4440488248551
 30
0.0
 10
227.3771060259483
 20
286.7850854113723
 30
0.0
 10
227.5746797025748
 20
287.3887388647698
 30
0.0
 10
227.8669578958057
 20
288.2917773746981
 30
0.0
 10
228.1415071505718
 20
289.1483314948617
 30
0.0
 10
228.4122714437165
 20
290.0037697008754
 30
0.0
 10
228.7342976435854
 20
291.0338434404392
 30
0.0
 10
229.0916169889028
 20
292.2017878603796
 30
0.0
 10
229.4699150217021
 20
293.4789962215814
 30
0.0
 10
229.8578708826248
 20
294.8431493454287
 30
0.0
 10
230.2216308705649
 20
296.2130506799837
 30
0.0
 10
230.5005294131654
 20
297.4217568529512
 30
0.0
 10
230.6462602067042
 20
298.2694869751686
 30
0.0
 10
230.6189515979137
 20
298.4708610808612
 30
0.0
 10
230.6054090480572
 20
298.5707240540025
 30
0.0
  0
SPLINE
  5
EF
330
1F
100
AcDbEntity
  8
0
  6
Continuous
 62
     7
370
    25
100
AcDbSpline
210
0.0
220
0.0
230
1.0
 70
     8
 71
     3
 72
    14
 73
    10
 74
     0
 42
0.00000001
 43
0.00000001
 40
0.0
 40
0.0
 40
0.0
 40
0.0
 40
0.214532213421905
 40
0.3218404806755493
 40
0.4291479606400776
 40
0.5717931378587127
 40
0.7144401314222913
 40
0.8572195843739369
 40
1.0
 40
1.0
 40
1.0
 40
1.0
 10
227.265485936834
 20
286.4440488248551
 30
0.0
 10
217.3779848382736
 20
286.4338970802542
 30
0.0
 10
202.5447900677405
 20
286.4186674683
 30
0.0
 10
182.7526238768805
 20
286.4359812590378
 30
0.0
 10
166.2722794965749
 20
286.4568783991028
 30
0.0
 10
148.1585799852591
 20
286.4532177545428
 30
0.0
 10
128.4121353125091
 20
286.4288345501091
 30
0.0
 10
108.6661312709726
 20
286.4218339104611
 30
0.0
 10
95.50614942107535
 20
286.4366438367481
 30
0.0
 10
88.9261363137768
 20
286.4440488248551
 30
0.0
  0
SPLINE
  5
F0
330
1F
100
AcDbEntity
  8
0
  6
Continuous
 62
     7
370
    25
100
AcDbSpline
210
0.0
220
0.0
230
1.0
 70
     8
 71
     3
 72
    19
 73
    15
 74
     0
 42
0.00000001
 43
0.00000001
 40
0.0
 40
0.0
 40
0.0
 40
0.0
 40
0.0572170919384312
 40
0.1012397191517079
 40
0.1527050890721195
 40
0.2035808683506698
 40
0.2499049067935504
 40
0.3355531512428716
 40
0.4181845737194115
 40
0.4997809419083347
 40
0.6251008305048602
 40
0.7501036373913962
 40
0.8760750143916407
 40
1.0
 40
1.0
 40
1.0
 40
1.0
 10
88.9261363137768
 20
286.4440488248551
 30
0.0
 10
88.8144738457599
 20
286.7852161201382
 30
0.0
 10
88.61689867164968
 20
287.3888763200548
 30
0.0
 10
88.3246197976003
 20
288.2919155851675
 30
0.0
 10
88.05011041268065
 20
289.1483469260416
 30
0.0
 10
87.7793479563059
 20
290.0037784410677
 30
0.0
 10
87.45732143676932
 20
291.0338542598867
 30
0.0
 10
87.10000164538236
 20
292.2017990333365
 30
0.0
 10
86.72170465532783
 20
293.4790063754518
 30
0.0
 10
86.33375017912428
 20
294.8431537088563
 30
0.0
 10
85.96999157814372
 20
296.2130506994073
 30
0.0
 10
85.69109219802715
 20
297.4217586155625
 30
0.0
 10
85.54536307484503
 20
298.2694879464445
 30
0.0
 10
85.57267103770447
 20
298.4708616986952
 30
0.0
 10
85.58621320722234
 20
298.5707240539895
 30
0.0
  0
SPLINE
  5
F1
330
1F
100
AcDbEntity
  8
0
  6
Continuous
 62
     7
370
    25
100
AcDbSpline
210
0.0
220
0.0
230
1.0
 70
     8
 71
     3
 72
    15
 73
    11
 74
     0
 42
0.00000001
 43
0.00000001
 40
0.0
 40
0.0
 40
0.0
 40
0.0
 40
0.1250258700962933
 40
0.2500298668122474
 40
0.3750187806357316
 40
0.499999999559928
 40
0.6249812185054348
 40
0.7499701323940438
 40
0.874974132428636
 40
1.0
 40
1.0
 40
1.0
 40
1.0
 10
239.1325629117196
 20
290.0455934793527
 30
0.0
 10
239.0989069624299
 20
290.6019750139217
 30
0.0
 10
239.0316009519868
 20
291.7146407436458
 30
0.0
 10
238.5215793108074
 20
293.319961719765
 30
0.0
 10
237.7321771749589
 20
294.8002985703452
 30
0.0
 10
236.663752172651
 20
296.0984582740107
 30
0.0
 10
235.3650250568287
 20
297.1668890232373
 30
0.0
 10
233.8835576027881
 20
297.9568829364456
 30
0.0
 10
232.2766205101648
 20
298.4680183849451
 30
0.0
 10
231.1625120152907
 20
298.5364868349068
 30
0.0
 10
230.6054090480572
 20
298.5707240540025
 30
0.0
  0
SPLINE
  5
F2
330
1F
100
AcDbEntity
  8
0
  6
Continuous
 62
     7
370
    25
100
AcDbSpline
210
0.0
220
0.0
230
1.0
 70
     8
 71
     3
 72
    15
 73
    11
 74
     0
 42
0.00000001
 43
0.00000001
 40
0.0
 40
0.0
 40
0.0
 40
0.0
 40
0.1250258690640275
 40
0.2500298676061385
 40
0.3750187814816455
 40
0.5000000004225775
 40
0.6249812193513486
 40
0.749970133187943
 40
0.874974131396379
 40
1.0
 40
1.0
 40
1.0
 40
1.0
 10
77.05905933889873
 20
290.0455934746798
 30
0.0
 10
77.09271528770925
 20
290.601975004933
 30
0.0
 10
77.16002129796337
 20
291.7146407387458
 30
0.0
 10
77.6700429404823
 20
293.3199617198194
 30
0.0
 10
78.45944508267414
 20
294.8002985776438
 30
0.0
 10
79.52787008745766
 20
296.098458280785
 30
0.0
 10
80.8265972052275
 20
297.1668890287082
 30
0.0
 10
82.30806465364077
 20
297.9568829364372
 30
0.0
 10
83.91500174306107
 20
298.4680183841525
 30
0.0
 10
85.02911023505868
 20
298.5364868343729
 30
0.0
 10
85.58621320722231
 20
298.5707240539895
 30
0.0
  0
CIRCLE
  5
F3
330
1F
100
AcDbEntity
  8
0
  6
Continuous
 62
     7
370
    25
100
AcDbCircle
 10
158.0958111253
 20
247.5465424747
 30
0.0
 40
35.00000000000003
  0
CIRCLE
  5
F4
330
1F
100
AcDbEntity
  8
0
  6
Continuous
 62
     7
370
    25
100
AcDbCircle
 10
158.0958111253
 20
247.5465424747
 30
0.0
 40
29.4738253774731
  0
CIRCLE
  5
F5
330
1F
100
AcDbEntity
  8
0
  6
Continuous
 62
     7
370
    25
100
AcDbCircle
 10
158.0958111253
 20
247.5465424747
 30
0.0
 40
28.75
  0
CIRCLE
  5
F6
330
1F
100
AcDbEntity
  8
0
  6
Continuous
 62
     7
370
    25
100
AcDbCircle
 10
158.0958111253
 20
247.5465424747
 30
0.0
 40
28.29357787137383
  0
CIRCLE
  5
F7
330
1F
100
AcDbEntity
  8
0
  6
Continuous
 62
     7
370
    25
100
AcDbCircle
 10
158.0958111253
 20
247.5465424747
 30
0.0
 40
22.50000000000003
  0
LINE
  5
F8
330
1F
100
AcDbEntity
  8
0
  6
Continuous
 62
     7
370
    25
100
AcDbLine
 10
64.0958111253
 20
112.5465424747
 30
0.0
 11
64.47887392
 21
112.5465424747
 31
0.0
  0
LINE
  5
F9
330
1F
100
AcDbEntity
  8
0
  6
Continuous
 62
     7
370
    25
100
AcDbLine
 10
64.0958111253
 20
331.5465424747
 30
0.0
 11
64.0958111253
 21
112.5465424747
 31
0.0
  0
LINE
  5
FA
330
1F
100
AcDbEntity
  8
0
  6
Continuous
 62
     7
370
    25
100
AcDbLine
 10
64.0958111253
 20
331.5465424747
 30
0.0
 11
64.47887392
 21
331.5465424747
 31
0.0
  0
LINE
  5
FB
330
1F
100
AcDbEntity
  8
0
  6
Continuous
 62
     7
370
    25
100
AcDbLine
 10
64.47887392
 20
331.5465424747
 30
0.0
 11
64.47887392
 21
112.5465424747
 31
0.0
  0
LINE
  5
FC
330
1F
100
AcDbEntity
  8
0
  6
Continuous
 62
     7
370
    25
100
AcDbLine
 10
540.0958111253
 20
331.5465424747
 30
0.0
 11
539.7127483306
 21
331.5465424747
 31
0.0
  0
LINE
  5
FD
330
1F
100
AcDbEntity
  8
0
  6
Continuous
 62
     7
370
    25
100
AcDbLine
 10
540.0958111253
 20
222.0465424747
 30
0.0
 11
540.0958111253
 21
331.5465424747
 31
0.0
  0
LINE
  5
FE
330
1F
100
AcDbEntity
  8
0
  6
Continuous
 62
     7
370
    25
100
AcDbLine
 10
540.0958111253
 20
222.0465424747
 30
0.0
 11
539.7127483306
 21
222.0465424747
 31
0.0
  0
LINE
  5
FF
330
1F
100
AcDbEntity
  8
0
  6
Continuous
 62
     7
370
    25
100
AcDbLine
 10
539.7127483306
 20
222.0465424747
 30
0.0
 11
539.7127483306
 21
331.5465424747
 31
0.0
  0
ARC
  5
100
330
1F
100
AcDbEntity
  8
0
  6
Continuous
 62
     7
370
    25
100
AcDbCircle
 10
75.5958111253
 20
331.5465424747
 30
0.0
 40
11.50000000000001
100
AcDbArc
 50
90.0
 51
180.0
  0
LINE
  5
101
330
1F
100
AcDbEntity
  8
0
  6
Continuous
 62
     7
370
    25
100
AcDbLine
 10
75.5958111253
 20
343.0465424747
 30
0.0
 11
75.5958111253
 21
342.66347968
 31
0.0
  0
ARC
  5
102
330
1F
100
AcDbEntity
  8
0
  6
Continuous
 62
     7
370
    25
100
AcDbCircle
 10
75.5958111253
 20
331.5465424747
 30
0.0
 40
11.11693720533981
100
AcDbArc
 50
90.0
 51
180.0
  0
LINE
  5
103
330
1F
100
AcDbEntity
  8
0
  6
Continuous
 62
     7
370
    25
100
AcDbLine
 10
528.5958111253
 20
101.0465424747
 30
0.0
 11
528.5958111253
 21
101.4296052693
 31
0.0
  0
LINE
  5
104
330
1F
100
AcDbEntity
  8
0
  6
Continuous
 62
     7
370
    25
100
AcDbLine
 10
75.5958111253
 20
101.0465424747
 30
0.0
 11
528.5958111253
 21
101.0465424747
 31
0.0
  0
LINE
  5
105
330
1F
100
AcDbEntity
  8
0
  6
Continuous
 62
     7
370
    25
100
AcDbLine
 10
75.5958111253
 20
101.0465424747
 30
0.0
 11
75.5958111253
 21
101.4296052693
 31
0.0
  0
LINE
  5
106
330
1F
100
AcDbEntity
  8
0
  6
Continuous
 62
     7
370
    25
100
AcDbLine
 10
75.5958111253
 20
101.4296052693
 30
0.0
 11
528.5958111253
 21
101.4296052693
 31
0.0
  0
LINE
  5
107
330
1F
100
AcDbEntity
  8
0
  6
Continuous
 62
     7
370
    25
100
AcDbLine
 10
528.5958111253
 20
343.0465424747
 30
0.0
 11
528.5958111253
 21
342.66347968
 31
0.0
  0
ARC
  5
108
330
1F
100
AcDbEntity
  8
0
  6
Continuous
 62
     7
370
    25
100
AcDbCircle
 10
528.5958111253
 20
331.5465424747
 30
0.0
 40
11.5
100
AcDbArc
 50
0.0
 51
90.0
  0
ARC
  5
109
330
1F
100
AcDbEntity
  8
0
  6
Continuous
 62
     7
370
    25
100
AcDbCircle
 10
528.5958111253
 20
331.5465424747
 30
0.0
 40
11.11693720533981
100
AcDbArc
 50
0.0
 51
90.0
  0
LINE
  5
10A
330
1F
100
AcDbEntity
  8
0
  6
Continuous
 62
     7
370
    25
100
AcDbLine
 10
540.0958111253
 20
112.5465424747
 30
0.0
 11
539.7127483306
 21
112.5465424747
 31
0.0
  0
ARC
  5
10B
330
1F
100
AcDbEntity
  8
0
  6
Continuous
 62
     7
370
    25
100
AcDbCircle
 10
528.5958111253
 20
112.5465424747
 30
0.0
 40
11.50000000000007
100
AcDbArc
 50
270.0
 51
0.0
  0
ARC
  5
10C
330
1F
100
AcDbEntity
  8
0
  6
Continuous
 62
     7
370
    25
100
AcDbCircle
 10
528.5958111253
 20
112.5465424747
 30
0.0
 40
11.11693720533981
100
AcDbArc
 50
270.0
 51
0.0
  0
LINE
  5
10D
330
1F
100
AcDbEntity
  8
0
  6
Continuous
 62
     7
370
    25
100
AcDbLine
 10
528.5958111253
 20
343.0465424747
 30
0.0
 11
75.5958111253
 21
343.0465424747
 31
0.0
  0
LINE
  5
10E
330
1F
100
AcDbEntity
  8
0
  6
Continuous
 62
     7
370
    25
100
AcDbLine
 10
528.5958111253
 20
342.66347968
 30
0.0
 11
75.5958111253
 21
342.66347968
 31
0.0
  0
LINE
  5
10F
330
1F
100
AcDbEntity
  8
0
  6
Continuous
 62
     7
370
    25
100
AcDbLine
 10
539.7127483306
 20
112.5465424747
 30
0.0
 11
539.7127483306
 21
222.0465424747
 31
0.0
  0
LINE
  5
110
330
1F
100
AcDbEntity
  8
0
  6
Continuous
 62
     7
370
    25
100
AcDbLine
 10
540.0958111253
 20
112.5465424747
 30
0.0
 11
540.0958111253
 21
222.0465424747
 31
0.0
  0
ARC
  5
111
330
1F
100
AcDbEntity
  8
0
  6
Continuous
 62
     7
370
    25
100
AcDbCircle
 10
75.5958111253
 20
112.5465424747
 30
0.0
 40
11.50000000000007
100
AcDbArc
 50
180.0
 51
270.0
  0
ARC
  5
112
330
1F
100
AcDbEntity
  8
0
  6
Continuous
 62
     7
370
    25
100
AcDbCircle
 10
75.5958111253
 20
112.5465424747
 30
0.0
 40
11.11693720533991
100
AcDbArc
 50
180.0
 51
270.0
  0
ARC
  5
113
330
1F
100
AcDbEntity
  8
0
  6
Continuous
 62
     7
370
    25
100
AcDbCircle
 10
544.0958111253
 20
97.0465424747
 30
0.0
 40
5.000000000000014
100
AcDbArc
 50
270.0
 51
0.0
  0
ARC
  5
114
330
1F
100
AcDbEntity
  8
0
  6
Continuous
 62
     7
370
    25
100
AcDbCircle
 10
544.0958111253
 20
347.0465424747
 30
0.0
 40
5.000000000000114
100
AcDbArc
 50
0.0
 51
90.0
  0
ARC
  5
115
330
1F
100
AcDbEntity
  8
0
  6
Continuous
 62
     7
370
    25
100
AcDbCircle
 10
60.0958111253
 20
347.0465424747
 30
0.0
 40
5.0
100
AcDbArc
 50
90.0
 51
180.0
  0
ARC
  5
116
330
1F
100
AcDbEntity
  8
0
  6
Continuous
 62
     7
370
    25
100
AcDbCircle
 10
60.0958111253
 20
97.0465424747
 30
0.0
 40
5.000000000000014
100
AcDbArc
 50
180.0
 51
270.0
  0
LINE
  5
117
330
1F
100
AcDbEntity
  8
0
  6
Continuous
 62
     7
370
    25
100
AcDbLine
 10
544.0958111253
 20
352.0465424747
 30
0.0
 11
60.0958111253
 21
352.0465424747
 31
0.0
  0
LINE
  5
118
330
1F
100
AcDbEntity
  8
0
  6
Continuous
 62
     7
370
    25
100
AcDbLine
 10
549.0958111253
 20
97.0465424747
 30
0.0
 11
549.0958111253
 21
347.0465424747
 31
0.0
  0
LINE
  5
119
330
1F
100
AcDbEntity
  8
0
  6
Continuous
 62
     7
370
    25
100
AcDbLine
 10
60.0958111253
 20
92.0465424747
 30
0.0
 11
544.0958111253
 21
92.0465424747
 31
0.0
  0
LINE
  5
11A
330
1F
100
AcDbEntity
  8
0
  6
Continuous
 62
     7
370
    25
100
AcDbLine
 10
55.0958111253
 20
347.0465424747
 30
0.0
 11
55.0958111253
 21
97.0465424747
 31
0.0
  0
LINE
  5
11B
330
1F
100
AcDbEntity
  8
0
  6
Continuous
 62
     7
370
    25
100
AcDbLine
 10
75.5958111253
 20
101.4296052693
 30
0.0
 11
75.5958111253
 21
101.9084099831
 31
0.0
  0
LINE
  5
11C
330
1F
100
AcDbEntity
  8
0
  6
Continuous
 62
     7
370
    25
100
AcDbLine
 10
64.47887392
 20
112.5465424747
 30
0.0
 11
64.9576786338
 21
112.5465424747
 31
0.0
  0
ARC
  5
11D
330
1F
100
AcDbEntity
  8
0
  6
Continuous
 62
     7
370
    25
100
AcDbCircle
 10
75.5958111253
 20
112.5465424747
 30
0.0
 40
10.63813249153678
100
AcDbArc
 50
180.0
 51
270.0
  0
LINE
  5
11E
330
1F
100
AcDbEntity
  8
0
  6
Continuous
 62
     7
370
    25
100
AcDbLine
 10
539.7127483306
 20
331.5465424747
 30
0.0
 11
539.2339436168
 21
331.5465424747
 31
0.0
  0
LINE
  5
11F
330
1F
100
AcDbEntity
  8
0
  6
Continuous
 62
     7
370
    25
100
AcDbLine
 10
539.7127483306
 20
222.0465424747
 30
0.0
 11
539.2339436168
 21
222.0465424747
 31
0.0
  0
LINE
  5
120
330
1F
100
AcDbEntity
  8
0
  6
Continuous
 62
     7
370
    25
100
AcDbLine
 10
539.2339436168
 20
222.0465424747
 30
0.0
 11
539.2339436168
 21
331.5465424747
 31
0.0
  0
LINE
  5
121
330
1F
100
AcDbEntity
  8
0
  6
Continuous
 62
     7
370
    25
100
AcDbLine
 10
64.47887392
 20
331.5465424747
 30
0.0
 11
64.9576786338
 21
331.5465424747
 31
0.0
  0
LINE
  5
122
330
1F
100
AcDbEntity
  8
0
  6
Continuous
 62
     7
370
    25
100
AcDbLine
 10
75.5958111253
 20
342.66347968
 30
0.0
 11
75.5958111253
 21
342.1846749662
 31
0.0
  0
ARC
  5
123
330
1F
100
AcDbEntity
  8
0
  6
Continuous
 62
     7
370
    25
100
AcDbCircle
 10
75.5958111253
 20
331.5465424747
 30
0.0
 40
10.63813249153668
100
AcDbArc
 50
90.0
 51
180.0
  0
LINE
  5
124
330
1F
100
AcDbEntity
  8
0
  6
Continuous
 62
     7
370
    25
100
AcDbLine
 10
528.5958111253
 20
101.4296052693
 30
0.0
 11
528.5958111253
 21
101.9084099831
 31
0.0
  0
LINE
  5
125
330
1F
100
AcDbEntity
  8
0
  6
Continuous
 62
     7
370
    25
100
AcDbLine
 10
75.5958111253
 20
101.9084099831
 30
0.0
 11
528.5958111253
 21
101.9084099831
 31
0.0
  0
LINE
  5
126
330
1F
100
AcDbEntity
  8
0
  6
Continuous
 62
     7
370
    25
100
AcDbLine
 10
64.9576786338
 20
331.5465424747
 30
0.0
 11
64.9576786338
 21
112.5465424747
 31
0.0
  0
LINE
  5
127
330
1F
100
AcDbEntity
  8
0
  6
Continuous
 62
     7
370
    25
100
AcDbLine
 10
539.7127483306
 20
112.5465424747
 30
0.0
 11
539.2339436168
 21
112.5465424747
 31
0.0
  0
LINE
  5
128
330
1F
100
AcDbEntity
  8
0
  6
Continuous
 62
     7
370
    25
100
AcDbLine
 10
539.2339436168
 20
112.5465424747
 30
0.0
 11
539.2339436168
 21
222.0465424747
 31
0.0
  0
LINE
  5
129
330
1F
100
AcDbEntity
  8
0
  6
Continuous
 62
     7
370
    25
100
AcDbLine
 10
528.5958111253
 20
342.66347968
 30
0.0
 11
528.5958111253
 21
342.1846749662
 31
0.0
  0
LINE
  5
12A
330
1F
100
AcDbEntity
  8
0
  6
Continuous
 62
     7
370
    25
100
AcDbLine
 10
528.5958111253
 20
342.1846749662
 30
0.0
 11
75.5958111253
 21
342.1846749662
 31
0.0
  0
ARC
  5
12B
330
1F
100
AcDbEntity
  8
0
  6
Continuous
 62
     7
370
    25
100
AcDbCircle
 10
528.5958111253
 20
112.5465424747
 30
0.0
 40
10.63813249153668
100
AcDbArc
 50
270.0
 51
0.0
  0
ARC
  5
12C
330
1F
100
AcDbEntity
  8
0
  6
Continuous
 62
     7
370
    25
100
AcDbCircle
 10
528.5958111253
 20
331.5465424747
 30
0.0
 40
10.63813249153668
100
AcDbArc
 50
0.0
 51
90.0
  0
LINE
  5
12D
330
1F
100
AcDbEntity
  8
0
  6
Continuous
 62
     7
370
    25
100
AcDbLine
 10
539.2339436168
 20
331.5465424747
 30
0.0
 11
536.5525040542
 21
331.5465424747
 31
0.0
  0
LINE
  5
12E
330
1F
100
AcDbEntity
  8
0
  6
Continuous
 62
     7
370
    25
100
AcDbLine
 10
539.2339436168
 20
222.0465424747
 30
0.0
 11
536.5525040542
 21
222.0465424747
 31
0.0
  0
LINE
  5
12F
330
1F
100
AcDbEntity
  8
0
  6
Continuous
 62
     7
370
    25
100
AcDbLine
 10
536.5525040542
 20
222.0465424747
 30
0.0
 11
536.5525040542
 21
331.5465424747
 31
0.0
  0
LINE
  5
130
330
1F
100
AcDbEntity
  8
0
  6
Continuous
 62
     7
370
    25
100
AcDbLine
 10
539.2339436168
 20
112.5465424747
 30
0.0
 11
536.5525040542
 21
112.5465424747
 31
0.0
  0
LINE
  5
131
330
1F
100
AcDbEntity
  8
0
  6
Continuous
 62
     7
370
    25
100
AcDbLine
 10
536.5525040542
 20
112.5465424747
 30
0.0
 11
536.5525040542
 21
222.0465424747
 31
0.0
  0
LINE
  5
132
330
1F
100
AcDbEntity
  8
0
  6
Continuous
 62
     7
370
    25
100
AcDbLine
 10
64.9576786338
 20
331.5465424747
 30
0.0
 11
67.6391181964
 21
331.5465424747
 31
0.0
  0
LINE
  5
133
330
1F
100
AcDbEntity
  8
0
  6
Continuous
 62
     7
370
    25
100
AcDbLine
 10
75.5958111253
 20
342.1846749662
 30
0.0
 11
75.5958111253
 21
339.5032354036
 31
0.0
  0
ARC
  5
134
330
1F
100
AcDbEntity
  8
0
  6
Continuous
 62
     7
370
    25
100
AcDbCircle
 10
75.5958111253
 20
331.5465424747
 30
0.0
 40
7.956692928915174
100
AcDbArc
 50
90.0
 51
180.0
  0
LINE
  5
135
330
1F
100
AcDbEntity
  8
0
  6
Continuous
 62
     7
370
    25
100
AcDbLine
 10
528.5958111253
 20
101.9084099831
 30
0.0
 11
528.5958111253
 21
104.5898495457
 31
0.0
  0
ARC
  5
136
330
1F
100
AcDbEntity
  8
0
  6
Continuous
 62
     7
370
    25
100
AcDbCircle
 10
528.5958111253
 20
112.5465424747
 30
0.0
 40
7.956692928915231
100
AcDbArc
 50
270.0
 51
0.0
  0
LINE
  5
137
330
1F
100
AcDbEntity
  8
0
  6
Continuous
 62
     7
370
    25
100
AcDbLine
 10
75.5958111253
 20
101.9084099831
 30
0.0
 11
75.5958111253
 21
104.5898495457
 31
0.0
  0
LINE
  5
138
330
1F
100
AcDbEntity
  8
0
  6
Continuous
 62
     7
370
    25
100
AcDbLine
 10
64.9576786338
 20
112.5465424747
 30
0.0
 11
67.6391181964
 21
112.5465424747
 31
0.0
  0
ARC
  5
139
330
1F
100
AcDbEntity
  8
0
  6
Continuous
 62
     7
370
    25
100
AcDbCircle
 10
75.5958111253
 20
112.5465424747
 30
0.0
 40
7.956692928915217
100
AcDbArc
 50
180.0
 51
270.0
  0
LINE
  5
13A
330
1F
100
AcDbEntity
  8
0
  6
Continuous
 62
     7
370
    25
100
AcDbLine
 10
528.5958111253
 20
342.1846749662
 30
0.0
 11
528.5958111253
 21
339.5032354036
 31
0.0
  0
LINE
  5
13B
330
1F
100
AcDbEntity
  8
0
  6
Continuous
 62
     7
370
    25
100
AcDbLine
 10
528.5958111253
 20
339.5032354036
 30
0.0
 11
75.5958111253
 21
339.5032354036
 31
0.0
  0
LINE
  5
13C
330
1F
100
AcDbEntity
  8
0
  6
Continuous
 62
     7
370
    25
100
AcDbLine
 10
67.6391181964
 20
331.5465424747
 30
0.0
 11
67.6391181964
 21
112.5465424747
 31
0.0
  0
LINE
  5
13D
330
1F
100
AcDbEntity
  8
0
  6
Continuous
 62
     7
370
    25
100
AcDbLine
 10
75.5958111253
 20
104.5898495457
 30
0.0
 11
528.5958111253
 21
104.5898495457
 31
0.0
  0
ARC
  5
13E
330
1F
100
AcDbEntity
  8
0
  6
Continuous
 62
     7
370
    25
100
AcDbCircle
 10
528.5958111253
 20
331.5465424747
 30
0.0
 40
7.956692928915174
100
AcDbArc
 50
0.0
 51
90.0
  0
LINE
  5
13F
330
1F
100
AcDbEntity
  8
0
  6
Continuous
 62
     7
370
    25
100
AcDbLine
 10
85.8458111253
 20
109.5465424747
 30
0.0
 11
230.3458111253
 21
109.5465424747
 31
0.0
  0
LINE
  5
140
330
1F
100
AcDbEntity
  8
0
  6
Continuous
 62
     7
370
    25
100
AcDbLine
 10
230.3458111253
 20
107.0465424747
 30
0.0
 11
230.3458111253
 21
109.5465424747
 31
0.0
  0
LINE
  5
141
330
1F
100
AcDbEntity
  8
0
  6
Continuous
 62
     7
370
    25
100
AcDbLine
 10
230.3458111253
 20
107.0465424747
 30
0.0
 11
85.8458111253
 21
107.0465424747
 31
0.0
  0
LINE
  5
142
330
1F
100
AcDbEntity
  8
0
  6
Continuous
 62
     7
370
    25
100
AcDbLine
 10
85.8458111253
 20
109.5465424747
 30
0.0
 11
85.8458111253
 21
107.0465424747
 31
0.0
  0
ARC
  5
143
330
1F
100
AcDbEntity
  8
0
  6
Continuous
 62
     7
370
    25
100
AcDbCircle
 10
272.8458111253
 20
289.7965424747
 30
0.0
 40
15.75
100
AcDbArc
 50
90.0
 51
180.0
  0
LINE
  5
144
330
1F
100
AcDbEntity
  8
0
  6
Continuous
 62
     7
370
    25
100
AcDbLine
 10
272.8458111253
 20
305.5465424747
 30
0.0
 11
272.8458111253
 21
303.0465424747
 31
0.0
  0
ARC
  5
145
330
1F
100
AcDbEntity
  8
0
  6
Continuous
 62
     7
370
    25
100
AcDbCircle
 10
272.8458111253
 20
289.7965424747
 30
0.0
 40
13.25
100
AcDbArc
 50
90.0
 51
180.0
  0
LINE
  5
146
330
1F
100
AcDbEntity
  8
0
  6
Continuous
 62
     7
370
    25
100
AcDbLine
 10
259.5958111253
 20
289.7965424747
 30
0.0
 11
257.0958111253
 21
289.7965424747
 31
0.0
  0
LINE
  5
147
330
1F
100
AcDbEntity
  8
0
  6
Continuous
 62
     7
370
    25
100
AcDbLine
 10
246.0958111253
 20
289.7965424747
 30
0.0
 11
246.0958111253
 21
122.7965424747
 31
0.0
  0
ARC
  5
148
330
1F
100
AcDbEntity
  8
0
  6
Continuous
 62
     7
370
    25
100
AcDbCircle
 10
230.3458111253
 20
289.7965424747
 30
0.0
 40
15.74999999999994
100
AcDbArc
 50
0.0
 51
90.0
  0
LINE
  5
149
330
1F
100
AcDbEntity
  8
0
  6
Continuous
 62
     7
370
    25
100
AcDbLine
 10
85.8458111253
 20
305.5465424747
 30
0.0
 11
230.3458111253
 21
305.5465424747
 31
0.0
  0
ARC
  5
14A
330
1F
100
AcDbEntity
  8
0
  6
Continuous
 62
     7
370
    25
100
AcDbCircle
 10
85.8458111253
 20
289.7965424747
 30
0.0
 40
15.74999999999996
100
AcDbArc
 50
90.0
 51
180.0
  0
LINE
  5
14B
330
1F
100
AcDbEntity
  8
0
  6
Continuous
 62
     7
370
    25
100
AcDbLine
 10
70.0958111253
 20
122.7965424747
 30
0.0
 11
70.0958111253
 21
289.7965424747
 31
0.0
  0
ARC
  5
14C
330
1F
100
AcDbEntity
  8
0
  6
Continuous
 62
     7
370
    25
100
AcDbCircle
 10
85.8458111253
 20
122.7965424747
 30
0.0
 40
15.74999999999993
100
AcDbArc
 50
180.0
 51
270.0
  0
ARC
  5
14D
330
1F
100
AcDbEntity
  8
0
  6
Continuous
 62
     7
370
    25
100
AcDbCircle
 10
230.3458111253
 20
122.7965424747
 30
0.0
 40
15.74999999999999
100
AcDbArc
 50
270.0
 51
0.0
  0
ARC
  5
14E
330
1F
100
AcDbEntity
  8
0
  6
Continuous
 62
     7
370
    25
100
AcDbCircle
 10
417.3458111253
 20
289.7965424747
 30
0.0
 40
15.75
100
AcDbArc
 50
0.0
 51
90.0
  0
LINE
  5
14F
330
1F
100
AcDbEntity
  8
0
  6
Continuous
 62
     7
370
    25
100
AcDbLine
 10
272.8458111253
 20
305.5465424747
 30
0.0
 11
417.3458111253
 21
305.5465424747
 31
0.0
  0
LINE
  5
150
330
1F
100
AcDbEntity
  8
0
  6
Continuous
 62
     7
370
    25
100
AcDbLine
 10
257.0958111253
 20
122.7965424747
 30
0.0
 11
257.0958111253
 21
289.7965424747
 31
0.0
  0
ARC
  5
151
330
1F
100
AcDbEntity
  8
0
  6
Continuous
 62
     7
370
    25
100
AcDbCircle
 10
272.8458111253
 20
122.7965424747
 30
0.0
 40
15.75000000000004
100
AcDbArc
 50
180.0
 51
270.0
  0
LINE
  5
152
330
1F
100
AcDbEntity
  8
0
  6
Continuous
 62
     7
370
    25
100
AcDbLine
 10
417.3458111253
 20
107.0465424747
 30
0.0
 11
272.8458111253
 21
107.0465424747
 31
0.0
  0
ARC
  5
153
330
1F
100
AcDbEntity
  8
0
  6
Continuous
 62
     7
370
    25
100
AcDbCircle
 10
417.3458111253
 20
122.7965424747
 30
0.0
 40
15.75000000000006
100
AcDbArc
 50
270.0
 51
0.0
  0
LINE
  5
154
330
1F
100
AcDbEntity
  8
0
  6
Continuous
 62
     7
370
    25
100
AcDbLine
 10
433.0958111253
 20
289.7965424747
 30
0.0
 11
433.0958111253
 21
122.7965424747
 31
0.0
  0
CIRCLE
  5
155
330
1F
100
AcDbEntity
  8
0
  6
Continuous
 62
     7
370
    25
100
AcDbCircle
 10
251.0958111253
 20
324.0465424747
 30
0.0
 40
8.75
  0
LINE
  5
156
330
1F
100
AcDbEntity
  8
0
  6
Continuous
 62
     7
370
    25
100
AcDbLine
 10
433.0958111253
 20
122.7965424747
 30
0.0
 11
430.5958111253
 21
122.7965424747
 31
0.0
  0
LINE
  5
157
330
1F
100
AcDbEntity
  8
0
  6
Continuous
 62
     7
370
    25
100
AcDbLine
 10
430.5958111253
 20
122.7965424747
 30
0.0
 11
430.5958111253
 21
289.7965424747
 31
0.0
  0
LINE
  5
158
330
1F
100
AcDbEntity
  8
0
  6
Continuous
 62
     7
370
    25
100
AcDbLine
 10
433.0958111253
 20
289.7965424747
 30
0.0
 11
430.5958111253
 21
289.7965424747
 31
0.0
  0
LINE
  5
159
330
1F
100
AcDbEntity
  8
0
  6
Continuous
 62
     7
370
    25
100
AcDbLine
 10
272.8458111253
 20
109.5465424747
 30
0.0
 11
417.3458111253
 21
109.5465424747
 31
0.0
  0
LINE
  5
15A
330
1F
100
AcDbEntity
  8
0
  6
Continuous
 62
     7
370
    25
100
AcDbLine
 10
417.3458111253
 20
109.5465424747
 30
0.0
 11
417.3458111253
 21
107.0465424747
 31
0.0
  0
LINE
  5
15B
330
1F
100
AcDbEntity
  8
0
  6
Continuous
 62
     7
370
    25
100
AcDbLine
 10
272.8458111253
 20
109.5465424747
 30
0.0
 11
272.8458111253
 21
107.0465424747
 31
0.0
  0
ARC
  5
15C
330
1F
100
AcDbEntity
  8
0
  6
Continuous
 62
     7
370
    25
100
AcDbCircle
 10
417.3458111253
 20
122.7965424747
 30
0.0
 40
13.25
100
AcDbArc
 50
270.0
 51
0.0
  0
LINE
  5
15D
330
1F
100
AcDbEntity
  8
0
  6
Continuous
 62
     7
370
    25
100
AcDbLine
 10
230.3458111253
 20
303.0465424747
 30
0.0
 11
85.8458111253
 21
303.0465424747
 31
0.0
  0
LINE
  5
15E
330
1F
100
AcDbEntity
  8
0
  6
Continuous
 62
     7
370
    25
100
AcDbLine
 10
85.8458111253
 20
303.0465424747
 30
0.0
 11
85.8458111253
 21
305.5465424747
 31
0.0
  0
LINE
  5
15F
330
1F
100
AcDbEntity
  8
0
  6
Continuous
 62
     7
370
    25
100
AcDbLine
 10
230.3458111253
 20
305.5465424747
 30
0.0
 11
230.3458111253
 21
303.0465424747
 31
0.0
  0
LINE
  5
160
330
1F
100
AcDbEntity
  8
0
  6
Continuous
 62
     7
370
    25
100
AcDbLine
 10
417.3458111253
 20
305.5465424747
 30
0.0
 11
417.3458111253
 21
303.0465424747
 31
0.0
  0
LINE
  5
161
330
1F
100
AcDbEntity
  8
0
  6
Continuous
 62
     7
370
    25
100
AcDbLine
 10
417.3458111253
 20
303.0465424747
 30
0.0
 11
272.8458111253
 21
303.0465424747
 31
0.0
  0
LINE
  5
162
330
1F
100
AcDbEntity
  8
0
  6
Continuous
 62
     7
370
    25
100
AcDbLine
 10
259.5958111253
 20
289.7965424747
 30
0.0
 11
259.5958111253
 21
122.7965424747
 31
0.0
  0
LINE
  5
163
330
1F
100
AcDbEntity
  8
0
  6
Continuous
 62
     7
370
    25
100
AcDbLine
 10
259.5958111253
 20
122.7965424747
 30
0.0
 11
257.0958111253
 21
122.7965424747
 31
0.0
  0
ARC
  5
164
330
1F
100
AcDbEntity
  8
0
  6
Continuous
 62
     7
370
    25
100
AcDbCircle
 10
417.3458111253
 20
289.7965424747
 30
0.0
 40
13.25
100
AcDbArc
 50
0.0
 51
90.0
  0
ARC
  5
165
330
1F
100
AcDbEntity
  8
0
  6
Continuous
 62
     7
370
    25
100
AcDbCircle
 10
272.8458111253
 20
122.7965424747
 30
0.0
 40
13.25000000000006
100
AcDbArc
 50
180.0
 51
270.0
  0
ARC
  5
166
330
1F
100
AcDbEntity
  8
0
  6
Continuous
 62
     7
370
    25
100
AcDbCircle
 10
85.8458111253
 20
122.7965424747
 30
0.0
 40
13.25000000000001
100
AcDbArc
 50
180.0
 51
270.0
  0
LINE
  5
167
330
1F
100
AcDbEntity
  8
0
  6
Continuous
 62
     7
370
    25
100
AcDbLine
 10
72.5958111253
 20
122.7965424747
 30
0.0
 11
70.0958111253
 21
122.7965424747
 31
0.0
  0
ARC
  5
168
330
1F
100
AcDbEntity
  8
0
  6
Continuous
 62
     7
370
    25
100
AcDbCircle
 10
230.3458111253
 20
122.7965424747
 30
0.0
 40
13.25
100
AcDbArc
 50
270.0
 51
0.0
  0
LINE
  5
169
330
1F
100
AcDbEntity
  8
0
  6
Continuous
 62
     7
370
    25
100
AcDbLine
 10
246.0958111253
 20
122.7965424747
 30
0.0
 11
243.5958111253
 21
122.7965424747
 31
0.0
  0
LINE
  5
16A
330
1F
100
AcDbEntity
  8
0
  6
Continuous
 62
     7
370
    25
100
AcDbLine
 10
72.5958111253
 20
289.7965424747
 30
0.0
 11
72.5958111253
 21
122.7965424747
 31
0.0
  0
LINE
  5
16B
330
1F
100
AcDbEntity
  8
0
  6
Continuous
 62
     7
370
    25
100
AcDbLine
 10
72.5958111253
 20
289.7965424747
 30
0.0
 11
70.0958111253
 21
289.7965424747
 31
0.0
  0
LINE
  5
16C
330
1F
100
AcDbEntity
  8
0
  6
Continuous
 62
     7
370
    25
100
AcDbLine
 10
243.5958111253
 20
122.7965424747
 30
0.0
 11
243.5958111253
 21
289.7965424747
 31
0.0
  0
LINE
  5
16D
330
1F
100
AcDbEntity
  8
0
  6
Continuous
 62
     7
370
    25
100
AcDbLine
 10
246.0958111253
 20
289.7965424747
 30
0.0
 11
243.5958111253
 21
289.7965424747
 31
0.0
  0
ARC
  5
16E
330
1F
100
AcDbEntity
  8
0
  6
Continuous
 62
     7
370
    25
100
AcDbCircle
 10
85.8458111253
 20
289.7965424747
 30
0.0
 40
13.25000000000001
100
AcDbArc
 50
90.0
 51
180.0
  0
ARC
  5
16F
330
1F
100
AcDbEntity
  8
0
  6
Continuous
 62
     7
370
    25
100
AcDbCircle
 10
230.3458111253
 20
289.7965424747
 30
0.0
 40
13.25
100
AcDbArc
 50
0.0
 51
90.0
  0
LINE
  5
170
330
1F
100
AcDbEntity
  8
0
  6
Continuous
 62
     8
370
    25
100
AcDbLine
 10
260.1330598513
 20
290.0465424747
 30
0.0
 11
259.5981698258
 21
290.0465424747
 31
0.0
  0
LINE
  5
171
330
1F
100
AcDbEntity
  8
0
  6
Continuous
 62
     8
370
    25
100
AcDbLine
 10
272.5958111253
 20
303.0441837741
 30
0.0
 11
272.5958111253
 21
302.5092937486
 31
0.0
  0
LINE
  5
172
330
1F
100
AcDbEntity
  8
0
  6
Continuous
 62
     8
370
    25
100
AcDbLine
 10
260.1330598513
 20
122.5465424747
 30
0.0
 11
259.5981698258
 21
122.5465424747
 31
0.0
  0
LINE
  5
173
330
1F
100
AcDbEntity
  8
0
  6
Continuous
 62
     8
370
    25
100
AcDbLine
 10
417.5958111253
 20
303.0441837741
 30
0.0
 11
417.5958111253
 21
302.5092937486
 31
0.0
  0
LINE
  5
174
330
1F
100
AcDbEntity
  8
0
  6
Continuous
 62
     8
370
    25
100
AcDbLine
 10
272.5958111253
 20
110.0837912007
 30
0.0
 11
272.5958111253
 21
109.5489011752
 31
0.0
  0
LINE
  5
175
330
1F
100
AcDbEntity
  8
0
  6
Continuous
 62
     8
370
    25
100
AcDbLine
 10
430.5934524248
 20
290.0465424747
 30
0.0
 11
430.0585623993
 21
290.0465424747
 31
0.0
  0
LINE
  5
176
330
1F
100
AcDbEntity
  8
0
  6
Continuous
 62
     8
370
    25
100
AcDbLine
 10
430.5934524248
 20
122.5465424747
 30
0.0
 11
430.0585623993
 21
122.5465424747
 31
0.0
  0
LINE
  5
177
330
1F
100
AcDbEntity
  8
0
  6
Continuous
 62
     8
370
    25
100
AcDbLine
 10
417.5958111253
 20
110.0837912007
 30
0.0
 11
417.5958111253
 21
109.5489011752
 31
0.0
  0
LINE
  5
178
330
1F
100
AcDbEntity
  8
0
  6
Continuous
 62
     8
370
    25
100
AcDbLine
 10
73.1330598513
 20
290.0465424747
 30
0.0
 11
72.5981698258
 21
290.0465424747
 31
0.0
  0
LINE
  5
179
330
1F
100
AcDbEntity
  8
0
  6
Continuous
 62
     8
370
    25
100
AcDbLine
 10
85.5958111253
 20
303.0441837741
 30
0.0
 11
85.5958111253
 21
302.5092937486
 31
0.0
  0
LINE
  5
17A
330
1F
100
AcDbEntity
  8
0
  6
Continuous
 62
     8
370
    25
100
AcDbLine
 10
73.1330598513
 20
122.5465424747
 30
0.0
 11
72.5981698258
 21
122.5465424747
 31
0.0
  0
LINE
  5
17B
330
1F
100
AcDbEntity
  8
0
  6
Continuous
 62
     8
370
    25
100
AcDbLine
 10
230.5958111253
 20
303.0441837741
 30
0.0
 11
230.5958111253
 21
302.5092937486
 31
0.0
  0
LINE
  5
17C
330
1F
100
AcDbEntity
  8
0
  6
Continuous
 62
     8
370
    25
100
AcDbLine
 10
85.5958111253
 20
110.0837912007
 30
0.0
 11
85.5958111253
 21
109.5489011752
 31
0.0
  0
LINE
  5
17D
330
1F
100
AcDbEntity
  8
0
  6
Continuous
 62
     8
370
    25
100
AcDbLine
 10
243.5934524248
 20
290.0465424747
 30
0.0
 11
243.0585623993
 21
290.0465424747
 31
0.0
  0
LINE
  5
17E
330
1F
100
AcDbEntity
  8
0
  6
Continuous
 62
     8
370
    25
100
AcDbLine
 10
243.5934524248
 20
122.5465424747
 30
0.0
 11
243.0585623993
 21
122.5465424747
 31
0.0
  0
LINE
  5
17F
330
1F
100
AcDbEntity
  8
0
  6
Continuous
 62
     8
370
    25
100
AcDbLine
 10
230.5958111253
 20
110.0837912007
 30
0.0
 11
230.5958111253
 21
109.5489011752
 31
0.0
  0
ENDSEC
  0
SECTION
  2
OBJECTS
  0
DICTIONARY
  5
C
330
0
100
AcDbDictionary
281
     1
  3
ACAD_GROUP
350
D
  3
ACAD_LAYOUT
350
1A
  3
ACAD_MLINESTYLE
350
17
  3
ACAD_PLOTSETTINGS
350
19
  3
ACAD_PLOTSTYLENAME
350
E
  3
ACAD_SCALELIST
350
47
  3
DWGPROPS
350
180
  0
DICTIONARY
  5
D
102
{ACAD_REACTORS
330
C
102
}
330
C
100
AcDbDictionary
281
     1
  0
DICTIONARY
  5
1A
102
{ACAD_REACTORS
330
C
102
}
330
C
100
AcDbDictionary
281
     1
  3
Layout1
350
1E
  3
Layout2
350
26
  3
Model
350
22
  0
DICTIONARY
  5
17
102
{ACAD_REACTORS
330
C
102
}
330
C
100
AcDbDictionary
281
     1
  3
Standard
350
18
  0
DICTIONARY
  5
19
102
{ACAD_REACTORS
330
C
102
}
330
C
100
AcDbDictionary
281
     1
  0
ACDBDICTIONARYWDFLT
  5
E
102
{ACAD_REACTORS
330
C
102
}
330
C
100
AcDbDictionary
281
     1
  3
Normal
350
F
100
AcDbDictionaryWithDefault
340
F
  0
DICTIONARY
  5
47
102
{ACAD_REACTORS
330
C
102
}
330
C
100
AcDbDictionary
281
     1
  3
A0
350
48
  3
A1
350
49
  3
A2
350
4A
  3
A3
350
4B
  3
A4
350
4C
  3
A5
350
4D
  3
A6
350
4E
  3
A7
350
4F
  3
A8
350
50
  3
A9
350
51
  3
B0
350
52
  3
B1
350
53
  3
B2
350
54
  3
B3
350
55
  3
B4
350
56
  3
B5
350
57
  3
B6
350
58
  3
B7
350
59
  3
B8
350
5A
  3
B9
350
5B
  3
C0
350
5C
  3
C1
350
5D
  3
C2
350
5E
  3
C3
350
5F
  3
C4
350
60
  3
C5
350
61
  3
C6
350
62
  3
C7
350
63
  3
C8
350
64
  3
C9
350
65
  3
D0
350
66
  3
D1
350
67
  3
D2
350
68
  0
XRECORD
  5
180
102
{ACAD_REACTORS
330
C
102
}
330
C
100
AcDbXrecord
280
     1
  1
DWGPROPS COOKIE
  2

  3

  4

  6

  7

  8
KalleMourujärvi
  9

300
=
301
=
302
=
303
=
304
=
305
=
306
=
307
=
308
=
309
=
 40
0.0
 41
2460130.235077211
 42
2460130.235077755
  1

 90
        0
  0
LAYOUT
  5
1E
102
{ACAD_REACTORS
330
1A
102
}
330
1A
100
AcDbPlotSettings
  1

  2
none_device
  4

  6

 40
0.0
 41
0.0
 42
0.0
 43
0.0
 44
0.0
 45
0.0
 46
0.0
 47
0.0
 48
0.0
 49
0.0
140
0.0
141
0.0
142
1.0
143
1.0
 70
   688
 72
     1
 73
     0
 74
     5
  7

 75
    16
147
1.0
148
0.0
149
0.0
100
AcDbLayout
  1
Layout1
 70
     1
 71
     1
 10
0.0
 20
0.0
 11
420.0
 21
297.0
 12
0.0
 22
0.0
 32
0.0
 14
1.0000000000E+20
 24
1.0000000000E+20
 34
1.0000000000E+20
 15
-1.0000000000E+20
 25
-1.0000000000E+20
 35
-1.0000000000E+20
146
0.0
 13
0.0
 23
0.0
 33
0.0
 16
1.0
 26
0.0
 36
0.0
 17
0.0
 27
1.0
 37
0.0
 76
     0
330
1B
  0
LAYOUT
  5
26
102
{ACAD_REACTORS
330
1A
102
}
330
1A
100
AcDbPlotSettings
  1

  2
none_device
  4

  6

 40
0.0
 41
0.0
 42
0.0
 43
0.0
 44
0.0
 45
0.0
 46
0.0
 47
0.0
 48
0.0
 49
0.0
140
0.0
141
0.0
142
1.0
143
1.0
 70
   688
 72
     1
 73
     0
 74
     5
  7

 75
    16
147
1.0
148
0.0
149
0.0
100
AcDbLayout
  1
Layout2
 70
     1
 71
     2
 10
0.0
 20
0.0
 11
0.0
 21
0.0
 12
0.0
 22
0.0
 32
0.0
 14
0.0
 24
0.0
 34
0.0
 15
0.0
 25
0.0
 35
0.0
146
0.0
 13
0.0
 23
0.0
 33
0.0
 16
1.0
 26
0.0
 36
0.0
 17
0.0
 27
1.0
 37
0.0
 76
     0
330
23
  0
LAYOUT
  5
22
102
{ACAD_REACTORS
330
1A
102
}
330
1A
100
AcDbPlotSettings
  1

  2
none_device
  4
Letter_(8.50_x_11.00_Inches)
  6

 40
6.35
 41
6.35
 42
6.35000508
 43
6.35000508
 44
215.9
 45
279.4
 46
0.0
 47
0.0
 48
0.0
 49
0.0
140
0.0
141
0.0
142
1.0
143
1.0
 70
  1712
 72
     1
 73
     0
 74
     0
  7

 75
     0
147
1.0
148
0.0
149
0.0
100
AcDbLayout
  1
Model
 70
     1
 71
     0
 10
0.0
 20
0.0
 11
600.0
 21
450.0
 12
0.0
 22
0.0
 32
0.0
 14
0.0
 24
0.0
 34
0.0
 15
600.0
 25
450.0
 35
0.0
146
0.0
 13
0.0
 23
0.0
 33
0.0
 16
1.0
 26
0.0
 36
0.0
 17
0.0
 27
1.0
 37
0.0
 76
     0
330
1F
331
29
  0
MLINESTYLE
  5
18
102
{ACAD_REACTORS
330
17
102
}
330
17
100
AcDbMlineStyle
  2
Standard
 70
     0
  3

 62
   256
 51
90.0
 52
90.0
 71
     2
 49
0.5
 62
   256
  6
BYLAYER
 49
-0.5
 62
   256
  6
BYLAYER
  0
ACDBPLACEHOLDER
  5
F
102
{ACAD_REACTORS
330
E
102
}
330
E
  0
SCALE
  5
48
102
{ACAD_REACTORS
330
47
102
}
330
47
100
AcDbScale
 70
     0
300
1:1
140
1.0
141
1.0
290
     1
  0
SCALE
  5
49
102
{ACAD_REACTORS
330
47
102
}
330
47
100
AcDbScale
 70
     0
300
1:2
140
1.0
141
2.0
290
     0
  0
SCALE
  5
4A
102
{ACAD_REACTORS
330
47
102
}
330
47
100
AcDbScale
 70
     0
300
1:4
140
1.0
141
4.0
290
     0
  0
SCALE
  5
4B
102
{ACAD_REACTORS
330
47
102
}
330
47
100
AcDbScale
 70
     0
300
1:5
140
1.0
141
5.0
290
     0
  0
SCALE
  5
4C
102
{ACAD_REACTORS
330
47
102
}
330
47
100
AcDbScale
 70
     0
300
1:8
140
1.0
141
8.0
290
     0
  0
SCALE
  5
4D
102
{ACAD_REACTORS
330
47
102
}
330
47
100
AcDbScale
 70
     0
300
1:10
140
1.0
141
10.0
290
     0
  0
SCALE
  5
4E
102
{ACAD_REACTORS
330
47
102
}
330
47
100
AcDbScale
 70
     0
300
1:16
140
1.0
141
16.0
290
     0
  0
SCALE
  5
4F
102
{ACAD_REACTORS
330
47
102
}
330
47
100
AcDbScale
 70
     0
300
1:20
140
1.0
141
20.0
290
     0
  0
SCALE
  5
50
102
{ACAD_REACTORS
330
47
102
}
330
47
100
AcDbScale
 70
     0
300
1:30
140
1.0
141
30.0
290
     0
  0
SCALE
  5
51
102
{ACAD_REACTORS
330
47
102
}
330
47
100
AcDbScale
 70
     0
300
1:40
140
1.0
141
40.0
290
     0
  0
SCALE
  5
52
102
{ACAD_REACTORS
330
47
102
}
330
47
100
AcDbScale
 70
     0
300
1:50
140
1.0
141
50.0
290
     0
  0
SCALE
  5
53
102
{ACAD_REACTORS
330
47
102
}
330
47
100
AcDbScale
 70
     0
300
1:100
140
1.0
141
100.0
290
     0
  0
SCALE
  5
54
102
{ACAD_REACTORS
330
47
102
}
330
47
100
AcDbScale
 70
     0
300
2:1
140
2.0
141
1.0
290
     0
  0
SCALE
  5
55
102
{ACAD_REACTORS
330
47
102
}
330
47
100
AcDbScale
 70
     0
300
4:1
140
4.0
141
1.0
290
     0
  0
SCALE
  5
56
102
{ACAD_REACTORS
330
47
102
}
330
47
100
AcDbScale
 70
     0
300
8:1
140
8.0
141
1.0
290
     0
  0
SCALE
  5
57
102
{ACAD_REACTORS
330
47
102
}
330
47
100
AcDbScale
 70
     0
300
10:1
140
10.0
141
1.0
290
     0
  0
SCALE
  5
58
102
{ACAD_REACTORS
330
47
102
}
330
47
100
AcDbScale
 70
     0
300
100:1
140
100.0
141
1.0
290
     0
  0
SCALE
  5
59
102
{ACAD_REACTORS
330
47
102
}
330
47
100
AcDbScale
 70
     0
300
1/128" = 1'-0"
140
0.0078125
141
12.0
290
     0
  0
SCALE
  5
5A
102
{ACAD_REACTORS
330
47
102
}
330
47
100
AcDbScale
 70
     0
300
1/64" = 1'-0"
140
0.015625
141
12.0
290
     0
  0
SCALE
  5
5B
102
{ACAD_REACTORS
330
47
102
}
330
47
100
AcDbScale
 70
     0
300
1/32" = 1'-0"
140
0.03125
141
12.0
290
     0
  0
SCALE
  5
5C
102
{ACAD_REACTORS
330
47
102
}
330
47
100
AcDbScale
 70
     0
300
1/16" = 1'-0"
140
0.0625
141
12.0
290
     0
  0
SCALE
  5
5D
102
{ACAD_REACTORS
330
47
102
}
330
47
100
AcDbScale
 70
     0
300
3/32" = 1'-0"
140
0.09375
141
12.0
290
     0
  0
SCALE
  5
5E
102
{ACAD_REACTORS
330
47
102
}
330
47
100
AcDbScale
 70
     0
300
1/8" = 1'-0"
140
0.125
141
12.0
290
     0
  0
SCALE
  5
5F
102
{ACAD_REACTORS
330
47
102
}
330
47
100
AcDbScale
 70
     0
300
3/16" = 1'-0"
140
0.1875
141
12.0
290
     0
  0
SCALE
  5
60
102
{ACAD_REACTORS
330
47
102
}
330
47
100
AcDbScale
 70
     0
300
1/4" = 1'-0"
140
0.25
141
12.0
290
     0
  0
SCALE
  5
61
102
{ACAD_REACTORS
330
47
102
}
330
47
100
AcDbScale
 70
     0
300
3/8" = 1'-0"
140
0.375
141
12.0
290
     0
  0
SCALE
  5
62
102
{ACAD_REACTORS
330
47
102
}
330
47
100
AcDbScale
 70
     0
300
1/2" = 1'-0"
140
0.5
141
12.0
290
     0
  0
SCALE
  5
63
102
{ACAD_REACTORS
330
47
102
}
330
47
100
AcDbScale
 70
     0
300
3/4" = 1'-0"
140
0.75
141
12.0
290
     0
  0
SCALE
  5
64
102
{ACAD_REACTORS
330
47
102
}
330
47
100
AcDbScale
 70
     0
300
1" = 1'-0"
140
1.0
141
12.0
290
     0
  0
SCALE
  5
65
102
{ACAD_REACTORS
330
47
102
}
330
47
100
AcDbScale
 70
     0
300
1-1/2" = 1'-0"
140
1.5
141
12.0
290
     0
  0
SCALE
  5
66
102
{ACAD_REACTORS
330
47
102
}
330
47
100
AcDbScale
 70
     0
300
3" = 1'-0"
140
3.0
141
12.0
290
     0
  0
SCALE
  5
67
102
{ACAD_REACTORS
330
47
102
}
330
47
100
AcDbScale
 70
     0
300
6" = 1'-0"
140
6.0
141
12.0
290
     0
  0
SCALE
  5
68
102
{ACAD_REACTORS
330
47
102
}
330
47
100
AcDbScale
 70
     0
300
1'-0" = 1'-0"
140
12.0
141
12.0
290
     0
  0
ENDSEC
  0
EOF
