  0
SECTION
  2
HEADER
  9
$ACADVER
  1
AC1015
  9
$ACADMAINTVER
 70
     6
  9
$DWGCODEPAGE
  3
ANSI_1252
  9
$INSBASE
 10
0.0
 20
0.0
 30
0.0
  9
$EXTMIN
 10
0.0
 20
0.0
 30
0.0
  9
$EXTMAX
 10
900.0
 20
650.0
 30
0.0
  9
$LIMMIN
 10
0.0
 20
0.0
  9
$LIMMAX
 10
900.0
 20
650.0
  9
$ORTHOMODE
 70
     0
  9
$REGENMODE
 70
     1
  9
$FILLMODE
 70
     1
  9
$QTEXTMODE
 70
     0
  9
$MIRRTEXT
 70
     1
  9
$LTSCALE
 40
1.0
  9
$ATTMODE
 70
     1
  9
$TEXTSIZE
 40
3.5
  9
$TRACEWID
 40
1.0
  9
$TEXTSTYLE
  7
Standard
  9
$CLAYER
  8
0
  9
$CELTYPE
  6
ByLayer
  9
$CECOLOR
 62
   256
  9
$CELTSCALE
 40
1.0
  9
$DISPSILH
 70
     0
  9
$DIMSCALE
 40
1.0
  9
$DIMASZ
 40
3.302
  9
$DIMEXO
 40
1.0
  9
$DIMDLI
 40
3.75
  9
$DIMRND
 40
0.0
  9
$DIMDLE
 40
0.0
  9
$DIMEXE
 40
1.0
  9
$DIMTP
 40
0.0
  9
$DIMTM
 40
0.0
  9
$DIMTXT
 40
3.5
  9
$DIMCEN
 40
2.5
  9
$DIMTSZ
 40
0.0
  9
$DIMTOL
 70
     0
  9
$DIMLIM
 70
     0
  9
$DIMTIH
 70
     1
  9
$DIMTOH
 70
     1
  9
$DIMSE1
 70
     0
  9
$DIMSE2
 70
     0
  9
$DIMTAD
 70
     1
  9
$DIMZIN
 70
     1
  9
$DIMBLK
  1

  9
$DIMASO
 70
     1
  9
$DIMSHO
 70
     1
  9
$DIMPOST
  1

  9
$DIMAPOST
  1

  9
$DIMALT
 70
     0
  9
$DIMALTD
 70
     3
  9
$DIMALTF
 40
0.0393700787
  9
$DIMLFAC
 40
1.0
  9
$DIMTOFL
 70
     1
  9
$DIMTVP
 40
0.0
  9
$DIMTIX
 70
     0
  9
$DIMSOXD
 70
     0
  9
$DIMSAH
 70
     0
  9
$DIMBLK1
  1

  9
$DIMBLK2
  1

  9
$DIMSTYLE
  2
ISO-25
  9
$DIMCLRD
 70
     0
  9
$DIMCLRE
 70
     0
  9
$DIMCLRT
 70
     0
  9
$DIMTFAC
 40
1.0
  9
$DIMGAP
 40
1.524
  9
$DIMJUST
 70
     0
  9
$DIMSD1
 70
     0
  9
$DIMSD2
 70
     0
  9
$DIMTOLJ
 70
     0
  9
$DIMTZIN
 70
     1
  9
$DIMALTZ
 70
     0
  9
$DIMALTTZ
 70
     0
  9
$DIMUPT
 70
     0
  9
$DIMDEC
 70
     2
  9
$DIMTDEC
 70
     2
  9
$DIMALTU
 70
     2
  9
$DIMALTTD
 70
     3
  9
$DIMTXSTY
  7
Standard
  9
$DIMAUNIT
 70
     0
  9
$DIMADEC
 70
     2
  9
$DIMALTRND
 40
0.0
  9
$DIMAZIN
 70
     0
  9
$DIMDSEP
 70
    44
  9
$DIMATFIT
 70
     3
  9
$DIMFRAC
 70
     0
  9
$DIMLDRBLK
  1

  9
$DIMLUNIT
 70
     2
  9
$DIMLWD
 70
    -2
  9
$DIMLWE
 70
    -2
  9
$DIMTMOVE
 70
     0
  9
$LUNITS
 70
     2
  9
$LUPREC
 70
     1
  9
$SKETCHINC
 40
1.0
  9
$FILLETRAD
 40
10.0
  9
$AUNITS
 70
     0
  9
$AUPREC
 70
     1
  9
$MENU
  1
.
  9
$ELEVATION
 40
0.0
  9
$PELEVATION
 40
0.0
  9
$THICKNESS
 40
0.0
  9
$LIMCHECK
 70
     0
  9
$CHAMFERA
 40
0.0
  9
$CHAMFERB
 40
0.0
  9
$CHAMFERC
 40
0.0
  9
$CHAMFERD
 40
0.0
  9
$SKPOLY
 70
     0
  9
$TDCREATE
 40
2460130.548330289
  9
$TDUCREATE
 40
2460130.423330289
  9
$TDUPDATE
 40
2460130.54833059
  9
$TDUUPDATE
 40
2460130.42333059
  9
$TDINDWG
 40
0.0000000116
  9
$TDUSRTIMER
 40
0.0000000116
  9
$USRTIMER
 70
     1
  9
$ANGBASE
 50
0.0
  9
$ANGDIR
 70
     0
  9
$PDMODE
 70
     0
  9
$PDSIZE
 40
-1.0
  9
$PLINEWID
 40
0.0
  9
$SPLFRAME
 70
     0
  9
$SPLINETYPE
 70
     6
  9
$SPLINESEGS
 70
     8
  9
$HANDSEED
  5
126
  9
$SURFTAB1
 70
     6
  9
$SURFTAB2
 70
     6
  9
$SURFTYPE
 70
     6
  9
$SURFU
 70
     6
  9
$SURFV
 70
     6
  9
$UCSBASE
  2

  9
$UCSNAME
  2

  9
$UCSORG
 10
0.0
 20
0.0
 30
0.0
  9
$UCSXDIR
 10
1.0
 20
0.0
 30
0.0
  9
$UCSYDIR
 10
0.0
 20
1.0
 30
0.0
  9
$UCSORTHOREF
  2

  9
$UCSORTHOVIEW
 70
     0
  9
$UCSORGTOP
 10
0.0
 20
0.0
 30
0.0
  9
$UCSORGBOTTOM
 10
0.0
 20
0.0
 30
0.0
  9
$UCSORGLEFT
 10
0.0
 20
0.0
 30
0.0
  9
$UCSORGRIGHT
 10
0.0
 20
0.0
 30
0.0
  9
$UCSORGFRONT
 10
0.0
 20
0.0
 30
0.0
  9
$UCSORGBACK
 10
0.0
 20
0.0
 30
0.0
  9
$PUCSBASE
  2

  9
$PUCSNAME
  2

  9
$PUCSORG
 10
0.0
 20
0.0
 30
0.0
  9
$PUCSXDIR
 10
1.0
 20
0.0
 30
0.0
  9
$PUCSYDIR
 10
0.0
 20
1.0
 30
0.0
  9
$PUCSORTHOREF
  2

  9
$PUCSORTHOVIEW
 70
     0
  9
$PUCSORGTOP
 10
0.0
 20
0.0
 30
0.0
  9
$PUCSORGBOTTOM
 10
0.0
 20
0.0
 30
0.0
  9
$PUCSORGLEFT
 10
0.0
 20
0.0
 30
0.0
  9
$PUCSORGRIGHT
 10
0.0
 20
0.0
 30
0.0
  9
$PUCSORGFRONT
 10
0.0
 20
0.0
 30
0.0
  9
$PUCSORGBACK
 10
0.0
 20
0.0
 30
0.0
  9
$USERI1
 70
     0
  9
$USERI2
 70
     0
  9
$USERI3
 70
     0
  9
$USERI4
 70
     0
  9
$USERI5
 70
     0
  9
$USERR1
 40
0.0
  9
$USERR2
 40
0.0
  9
$USERR3
 40
0.0
  9
$USERR4
 40
0.0
  9
$USERR5
 40
0.0
  9
$WORLDVIEW
 70
     1
  9
$SHADEDGE
 70
     3
  9
$SHADEDIF
 70
    70
  9
$TILEMODE
 70
     1
  9
$MAXACTVP
 70
    64
  9
$PINSBASE
 10
0.0
 20
0.0
 30
0.0
  9
$PLIMCHECK
 70
     0
  9
$PEXTMIN
 10
1.0000000000E+20
 20
1.0000000000E+20
 30
1.0000000000E+20
  9
$PEXTMAX
 10
-1.0000000000E+20
 20
-1.0000000000E+20
 30
-1.0000000000E+20
  9
$PLIMMIN
 10
0.0
 20
0.0
  9
$PLIMMAX
 10
420.0
 20
297.0
  9
$UNITMODE
 70
     0
  9
$VISRETAIN
 70
     1
  9
$PLINEGEN
 70
     0
  9
$PSLTSCALE
 70
     1
  9
$TREEDEPTH
 70
  3020
  9
$CMLSTYLE
  2
Standard
  9
$CMLJUST
 70
     0
  9
$CMLSCALE
 40
20.0
  9
$PROXYGRAPHICS
 70
     1
  9
$MEASUREMENT
 70
     1
  9
$CELWEIGHT
370
    -1
  9
$ENDCAPS
280
     0
  9
$JOINSTYLE
280
     0
  9
$LWDISPLAY
290
     1
  9
$INSUNITS
 70
     4
  9
$HYPERLINKBASE
  1

  9
$STYLESHEET
  1

  9
$XEDIT
290
     1
  9
$CEPSNTYPE
380
     0
  9
$PSTYLEMODE
290
     1
  9
$FINGERPRINTGUID
  2
{1313dea2-9485-450c-a429-077f8097e080}
  9
$VERSIONGUID
  2
{FAEB1C32-E019-11D5-929B-00C0DF256EC4}
  9
$EXTNAMES
290
     1
  9
$PSVPSCALE
 40
0.0
  9
$OLESTARTUP
290
     0
  0
ENDSEC
  0
SECTION
  2
CLASSES
  0
CLASS
  1
ACDBDICTIONARYWDFLT
  2
AcDbDictionaryWithDefault
  3
ObjectDBX Classes
 90
        0
280
     0
281
     0
  0
CLASS
  1
VISUALSTYLE
  2
AcDbVisualStyle
  3
ObjectDBX Classes
 90
     4095
280
     0
281
     0
  0
CLASS
  1
MATERIAL
  2
AcDbMaterial
  3
ObjectDBX Classes
 90
     1153
280
     0
281
     0
  0
CLASS
  1
SCALE
  2
AcDbScale
  3
ObjectDBX Classes
 90
     1153
280
     0
281
     0
  0
CLASS
  1
TABLESTYLE
  2
AcDbTableStyle
  3
ObjectDBX Classes
 90
     4095
280
     0
281
     0
  0
CLASS
  1
MLEADERSTYLE
  2
AcDbMLeaderStyle
  3
ACDB_MLEADERSTYLE_CLASS
 90
     4095
280
     0
281
     0
  0
CLASS
  1
SUN
  2
AcDbSun
  3
SCENEOE
 90
     1153
280
     0
281
     0
  0
CLASS
  1
ACDBPLACEHOLDER
  2
AcDbPlaceHolder
  3
ObjectDBX Classes
 90
        0
280
     0
281
     0
  0
CLASS
  1
LAYOUT
  2
AcDbLayout
  3
ObjectDBX Classes
 90
        0
280
     0
281
     0
  0
ENDSEC
  0
SECTION
  2
TABLES
  0
TABLE
  2
VPORT
  5
8
330
0
100
AcDbSymbolTable
 70
     1
  0
VPORT
  5
29
330
8
100
AcDbSymbolTableRecord
100
AcDbViewportTableRecord
  2
*Active
 70
     0
 10
0.0
 20
0.0
 11
1.0
 21
1.0
 12
450.0
 22
325.0
 13
0.0
 23
0.0
 14
10.0
 24
10.0
 15
10.0
 25
10.0
 16
0.0
 26
0.0
 36
1.0
 17
0.0
 27
0.0
 37
0.0
 40
650.0
 41
1.3846153846
 42
50.0
 43
0.0
 44
0.0
 50
0.0
 51
0.0
 71
     0
 72
  2000
 73
     1
 74
     3
 75
     0
 76
     0
 77
     0
 78
     0
281
     0
 65
     1
110
0.0
120
0.0
130
0.0
111
1.0
121
0.0
131
0.0
112
0.0
122
1.0
132
0.0
 79
     0
146
0.0
  0
ENDTAB
  0
TABLE
  2
LTYPE
  5
5
330
0
100
AcDbSymbolTable
 70
     6
  0
LTYPE
  5
14
330
5
100
AcDbSymbolTableRecord
100
AcDbLinetypeTableRecord
  2
ByBlock
 70
     0
  3

 72
    65
 73
     0
 40
0.0
  0
LTYPE
  5
15
330
5
100
AcDbSymbolTableRecord
100
AcDbLinetypeTableRecord
  2
ByLayer
 70
     0
  3

 72
    65
 73
     0
 40
0.0
  0
LTYPE
  5
16
330
5
100
AcDbSymbolTableRecord
100
AcDbLinetypeTableRecord
  2
Continuous
 70
     0
  3
Solid line
 72
    65
 73
     0
 40
0.0
  0
LTYPE
  5
6E
330
5
100
AcDbSymbolTableRecord
100
AcDbLinetypeTableRecord
  2
HIDDEN
 70
     0
  3
Hidden __ __ __ __ __ __ __ __ __ __ __ __ __ __
 72
    65
 73
     2
 40
1.905
 49
1.27
 74
     0
 49
-0.635
 74
     0
  0
LTYPE
  5
6F
330
5
100
AcDbSymbolTableRecord
100
AcDbLinetypeTableRecord
  2
PHANTOM
 70
     0
  3
Phantom ______  __  __  ______  __  __  ______
 72
    65
 73
     6
 40
12.7
 49
6.35
 74
     0
 49
-1.27
 74
     0
 49
1.27
 74
     0
 49
-1.27
 74
     0
 49
1.27
 74
     0
 49
-1.27
 74
     0
  0
LTYPE
  5
70
330
5
100
AcDbSymbolTableRecord
100
AcDbLinetypeTableRecord
  2
CENTER
 70
     0
  3
Center ____ _ ____ _ ____ _ ____ _ ____ _ ____
 72
    65
 73
     4
 40
10.16
 49
6.35
 74
     0
 49
-1.27
 74
     0
 49
1.27
 74
     0
 49
-1.27
 74
     0
  0
LTYPE
  5
71
330
5
100
AcDbSymbolTableRecord
100
AcDbLinetypeTableRecord
  2
CENTERX2
 70
     0
  3
Center (2x) ________  __  ________  __  _____
 72
    65
 73
     4
 40
20.32
 49
12.7
 74
     0
 49
-2.54
 74
     0
 49
2.54
 74
     0
 49
-2.54
 74
     0
  0
LTYPE
  5
72
330
5
100
AcDbSymbolTableRecord
100
AcDbLinetypeTableRecord
  2
DOT2
 70
     0
  3
Dot (.5x) ........................................
 72
    65
 73
     2
 40
0.635
 49
0.0
 74
     0
 49
-0.635
 74
     0
  0
ENDTAB
  0
TABLE
  2
LAYER
  5
2
330
0
100
AcDbSymbolTable
 70
     1
  0
LAYER
  5
10
330
2
100
AcDbSymbolTableRecord
100
AcDbLayerTableRecord
  2
0
 70
     0
 62
     7
  6
Continuous
370
    -3
390
F
  0
ENDTAB
  0
TABLE
  2
STYLE
  5
3
330
0
100
AcDbSymbolTable
 70
     1
  0
STYLE
  5
11
330
3
100
AcDbSymbolTableRecord
100
AcDbTextStyleTableRecord
  2
Standard
 70
     0
 40
0.0
 41
1.0
 50
0.0
 71
     0
 42
3.5
  3
txt
  4

  0
ENDTAB
  0
TABLE
  2
VIEW
  5
6
330
0
100
AcDbSymbolTable
 70
     0
  0
ENDTAB
  0
TABLE
  2
UCS
  5
7
330
0
100
AcDbSymbolTable
 70
     0
  0
ENDTAB
  0
TABLE
  2
APPID
  5
9
330
0
100
AcDbSymbolTable
 70
     1
  0
APPID
  5
12
330
9
100
AcDbSymbolTableRecord
100
AcDbRegAppTableRecord
  2
ACAD
 70
     0
  0
ENDTAB
  0
TABLE
  2
DIMSTYLE
  5
A
330
0
100
AcDbSymbolTable
 70
     1
100
AcDbDimStyleTable
  0
DIMSTYLE
105
27
330
A
100
AcDbSymbolTableRecord
100
AcDbDimStyleTableRecord
  2
ISO-25
 70
     0
 41
2.5
 42
0.625
 43
3.75
 44
1.25
 73
     0
 74
     0
 77
     1
 78
     8
140
2.5
141
2.5
143
0.0393700787
147
0.625
171
     3
172
     1
178
     0
271
     2
272
     2
274
     3
278
    44
283
     0
284
     8
340
11
  0
ENDTAB
  0
TABLE
  2
BLOCK_RECORD
  5
1
330
0
100
AcDbSymbolTable
 70
     1
  0
BLOCK_RECORD
  5
1F
330
1
100
AcDbSymbolTableRecord
100
AcDbBlockTableRecord
  2
*Model_Space
340
22
  0
BLOCK_RECORD
  5
1B
330
1
100
AcDbSymbolTableRecord
100
AcDbBlockTableRecord
  2
*Paper_Space
340
1E
  0
BLOCK_RECORD
  5
23
330
1
100
AcDbSymbolTableRecord
100
AcDbBlockTableRecord
  2
*Paper_Space0
340
26
  0
ENDTAB
  0
ENDSEC
  0
SECTION
  2
BLOCKS
  0
BLOCK
  5
20
330
1F
100
AcDbEntity
  8
0
100
AcDbBlockBegin
  2
*Model_Space
 70
     0
 10
0.0
 20
0.0
 30
0.0
  3
*Model_Space
  1

  0
ENDBLK
  5
21
330
1F
100
AcDbEntity
  8
0
100
AcDbBlockEnd
  0
BLOCK
  5
1C
330
1B
100
AcDbEntity
 67
     1
  8
0
100
AcDbBlockBegin
  2
*Paper_Space
 70
     0
 10
0.0
 20
0.0
 30
0.0
  3
*Paper_Space
  1

  0
ENDBLK
  5
1D
330
1B
100
AcDbEntity
 67
     1
  8
0
100
AcDbBlockEnd
  0
BLOCK
  5
24
330
23
100
AcDbEntity
  8
0
100
AcDbBlockBegin
  2
*Paper_Space0
 70
     0
 10
0.0
 20
0.0
 30
0.0
  3
*Paper_Space0
  1

  0
ENDBLK
  5
25
330
23
100
AcDbEntity
  8
0
100
AcDbBlockEnd
  0
ENDSEC
  0
SECTION
  2
ENTITIES
  0
ARC
  5
73
330
1F
100
AcDbEntity
  8
0
  6
Continuous
 62
     7
370
    25
100
AcDbCircle
 10
494.782322348
 20
461.7678041755
 30
0.0
 40
26.42344685007231
100
AcDbArc
 50
0.0
 51
90.0
  0
LINE
  5
74
330
1F
100
AcDbEntity
  8
0
  6
Continuous
 62
     7
370
    25
100
AcDbLine
 10
204.782322348
 20
488.1912510256
 30
0.0
 11
494.782322348
 21
488.1912510256
 31
0.0
  0
ARC
  5
75
330
1F
100
AcDbEntity
  8
0
  6
Continuous
 62
     7
370
    25
100
AcDbCircle
 10
204.782322348
 20
461.7678041755
 30
0.0
 40
26.42344685007225
100
AcDbArc
 50
90.0
 51
180.0
  0
LINE
  5
76
330
1F
100
AcDbEntity
  8
0
  6
Continuous
 62
     7
370
    25
100
AcDbLine
 10
178.3588754979
 20
126.7678041755
 30
0.0
 11
178.3588754979
 21
461.7678041755
 31
0.0
  0
ARC
  5
77
330
1F
100
AcDbEntity
  8
0
  6
Continuous
 62
     7
370
    25
100
AcDbCircle
 10
204.782322348
 20
126.7678041755
 30
0.0
 40
26.42344685007237
100
AcDbArc
 50
180.0
 51
270.0
  0
LINE
  5
78
330
1F
100
AcDbEntity
  8
0
  6
Continuous
 62
     7
370
    25
100
AcDbLine
 10
494.782322348
 20
100.3443573254
 30
0.0
 11
204.782322348
 21
100.3443573254
 31
0.0
  0
ARC
  5
79
330
1F
100
AcDbEntity
  8
0
  6
Continuous
 62
     7
370
    25
100
AcDbCircle
 10
494.782322348
 20
126.7678041755
 30
0.0
 40
26.42344685007225
100
AcDbArc
 50
270.0
 51
0.0
  0
LINE
  5
7A
330
1F
100
AcDbEntity
  8
0
  6
Continuous
 62
     7
370
    25
100
AcDbLine
 10
521.205769198
 20
461.7678041755
 30
0.0
 11
521.205769198
 21
126.7678041755
 31
0.0
  0
LINE
  5
7B
330
1F
100
AcDbEntity
  8
0
  6
Continuous
 62
     7
370
    25
100
AcDbLine
 10
521.205769198
 20
461.7678041755
 30
0.0
 11
519.7078248959
 21
461.7678041755
 31
0.0
  0
ARC
  5
7C
330
1F
100
AcDbEntity
  8
0
  6
Continuous
 62
     7
370
    25
100
AcDbCircle
 10
494.782322348
 20
461.7678041755
 30
0.0
 40
24.92550254794048
100
AcDbArc
 50
0.0
 51
90.0
  0
LINE
  5
7D
330
1F
100
AcDbEntity
  8
0
  6
Continuous
 62
     7
370
    25
100
AcDbLine
 10
494.782322348
 20
488.1912510256
 30
0.0
 11
494.782322348
 21
486.6933067234
 31
0.0
  0
ARC
  5
7E
330
1F
100
AcDbEntity
  8
0
  6
Continuous
 62
     7
370
    25
100
AcDbCircle
 10
204.782322348
 20
461.7678041755
 30
0.0
 40
24.92550254794043
100
AcDbArc
 50
90.0
 51
180.0
  0
LINE
  5
7F
330
1F
100
AcDbEntity
  8
0
  6
Continuous
 62
     7
370
    25
100
AcDbLine
 10
179.8568198
 20
461.7678041755
 30
0.0
 11
178.3588754979
 21
461.7678041755
 31
0.0
  0
LINE
  5
80
330
1F
100
AcDbEntity
  8
0
  6
Continuous
 62
     7
370
    25
100
AcDbLine
 10
204.782322348
 20
488.1912510256
 30
0.0
 11
204.782322348
 21
486.6933067234
 31
0.0
  0
LINE
  5
81
330
1F
100
AcDbEntity
  8
0
  6
Continuous
 62
     7
370
    25
100
AcDbLine
 10
179.8568198
 20
461.7678041755
 30
0.0
 11
179.8568198
 21
126.7678041755
 31
0.0
  0
LINE
  5
82
330
1F
100
AcDbEntity
  8
0
  6
Continuous
 62
     7
370
    25
100
AcDbLine
 10
179.8568198
 20
126.7678041755
 30
0.0
 11
178.3588754979
 21
126.7678041755
 31
0.0
  0
LINE
  5
83
330
1F
100
AcDbEntity
  8
0
  6
Continuous
 62
     7
370
    25
100
AcDbLine
 10
494.782322348
 20
486.6933067234
 30
0.0
 11
204.782322348
 21
486.6933067234
 31
0.0
  0
ARC
  5
84
330
1F
100
AcDbEntity
  8
0
  6
Continuous
 62
     7
370
    25
100
AcDbCircle
 10
204.782322348
 20
126.7678041755
 30
0.0
 40
24.92550254794048
100
AcDbArc
 50
180.0
 51
270.0
  0
LINE
  5
85
330
1F
100
AcDbEntity
  8
0
  6
Continuous
 62
     7
370
    25
100
AcDbLine
 10
204.782322348
 20
101.8423016276
 30
0.0
 11
204.782322348
 21
100.3443573254
 31
0.0
  0
LINE
  5
86
330
1F
100
AcDbEntity
  8
0
  6
Continuous
 62
     7
370
    25
100
AcDbLine
 10
204.782322348
 20
101.8423016276
 30
0.0
 11
494.782322348
 21
101.8423016276
 31
0.0
  0
LINE
  5
87
330
1F
100
AcDbEntity
  8
0
  6
Continuous
 62
     7
370
    25
100
AcDbLine
 10
494.782322348
 20
101.8423016276
 30
0.0
 11
494.782322348
 21
100.3443573254
 31
0.0
  0
ARC
  5
88
330
1F
100
AcDbEntity
  8
0
  6
Continuous
 62
     7
370
    25
100
AcDbCircle
 10
494.782322348
 20
126.7678041755
 30
0.0
 40
24.92550254794048
100
AcDbArc
 50
270.0
 51
0.0
  0
LINE
  5
89
330
1F
100
AcDbEntity
  8
0
  6
Continuous
 62
     7
370
    25
100
AcDbLine
 10
521.205769198
 20
126.7678041755
 30
0.0
 11
519.7078248959
 21
126.7678041755
 31
0.0
  0
LINE
  5
8A
330
1F
100
AcDbEntity
  8
0
  6
Continuous
 62
     7
370
    25
100
AcDbLine
 10
519.7078248959
 20
126.7678041755
 30
0.0
 11
519.7078248959
 21
461.7678041755
 31
0.0
  0
LINE
  5
8B
330
1F
100
AcDbEntity
  8
0
  6
Continuous
 62
     7
370
    25
100
AcDbLine
 10
187.7088187751
 20
461.7659061755
 30
0.0
 11
187.6998747805
 21
461.7678041755
 31
0.0
  0
SPLINE
  5
8C
330
1F
100
AcDbEntity
  8
0
  6
Continuous
 62
     7
370
    25
100
AcDbSpline
210
0.0
220
0.0
230
1.0
 70
     8
 71
     3
 72
    14
 73
    10
 74
     0
 42
0.00000001
 43
0.00000001
 40
0.0
 40
0.0
 40
0.0
 40
0.0
 40
0.1421653558241425
 40
0.2843364374989546
 40
0.426500124123032
 40
0.5689494416617653
 40
0.7114078093302308
 40
0.8538541196898948
 40
1.0
 40
1.0
 40
1.0
 40
1.0
 10
187.2283763565528
 20
126.7678041754933
 30
0.0
 10
187.2907505202637
 20
142.6122831079257
 30
0.0
 10
187.415501359867
 20
174.30187912489
 30
0.0
 10
187.5614173356564
 20
221.8899191946415
 30
0.0
 10
187.6751669254563
 20
269.5408928692045
 30
0.0
 10
187.7507574867763
 20
317.2527331995084
 30
0.0
 10
187.783977641673
 20
365.0132801673168
 30
0.0
 10
187.7753763496647
 20
413.1930150039918
 30
0.0
 10
187.7311934323663
 20
445.4371592510483
 30
0.0
 10
187.7088187751442
 20
461.7659061755427
 30
0.0
  0
LINE
  5
8D
330
1F
100
AcDbEntity
  8
0
  6
Continuous
 62
     7
370
    25
100
AcDbLine
 10
179.8568198
 20
126.7678041755
 30
0.0
 11
187.2283763566
 21
126.7678041755
 31
0.0
  0
LINE
  5
8E
330
1F
100
AcDbEntity
  8
0
  6
Continuous
 62
     7
370
    25
100
AcDbLine
 10
179.8568198
 20
461.7678041755
 30
0.0
 11
187.6998747805
 21
461.7678041755
 31
0.0
  0
SPLINE
  5
8F
330
1F
100
AcDbEntity
  8
0
  6
Continuous
 62
     7
370
    25
100
AcDbSpline
210
0.0
220
0.0
230
1.0
 70
     8
 71
     3
 72
    15
 73
    11
 74
     0
 42
0.00000001
 43
0.00000001
 40
0.0
 40
0.0
 40
0.0
 40
0.0
 40
0.1277272117026998
 40
0.2500006214663419
 40
0.3758169053141816
 40
0.5000000007414304
 40
0.6241812692474737
 40
0.7499993797239389
 40
0.8722717995237487
 40
1.0
 40
1.0
 40
1.0
 40
1.0
 10
494.7823223479576
 20
478.8502517429353
 30
0.0
 10
495.9230319654288
 20
478.7813029824986
 30
0.0
 10
498.1557442393349
 20
478.6463494927235
 30
0.0
 10
501.3803181623106
 20
477.6181019696169
 30
0.0
 10
504.3278692065042
 20
476.0470360372073
 30
0.0
 10
506.9237536431663
 20
473.9092584632789
 30
0.0
 10
509.0615447759567
 20
471.3133650962683
 30
0.0
 10
510.63261105878
 20
468.3658233944257
 30
0.0
 10
511.6608657474264
 20
465.1412350124676
 30
0.0
 10
511.7958201529935
 20
462.9085226660222
 30
0.0
 10
511.8647699153996
 20
461.7678041754933
 30
0.0
  0
LINE
  5
90
330
1F
100
AcDbEntity
  8
0
  6
Continuous
 62
     7
370
    25
100
AcDbLine
 10
494.782322348
 20
486.6933067234
 30
0.0
 11
494.782322348
 21
478.8502517429
 31
0.0
  0
LINE
  5
91
330
1F
100
AcDbEntity
  8
0
  6
Continuous
 62
     7
370
    25
100
AcDbLine
 10
519.7078248959
 20
461.7678041755
 30
0.0
 11
511.8647699154
 21
461.7678041755
 31
0.0
  0
SPLINE
  5
92
330
1F
100
AcDbEntity
  8
0
  6
Continuous
 62
     7
370
    25
100
AcDbSpline
210
0.0
220
0.0
230
1.0
 70
     8
 71
     3
 72
    15
 73
    11
 74
     0
 42
0.00000001
 43
0.00000001
 40
0.0
 40
0.0
 40
0.0
 40
0.0
 40
0.1277272124220035
 40
0.2500006214662507
 40
0.3758169059605617
 40
0.5000000007414159
 40
0.6241812686443763
 40
0.749999379724005
 40
0.8722717988525043
 40
1.0
 40
1.0
 40
1.0
 40
1.0
 10
187.6998747805156
 20
461.7678041754932
 30
0.0
 10
187.7688235416772
 20
462.9085137994168
 30
0.0
 10
187.903777032111
 20
465.1412260733779
 30
0.0
 10
188.9320245586229
 20
468.3658000010435
 30
0.0
 10
190.5030904895546
 20
471.3133510390387
 30
0.0
 10
192.6408680612325
 20
473.9092354701869
 30
0.0
 10
195.2367614225184
 20
476.047026600404
 30
0.0
 10
198.1843031185769
 20
477.6180928818468
 30
0.0
 10
201.4088915049104
 20
478.6463475736708
 30
0.0
 10
203.6416038514072
 20
478.7813019798527
 30
0.0
 10
204.7823223479574
 20
478.8502517429353
 30
0.0
  0
LINE
  5
93
330
1F
100
AcDbEntity
  8
0
  6
Continuous
 62
     7
370
    25
100
AcDbLine
 10
204.782322348
 20
486.6933067234
 30
0.0
 11
204.782322348
 21
478.8502517429
 31
0.0
  0
SPLINE
  5
94
330
1F
100
AcDbEntity
  8
0
  6
Continuous
 62
     7
370
    25
100
AcDbSpline
210
0.0
220
0.0
230
1.0
 70
     8
 71
     3
 72
    15
 73
    11
 74
     0
 42
0.00000001
 43
0.00000001
 40
0.0
 40
0.0
 40
0.0
 40
0.0
 40
0.1277272255748725
 40
0.2500006214609053
 40
0.3758169311157534
 40
0.5000000007328536
 40
0.6241812950806354
 40
0.749999379718494
 40
0.8722718134307307
 40
1.0
 40
1.0
 40
1.0
 40
1.0
 10
512.3362683393624
 20
126.7678041754933
 30
0.0
 10
512.2654164863781
 20
125.5956093174005
 30
0.0
 10
512.1267380863887
 20
123.3012711942831
 30
0.0
 10
511.0701094510977
 20
119.9876945036322
 30
0.0
 10
509.4556799898821
 20
116.9587872390238
 30
0.0
 10
507.2588966956375
 20
114.2912527865266
 30
0.0
 10
504.5913533256956
 20
112.0944559532106
 30
0.0
 10
501.5624553914316
 20
110.4800261430869
 30
0.0
 10
498.2488642632072
 20
109.4233903523708
 30
0.0
 10
495.9545260678506
 20
109.2847110377688
 30
0.0
 10
494.7823223479576
 20
109.2138581840885
 30
0.0
  0
LINE
  5
95
330
1F
100
AcDbEntity
  8
0
  6
Continuous
 62
     7
370
    25
100
AcDbLine
 10
519.7078248959
 20
126.7678041755
 30
0.0
 11
512.3362683394
 21
126.7678041755
 31
0.0
  0
LINE
  5
96
330
1F
100
AcDbEntity
  8
0
  6
Continuous
 62
     7
370
    25
100
AcDbLine
 10
494.782322348
 20
101.8423016276
 30
0.0
 11
494.782322348
 21
109.2138581841
 31
0.0
  0
LINE
  5
97
330
1F
100
AcDbEntity
  8
0
  6
Continuous
 62
     7
370
    25
100
AcDbLine
 10
204.7864986172
 20
109.2267457273
 30
0.0
 11
204.782322348
 21
109.2138581841
 31
0.0
  0
SPLINE
  5
98
330
1F
100
AcDbEntity
  8
0
  6
Continuous
 62
     7
370
    25
100
AcDbSpline
210
0.0
220
0.0
230
1.0
 70
     8
 71
     3
 72
    13
 73
     9
 74
     0
 42
0.00000001
 43
0.00000001
 40
0.0
 40
0.0
 40
0.0
 40
0.0
 40
0.1664861396825427
 40
0.3329812993316087
 40
0.4994660550566636
 40
0.6663067480585367
 40
0.8331579135514221
 40
1.0
 40
1.0
 40
1.0
 40
1.0
 10
494.7781460723241
 20
109.2267457273582
 30
0.0
 10
478.6929963498752
 20
109.2618278860912
 30
0.0
 10
446.5218254359632
 20
109.3319941042553
 30
0.0
 10
398.2343637008527
 20
109.3893580666636
 30
0.0
 10
349.9028094606527
 20
109.4103988892426
 30
0.0
 10
301.5367888161778
 20
109.3895534293255
 30
0.0
 10
253.1460175472629
 20
109.3321957198496
 30
0.0
 10
220.906045868138
 20
109.261895087271
 30
0.0
 10
204.7864986172039
 20
109.2267457273429
 30
0.0
  0
LINE
  5
99
330
1F
100
AcDbEntity
  8
0
  6
Continuous
 62
     7
370
    25
100
AcDbLine
 10
494.782322348
 20
109.2138581841
 30
0.0
 11
494.7781460723
 21
109.2267457274
 31
0.0
  0
LINE
  5
9A
330
1F
100
AcDbEntity
  8
0
  6
Continuous
 62
     7
370
    25
100
AcDbLine
 10
204.782322348
 20
101.8423016276
 30
0.0
 11
204.782322348
 21
109.2138581841
 31
0.0
  0
SPLINE
  5
9B
330
1F
100
AcDbEntity
  8
0
  6
Continuous
 62
     7
370
    25
100
AcDbSpline
210
0.0
220
0.0
230
1.0
 70
     8
 71
     3
 72
    15
 73
    11
 74
     0
 42
0.00000001
 43
0.00000001
 40
0.0
 40
0.0
 40
0.0
 40
0.0
 40
0.1277272255720579
 40
0.2500006214609062
 40
0.3758169317197239
 40
0.500000000732819
 40
0.6241812956716641
 40
0.749999379718506
 40
0.872271813413547
 40
1.0
 40
1.0
 40
1.0
 40
1.0
 10
204.7823223479576
 20
109.2138581840885
 30
0.0
 10
203.6101274898895
 20
109.2847100370734
 30
0.0
 10
201.3157893667696
 20
109.4233884370662
 30
0.0
 10
198.0022126708093
 20
110.4800170740019
 30
0.0
 10
194.9733054067221
 20
112.0944465367922
 30
0.0
 10
192.3057709512653
 20
114.2912298355561
 30
0.0
 10
190.108974122519
 20
116.9587732024187
 30
0.0
 10
188.4945443140008
 20
119.9876711370765
 30
0.0
 10
187.4379085248594
 20
123.301262260088
 30
0.0
 10
187.2992292102475
 20
125.5956004554433
 30
0.0
 10
187.2283763565528
 20
126.7678041754933
 30
0.0
  0
LINE
  5
9C
330
1F
100
AcDbEntity
  8
0
  6
Continuous
 62
     7
370
    25
100
AcDbLine
 10
325.532322348
 20
485.0446165149
 30
0.0
 11
325.532322348
 21
483.8932254775
 31
0.0
  0
ARC
  5
9D
330
1F
100
AcDbEntity
  8
0
  6
Continuous
 62
     7
370
    25
100
AcDbCircle
 10
326.283007111
 20
488.6569721408
 30
0.0
 40
4.822531481011485
100
AcDbArc
 50
261.0448095014
 51
272.9633983002
  0
LINE
  5
9E
330
1F
100
AcDbEntity
  8
0
  6
Continuous
 62
     7
370
    25
100
AcDbLine
 10
326.532322348
 20
483.8408895213
 30
0.0
 11
373.032322348
 21
483.8408895213
 31
0.0
  0
ARC
  5
9F
330
1F
100
AcDbEntity
  8
0
  6
Continuous
 62
     7
370
    25
100
AcDbCircle
 10
373.2816375849
 20
488.6569721408
 30
0.0
 40
4.822531481001298
100
AcDbArc
 50
267.0366016998
 51
278.9551904986
  0
LINE
  5
A0
330
1F
100
AcDbEntity
  8
0
  6
Continuous
 62
     7
370
    25
100
AcDbLine
 10
374.032322348
 20
483.8932254775
 30
0.0
 11
374.032322348
 21
485.0446165149
 31
0.0
  0
ARC
  5
A1
330
1F
100
AcDbEntity
  8
0
  6
Continuous
 62
     7
370
    25
100
AcDbCircle
 10
373.2816375849
 20
480.2808698516
 30
0.0
 40
4.822531481011654
100
AcDbArc
 50
81.0448095014
 51
92.9633983002
  0
LINE
  5
A2
330
1F
100
AcDbEntity
  8
0
  6
Continuous
 62
     7
370
    25
100
AcDbLine
 10
373.032322348
 20
485.0969524711
 30
0.0
 11
326.532322348
 21
485.0969524711
 31
0.0
  0
ARC
  5
A3
330
1F
100
AcDbEntity
  8
0
  6
Continuous
 62
     7
370
    25
100
AcDbCircle
 10
326.283007111
 20
480.2808698516
 30
0.0
 40
4.822531481001973
100
AcDbArc
 50
87.0366016998
 51
98.9551904986
  0
SPLINE
  5
A4
330
1F
100
AcDbEntity
  8
0
  6
Continuous
 62
     7
370
    25
100
AcDbSpline
210
0.0
220
0.0
230
1.0
 70
     8
 71
     3
 72
    14
 73
    10
 74
     0
 42
0.00000001
 43
0.00000001
 40
0.0
 40
0.0
 40
0.0
 40
0.0
 40
0.1416418592737026
 40
0.283282754464818
 40
0.4250451509087888
 40
0.5668053210537427
 40
0.6750778940077848
 40
0.7833514471234172
 40
1.0
 40
1.0
 40
1.0
 40
1.0
 10
204.7823223479574
 20
478.8502517429353
 30
0.0
 10
218.465199031195
 20
478.8151753222842
 30
0.0
 10
245.8308592654335
 20
478.7450227197291
 30
0.0
 10
286.9183011820826
 20
478.6727456952162
 30
0.0
 10
328.0323935108416
 20
478.6305995373446
 30
0.0
 10
365.9282741999881
 20
478.6286948608306
 30
0.0
 10
400.5784557649541
 20
478.6590085196046
 30
0.0
 10
442.4606401316034
 20
478.7202422300866
 30
0.0
 10
473.8516892890723
 20
478.7982430671373
 30
0.0
 10
494.7823223479576
 20
478.8502517429353
 30
0.0
  0
SPLINE
  5
A5
330
1F
100
AcDbEntity
  8
0
  6
Continuous
 62
     7
370
    25
100
AcDbSpline
210
0.0
220
0.0
230
1.0
 70
     8
 71
     3
 72
    15
 73
    11
 74
     0
 42
0.00000001
 43
0.00000001
 40
0.0
 40
0.0
 40
0.0
 40
0.0
 40
0.1203969716547336
 40
0.2407933190589452
 40
0.3612955072028615
 40
0.4817982483628453
 40
0.6113057324163225
 40
0.74081386611472
 40
0.8704068237473351
 40
1.0
 40
1.0
 40
1.0
 40
1.0
 10
511.8558259207859
 20
461.7659061848835
 30
0.0
 10
511.8369028153452
 20
448.3144119601034
 30
0.0
 10
511.799056702579
 20
421.4114932556716
 30
0.0
 10
511.7806924923213
 20
381.0306794871329
 30
0.0
 10
511.7933851348155
 20
340.6381800091315
 30
0.0
 10
511.8391346660162
 20
299.2357240425279
 30
0.0
 10
511.9172168190777
 20
256.8437544986462
 30
0.0
 10
512.0280684780674
 20
213.4617525359411
 30
0.0
 10
512.1650902735789
 20
170.096840546168
 30
0.0
 10
512.2792089520154
 20
141.210824420708
 30
0.0
 10
512.3362683393624
 20
126.7678041754933
 30
0.0
  0
LINE
  5
A6
330
1F
100
AcDbEntity
  8
0
  6
Continuous
 62
     7
370
    25
100
AcDbLine
 10
511.8647699154
 20
461.7678041755
 30
0.0
 11
511.8558259208
 21
461.7659061849
 31
0.0
  0
LINE
  5
A7
330
1F
100
AcDbEntity
  8
0
  6
Continuous
 62
     7
370
    25
100
AcDbLine
 10
326.532322348
 20
483.8408895213
 30
0.0
 11
326.532322348
 21
484.6397931491
 31
0.0
  0
ARC
  5
A8
330
1F
100
AcDbEntity
  8
0
  6
Continuous
 62
     7
370
    25
100
AcDbCircle
 10
326.283007111
 20
489.4558757686
 30
0.0
 40
4.822531481011373
100
AcDbArc
 50
261.0448095014
 51
272.9633983002
  0
LINE
  5
A9
330
1F
100
AcDbEntity
  8
0
  6
Continuous
 62
     7
370
    25
100
AcDbLine
 10
373.032322348
 20
483.8408895213
 30
0.0
 11
373.032322348
 21
484.6397931491
 31
0.0
  0
ARC
  5
AA
330
1F
100
AcDbEntity
  8
0
  6
Continuous
 62
     7
370
    25
100
AcDbCircle
 10
373.2816375849
 20
489.4558757686
 30
0.0
 40
4.822531481001298
100
AcDbArc
 50
267.0366016998
 51
278.9551904986
  0
LINE
  5
AB
330
1F
100
AcDbEntity
  8
0
  6
Continuous
 62
     7
370
    25
100
AcDbLine
 10
326.532322348
 20
484.6397931491
 30
0.0
 11
373.032322348
 21
484.6397931491
 31
0.0
  0
LINE
  5
AC
330
1F
100
AcDbEntity
  8
0
  6
Continuous
 62
     7
370
    25
100
AcDbLine
 10
187.2283763566
 20
126.7678041755
 30
0.0
 11
187.2851954086
 21
126.7222996885
 31
0.0
  0
SPLINE
  5
AD
330
1F
100
AcDbEntity
  8
0
  6
Continuous
 62
     7
370
    25
100
AcDbSpline
210
0.0
220
0.0
230
1.0
 70
     8
 71
     3
 72
    20
 73
    16
 74
     0
 42
0.00000001
 43
0.00000001
 40
0.0
 40
0.0
 40
0.0
 40
0.0
 40
0.1238994817808225
 40
0.2498468348127874
 40
0.3327161568940991
 40
0.4158493426865202
 40
0.5003138827337009
 40
0.56106433309887
 40
0.6244975982562698
 40
0.6852560657042472
 40
0.7501883124678863
 40
0.8087829264722677
 40
0.8744877433555923
 40
0.9261458689734472
 40
1.0
 40
1.0
 40
1.0
 40
1.0
 10
187.7088187751443
 20
461.7659061755427
 30
0.0
 10
187.874803396588
 20
461.759757636236
 30
0.0
 10
188.2095161145045
 20
461.7473589315572
 30
0.0
 10
189.6321248059635
 20
461.4024969557929
 30
0.0
 10
191.337088390017
 20
460.9369447588483
 30
0.0
 10
193.1257039596722
 20
460.420140674775
 30
0.0
 10
195.0147437624233
 20
459.8528643178178
 30
0.0
 10
196.9191491868453
 20
459.2662801058028
 30
0.0
 10
198.7276337639418
 20
458.6998207640853
 30
0.0
 10
200.6830602147793
 20
458.0779515302156
 30
0.0
 10
202.6781590836723
 20
457.4364693997394
 30
0.0
 10
204.7994769257606
 20
456.7471367031842
 30
0.0
 10
206.8275790599798
 20
456.0841893189232
 30
0.0
 10
209.0696892903953
 20
455.3459755531666
 30
0.0
 10
210.5638035340318
 20
454.8529335010759
 30
0.0
 10
211.4429727249004
 20
454.5628168758934
 30
0.0
  0
SPLINE
  5
AE
330
1F
100
AcDbEntity
  8
0
  6
Continuous
 62
     7
370
    25
100
AcDbSpline
210
0.0
220
0.0
230
1.0
 70
     8
 71
     3
 72
    14
 73
    10
 74
     0
 42
0.00000001
 43
0.00000001
 40
0.0
 40
0.0
 40
0.0
 40
0.0
 40
0.1285392505246245
 40
0.2736230611079025
 40
0.4187183190146122
 40
0.5638047450221954
 40
0.7092001461728284
 40
0.8546029035485716
 40
1.0
 40
1.0
 40
1.0
 40
1.0
 10
211.4429727249004
 20
454.5628168758934
 30
0.0
 10
211.4443059968952
 20
440.7473194652423
 30
0.0
 10
211.4471441491562
 20
411.3381026166779
 30
0.0
 10
211.4483485896302
 20
366.3187247556144
 30
0.0
 10
211.4515928695066
 20
319.5252895413103
 30
0.0
 10
211.4366589272481
 20
272.7139322985782
 30
0.0
 10
211.3827504122493
 20
225.8962667118424
 30
0.0
 10
211.2886578538341
 20
179.0745620691842
 30
0.0
 10
211.19178714774
 20
147.8937404892348
 30
0.0
 10
211.1433527375712
 20
132.3036331936892
 30
0.0
  0
SPLINE
  5
AF
330
1F
100
AcDbEntity
  8
0
  6
Continuous
 62
     7
370
    25
100
AcDbSpline
210
0.0
220
0.0
230
1.0
 70
     8
 71
     3
 72
    17
 73
    13
 74
     0
 42
0.00000001
 43
0.00000001
 40
0.0
 40
0.0
 40
0.0
 40
0.0
 40
0.1266199350159332
 40
0.2500906723957799
 40
0.3749952093690984
 40
0.5003472215493805
 40
0.6244895802648511
 40
0.7500856353975303
 40
0.8087095798011519
 40
0.8744284842896032
 40
0.9260769690972791
 40
1.0
 40
1.0
 40
1.0
 40
1.0
 10
187.2851954086385
 20
126.7222996884696
 30
0.0
 10
187.5024985567332
 20
126.6630684705545
 30
0.0
 10
187.9317002492934
 20
126.5460791898907
 30
0.0
 10
189.6232078013344
 20
126.7163975639583
 30
0.0
 10
191.98379494601
 20
127.129684555939
 30
0.0
 10
195.0084780667307
 20
127.7970612836294
 30
0.0
 10
198.5594573094834
 20
128.6839193600853
 30
0.0
 10
201.8144153364622
 20
129.5666654409612
 30
0.0
 10
204.5847000923272
 20
130.3526362025623
 30
0.0
 10
206.5884132439275
 20
130.9349819010808
 30
0.0
 10
208.8020357198049
 20
131.5923906451693
 30
0.0
 10
210.2757738829319
 20
132.0400811027415
 30
0.0
 10
211.1433527375713
 20
132.3036331936973
 30
0.0
  0
SPLINE
  5
B0
330
1F
100
AcDbEntity
  8
0
  6
Continuous
 62
     7
370
    25
100
AcDbSpline
210
0.0
220
0.0
230
1.0
 70
     8
 71
     3
 72
    20
 73
    16
 74
     0
 42
0.00000001
 43
0.00000001
 40
0.0
 40
0.0
 40
0.0
 40
0.0
 40
0.1265688428652103
 40
0.2499873607253526
 40
0.3327598806448901
 40
0.4158800365020204
 40
0.5003308538271435
 40
0.5611043053137742
 40
0.624537846098288
 40
0.6852967388849941
 40
0.7501963666869377
 40
0.808793912891766
 40
0.8744838204705034
 40
0.9261733936587782
 40
1.0
 40
1.0
 40
1.0
 40
1.0
 10
204.7864986172043
 20
109.2267457273429
 30
0.0
 10
204.778164983515
 20
109.3926342127194
 30
0.0
 10
204.7617051420242
 20
109.7202821843313
 30
0.0
 10
205.0407209639709
 20
111.0972460055785
 30
0.0
 10
205.4291391635954
 20
112.7256304937187
 30
0.0
 10
205.8740936494408
 20
114.4506827074961
 30
0.0
 10
206.3698582566532
 20
116.2767787109858
 30
0.0
 10
206.88767032447
 20
118.1215010708864
 30
0.0
 10
207.3912857560706
 20
119.8765739886536
 30
0.0
 10
207.9474603913762
 20
121.777304487429
 30
0.0
 10
208.5244587577332
 20
123.7204338322935
 30
0.0
 10
209.1476929047718
 20
125.7905132731367
 30
0.0
 10
209.7503282619635
 20
127.7744638458144
 30
0.0
 10
210.424102365797
 20
129.9715315211302
 30
0.0
 10
210.8769783422011
 20
131.4399392738131
 30
0.0
 10
211.1433527375716
 20
132.3036331936891
 30
0.0
  0
SPLINE
  5
B1
330
1F
100
AcDbEntity
  8
0
  6
Continuous
 62
     7
370
    25
100
AcDbSpline
210
0.0
220
0.0
230
1.0
 70
     8
 71
     3
 72
    13
 73
     9
 74
     0
 42
0.00000001
 43
0.00000001
 40
0.0
 40
0.0
 40
0.0
 40
0.0
 40
0.1532153516038963
 40
0.3335117285126598
 40
0.5138077669700617
 40
0.694287912504337
 40
0.8747684420969073
 40
1.0
 40
1.0
 40
1.0
 40
1.0
 10
211.1433527375712
 20
132.3036331936892
 30
0.0
 10
225.2978278713638
 20
132.3239215559878
 30
0.0
 10
256.108601195599
 20
132.3680842766818
 30
0.0
 10
303.6038900410546
 20
132.4006668074377
 30
0.0
 10
353.6293643614499
 20
132.4108559502045
 30
0.0
 10
403.6708935211814
 20
132.3969636188467
 30
0.0
 10
448.6106959534699
 20
132.3619376776956
 30
0.0
 10
476.8523942336128
 20
132.3205763867096
 30
0.0
 10
488.4212919583439
 20
132.3036331936892
 30
0.0
  0
SPLINE
  5
B2
330
1F
100
AcDbEntity
  8
0
  6
Continuous
 62
     7
370
    25
100
AcDbSpline
210
0.0
220
0.0
230
1.0
 70
     8
 71
     3
 72
    17
 73
    13
 74
     0
 42
0.00000001
 43
0.00000001
 40
0.0
 40
0.0
 40
0.0
 40
0.0
 40
0.1266242002821653
 40
0.2500966973960829
 40
0.375001139174684
 40
0.5003518892706058
 40
0.6244925771319283
 40
0.7500871058679428
 40
0.8087091135101017
 40
0.8744289188915384
 40
0.9261485744346062
 40
1.0
 40
1.0
 40
1.0
 40
1.0
 10
494.7781460723241
 20
109.2267457273583
 30
0.0
 10
494.7864112795314
 20
109.3928669862487
 30
0.0
 10
494.8027359711878
 20
109.7209747107055
 30
0.0
 10
494.4894366556283
 20
111.2686595521741
 30
0.0
 10
493.9456573490361
 20
113.4978793183521
 30
0.0
 10
493.1640031132338
 20
116.4074192006865
 30
0.0
 10
492.1823101252946
 20
119.8627685294667
 30
0.0
 10
491.2397480664677
 20
123.0573187322855
 30
0.0
 10
490.4169985793824
 20
125.7904136914706
 30
0.0
 10
489.8142854180059
 20
127.7745527357897
 30
0.0
 10
489.1405202019849
 20
129.9716129406879
 30
0.0
 10
488.6876411883566
 20
131.4400244516069
 30
0.0
 10
488.4212919583439
 20
132.3036331936892
 30
0.0
  0
SPLINE
  5
B3
330
1F
100
AcDbEntity
  8
0
  6
Continuous
 62
     7
370
    25
100
AcDbSpline
210
0.0
220
0.0
230
1.0
 70
     8
 71
     3
 72
    19
 73
    15
 74
     0
 42
0.00000001
 43
0.00000001
 40
0.0
 40
0.0
 40
0.0
 40
0.0
 40
0.0609285033155404
 40
0.1075851967377208
 40
0.1526973776839476
 40
0.2035645507327381
 40
0.2498915470303151
 40
0.335502290193482
 40
0.4181341588157992
 40
0.4997559269722094
 40
0.6250820973863697
 40
0.7499608846711024
 40
0.873406167974859
 40
1.0
 40
1.0
 40
1.0
 40
1.0
 10
488.421291958344
 20
132.3036331936892
 30
0.0
 10
489.136538893455
 20
132.0861222943422
 30
0.0
 10
490.3994942926949
 20
131.7020499533946
 30
0.0
 10
492.1731782314877
 20
131.1729442158416
 30
0.0
 10
493.8109627142184
 20
130.6915758190012
 30
0.0
 10
495.4183664239854
 20
130.2279411387263
 30
0.0
 10
497.4384236557908
 20
129.6563690282724
 30
0.0
 10
499.7269388193845
 20
129.0294434282918
 30
0.0
 10
502.227889752825
 20
128.3768996219134
 30
0.0
 10
504.8987454991879
 20
127.7215145767049
 30
0.0
 10
507.5810999642283
 20
127.1296165867733
 30
0.0
 10
509.9413711845636
 20
126.7164154987174
 30
0.0
 10
511.6329612827479
 20
126.5460746511738
 30
0.0
 10
512.0621517979488
 20
126.6630669491855
 30
0.0
 10
512.2794492872503
 20
126.7222996948433
 30
0.0
  0
SPLINE
  5
B4
330
1F
100
AcDbEntity
  8
0
  6
Continuous
 62
     7
370
    25
100
AcDbSpline
210
0.0
220
0.0
230
1.0
 70
     8
 71
     3
 72
    15
 73
    11
 74
     0
 42
0.00000001
 43
0.00000001
 40
0.0
 40
0.0
 40
0.0
 40
0.0
 40
0.1297941873541709
 40
0.2595881683953805
 40
0.3894568310387371
 40
0.5193249251085723
 40
0.6394460709200768
 40
0.7595667430326071
 40
0.8797831318606987
 40
1.0
 40
1.0
 40
1.0
 40
1.0
 10
488.4212919583439
 20
132.3036331936891
 30
0.0
 10
488.3775624913167
 20
146.2203961480998
 30
0.0
 10
488.2901036267718
 20
174.0538999356795
 30
0.0
 10
488.19936106969
 20
215.8531848758097
 30
0.0
 10
488.1419311069931
 20
257.6846596294455
 30
0.0
 10
488.1181093519683
 20
298.4998803574881
 30
0.0
 10
488.1168863061417
 20
338.2826576195257
 30
0.0
 10
488.1211006201119
 20
377.0357330000695
 30
0.0
 10
488.1159731966879
 20
415.8000507083037
 30
0.0
 10
488.1197723770479
 20
441.641877647867
 30
0.0
 10
488.1216719710147
 20
454.5628168758934
 30
0.0
  0
SPLINE
  5
B5
330
1F
100
AcDbEntity
  8
0
  6
Continuous
 62
     7
370
    25
100
AcDbSpline
210
0.0
220
0.0
230
1.0
 70
     8
 71
     3
 72
    19
 73
    15
 74
     0
 42
0.00000001
 43
0.00000001
 40
0.0
 40
0.0
 40
0.0
 40
0.0
 40
0.0608916764531288
 40
0.1075592781701928
 40
0.152703816905354
 40
0.2035793155923101
 40
0.2499014344020634
 40
0.3355488354048991
 40
0.4181785294456964
 40
0.4997722410757716
 40
0.6250900273305254
 40
0.7500927226125496
 40
0.8760709826323866
 40
1.0
 40
1.0
 40
1.0
 40
1.0
 10
488.1216719710148
 20
454.5628168758933
 30
0.0
 10
488.8464129510552
 20
454.8020247801609
 30
0.0
 10
490.1265980471825
 20
455.2245624899812
 30
0.0
 10
491.9234488887686
 20
455.8164344260128
 30
0.0
 10
493.5821343055675
 20
456.3606458325444
 30
0.0
 10
495.2085720849639
 20
456.8913565185497
 30
0.0
 10
497.2505237443094
 20
457.5542082194852
 30
0.0
 10
499.5601688094313
 20
458.2957173609961
 30
0.0
 10
502.0771008710704
 20
459.0903789190007
 30
0.0
 10
504.7546177112019
 20
459.9175615330816
 30
0.0
 10
507.4263070468785
 20
460.7134914325176
 30
0.0
 10
509.7553292461537
 20
461.3596965428306
 30
0.0
 10
511.3544339544277
 20
461.7471509512989
 30
0.0
 10
511.6896114183993
 20
461.7596887102796
 30
0.0
 10
511.8558259207861
 20
461.7659061848834
 30
0.0
  0
LINE
  5
B6
330
1F
100
AcDbEntity
  8
0
  6
Continuous
 62
     7
370
    25
100
AcDbLine
 10
512.2794492873
 20
126.7222996948
 30
0.0
 11
512.3362683394
 21
126.7678041755
 31
0.0
  0
SPLINE
  5
B7
330
1F
100
AcDbEntity
  8
0
  6
Continuous
 62
     7
370
    25
100
AcDbSpline
210
0.0
220
0.0
230
1.0
 70
     8
 71
     3
 72
    15
 73
    11
 74
     0
 42
0.00000001
 43
0.00000001
 40
0.0
 40
0.0
 40
0.0
 40
0.0
 40
0.1250485637390564
 40
0.25005604043316
 40
0.3750352282041687
 40
0.5000000004149753
 40
0.6249647726227974
 40
0.7499439603618171
 40
0.8749514375442708
 40
1.0
 40
1.0
 40
1.0
 40
1.0
 10
204.7864986172039
 20
109.2267457273432
 30
0.0
 10
203.6455825184422
 20
109.2964228458711
 30
0.0
 10
201.3641251902468
 20
109.4357541892063
 30
0.0
 10
198.0724070316006
 20
110.4831490964936
 30
0.0
 10
195.0366255543511
 20
112.1028949241394
 30
0.0
 10
192.3735141045276
 20
114.2943022409177
 30
0.0
 10
190.1801619080103
 20
116.9577632091948
 30
0.0
 10
188.5562028973384
 20
119.9962271338175
 30
0.0
 10
187.5026285013566
 20
123.292697337597
 30
0.0
 10
187.3576810447062
 20
125.5789736898617
 30
0.0
 10
187.2851954086385
 20
126.7222996884696
 30
0.0
  0
SPLINE
  5
B8
330
1F
100
AcDbEntity
  8
0
  6
Continuous
 62
     7
370
    25
100
AcDbSpline
210
0.0
220
0.0
230
1.0
 70
     8
 71
     3
 72
    15
 73
    11
 74
     0
 42
0.00000001
 43
0.00000001
 40
0.0
 40
0.0
 40
0.0
 40
0.0
 40
0.1250485647648286
 40
0.2500560396443414
 40
0.3750352273637312
 40
0.499999999557935
 40
0.6249647717823642
 40
0.7499439595730043
 40
0.8749514385700528
 40
1.0
 40
1.0
 40
1.0
 40
1.0
 10
494.7781460723268
 20
109.2267457273584
 30
0.0
 10
495.9190621809153
 20
109.2964228469308
 30
0.0
 10
498.2005195028493
 20
109.4357541907719
 30
0.0
 10
501.4922376543882
 20
110.4831490962764
 30
0.0
 10
504.5280191196213
 20
112.1028949124628
 30
0.0
 10
507.1911305729182
 20
114.2943022261866
 30
0.0
 10
509.3844827740688
 20
116.9577631929091
 30
0.0
 10
511.0084417973852
 20
119.9962271317546
 30
0.0
 10
512.0620161959306
 20
123.2926973450476
 30
0.0
 10
512.2069636521975
 20
125.5789737052511
 30
0.0
 10
512.2794492872503
 20
126.7222996948433
 30
0.0
  0
LINE
  5
B9
330
1F
100
AcDbEntity
  8
0
  6
Continuous
 62
     7
370
    25
100
AcDbLine
 10
204.7631265118
 20
478.8161673342
 30
0.0
 11
204.782322348
 21
478.8502517429
 31
0.0
  0
LINE
  5
BA
330
1F
100
AcDbEntity
  8
0
  6
Continuous
 62
     7
370
    25
100
AcDbLine
 10
494.8015181935
 20
478.8161673342
 30
0.0
 11
494.782322348
 21
478.8502517429
 31
0.0
  0
SPLINE
  5
BB
330
1F
100
AcDbEntity
  8
0
  6
Continuous
 62
     7
370
    25
100
AcDbSpline
210
0.0
220
0.0
230
1.0
 70
     8
 71
     3
 72
    19
 73
    15
 74
     0
 42
0.00000001
 43
0.00000001
 40
0.0
 40
0.0
 40
0.0
 40
0.0
 40
0.0571951907011247
 40
0.1012386229203416
 40
0.1527044771278955
 40
0.2035799468192277
 40
0.2499049111694469
 40
0.3355521358503266
 40
0.4181835141861062
 40
0.4997809440829024
 40
0.625100831480302
 40
0.750103637605327
 40
0.8760744652838686
 40
1.0
 40
1.0
 40
1.0
 40
1.0
 10
488.1216719710148
 20
454.5628168758934
 30
0.0
 10
488.3449121492434
 20
455.2448900489277
 30
0.0
 10
488.7400595024965
 20
456.4521969557223
 30
0.0
 10
489.3246158889582
 20
458.2582739755792
 30
0.0
 10
489.8737143984904
 20
459.9713822159066
 30
0.0
 10
490.4152429847797
 20
461.6822586279341
 30
0.0
 10
491.0592953845178
 20
463.7424061070614
 30
0.0
 10
491.7739340751524
 20
466.0782949469424
 30
0.0
 10
492.5305301407511
 20
468.6327116693459
 30
0.0
 10
493.3064418625964
 20
471.3610179170407
 30
0.0
 10
494.0339618384766
 20
474.1008205861503
 30
0.0
 10
494.5917589236777
 20
476.5182329320853
 30
0.0
 10
494.8832205107551
 20
478.2136931765203
 30
0.0
 10
494.8286032931743
 20
478.6164413879055
 30
0.0
 10
494.8015181934612
 20
478.8161673341882
 30
0.0
  0
SPLINE
  5
BC
330
1F
100
AcDbEntity
  8
0
  6
Continuous
 62
     7
370
    25
100
AcDbSpline
210
0.0
220
0.0
230
1.0
 70
     8
 71
     3
 72
    14
 73
    10
 74
     0
 42
0.00000001
 43
0.00000001
 40
0.0
 40
0.0
 40
0.0
 40
0.0
 40
0.214532213421905
 40
0.3218404806755493
 40
0.4291479606400776
 40
0.5717931378587127
 40
0.7144401314222915
 40
0.857219584373937
 40
1.0
 40
1.0
 40
1.0
 40
1.0
 10
488.1216719710147
 20
454.5628168758933
 30
0.0
 10
468.346669773894
 20
454.5425133866914
 30
0.0
 10
438.6802802328277
 20
454.5120541627832
 30
0.0
 10
399.095947851108
 20
454.5466817442584
 30
0.0
 10
366.1352590904965
 20
454.5884760243887
 30
0.0
 10
329.9078600678649
 20
454.5811547352687
 30
0.0
 10
290.414970722365
 20
454.5323883264011
 30
0.0
 10
250.922962639292
 20
454.5183870471054
 30
0.0
 10
224.6029989394976
 20
454.5480068996794
 30
0.0
 10
211.4429727249004
 20
454.5628168758934
 30
0.0
  0
SPLINE
  5
BD
330
1F
100
AcDbEntity
  8
0
  6
Continuous
 62
     7
370
    25
100
AcDbSpline
210
0.0
220
0.0
230
1.0
 70
     8
 71
     3
 72
    19
 73
    15
 74
     0
 42
0.00000001
 43
0.00000001
 40
0.0
 40
0.0
 40
0.0
 40
0.0
 40
0.0572170919384315
 40
0.1012397191517095
 40
0.1527050890721181
 40
0.2035808683506698
 40
0.2499049067935506
 40
0.3355531512428716
 40
0.4181845737194117
 40
0.4997809419083349
 40
0.6251008305048593
 40
0.7501036373913962
 40
0.8760750143916407
 40
1.0
 40
1.0
 40
1.0
 40
1.0
 10
211.4429727249004
 20
454.5628168758934
 30
0.0
 10
211.2196477888667
 20
455.2451514664596
 30
0.0
 10
210.8244974406462
 20
456.452471866293
 30
0.0
 10
210.2399396925475
 20
458.2585503965182
 30
0.0
 10
209.6909209227081
 20
459.9714130782662
 30
0.0
 10
209.1493960099587
 20
461.6822761083186
 30
0.0
 10
208.5053429708854
 20
463.7424277459566
 30
0.0
 10
207.7907033881116
 20
466.0783172928558
 30
0.0
 10
207.0341094080024
 20
468.6327319770868
 30
0.0
 10
206.2582004555954
 20
471.3610266438956
 30
0.0
 10
205.5306832536343
 20
474.1008206249977
 30
0.0
 10
204.972884493401
 20
476.5182364573081
 30
0.0
 10
204.6814262470369
 20
478.213695119072
 30
0.0
 10
204.7360421727558
 20
478.6164426235736
 30
0.0
 10
204.7631265117915
 20
478.8161673341621
 30
0.0
  0
SPLINE
  5
BE
330
1F
100
AcDbEntity
  8
0
  6
Continuous
 62
     7
370
    25
100
AcDbSpline
210
0.0
220
0.0
230
1.0
 70
     8
 71
     3
 72
    15
 73
    11
 74
     0
 42
0.00000001
 43
0.00000001
 40
0.0
 40
0.0
 40
0.0
 40
0.0
 40
0.1250258700962937
 40
0.2500298668122473
 40
0.3750187806357317
 40
0.4999999995599286
 40
0.6249812185054348
 40
0.7499701323940448
 40
0.8749741324286368
 40
0.9999999999999999
 40
0.9999999999999999
 40
0.9999999999999999
 40
0.9999999999999999
 10
511.8558259207859
 20
461.7659061848885
 30
0.0
 10
511.7885140222065
 20
462.8786692540264
 30
0.0
 10
511.6539020013204
 20
465.1040007134746
 30
0.0
 10
510.6338587189615
 20
468.3146426657134
 30
0.0
 10
509.0550544472646
 20
471.2753163668734
 30
0.0
 10
506.9182044426488
 20
473.8716357742042
 30
0.0
 10
504.3207502110042
 20
476.0084972726578
 30
0.0
 10
501.3578153029229
 20
477.5884850990742
 30
0.0
 10
498.1439411176764
 20
478.6107559960734
 30
0.0
 10
495.9157241279282
 20
478.7476928959966
 30
0.0
 10
494.8015181934612
 20
478.8161673341882
 30
0.0
  0
SPLINE
  5
BF
330
1F
100
AcDbEntity
  8
0
  6
Continuous
 62
     7
370
    25
100
AcDbSpline
210
0.0
220
0.0
230
1.0
 70
     8
 71
     3
 72
    15
 73
    11
 74
     0
 42
0.00000001
 43
0.00000001
 40
0.0
 40
0.0
 40
0.0
 40
0.0
 40
0.1250258690640295
 40
0.2500298676061387
 40
0.3750187814816461
 40
0.5000000004225783
 40
0.6249812193513493
 40
0.7499701331879438
 40
0.8749741313963799
 40
0.9999999999999999
 40
0.9999999999999999
 40
0.9999999999999999
 40
0.9999999999999999
 10
187.7088187751443
 20
461.7659061755427
 30
0.0
 10
187.7761306727653
 20
462.878669236049
 30
0.0
 10
187.9107426932734
 20
465.1040007036744
 30
0.0
 10
188.9307859783115
 20
468.3146426658222
 30
0.0
 10
190.5095902626951
 20
471.2753163814706
 30
0.0
 10
192.6464402722621
 20
473.8716357877531
 30
0.0
 10
195.2438945078018
 20
476.0084972835993
 30
0.0
 10
198.2068294046283
 20
477.5884850990577
 30
0.0
 10
201.4207035834689
 20
478.6107559944879
 30
0.0
 10
203.6489205674642
 20
478.7476928949289
 30
0.0
 10
204.7631265117915
 20
478.8161673341622
 30
0.0
  0
CIRCLE
  5
C0
330
1F
100
AcDbEntity
  8
0
  6
Continuous
 62
     7
370
    25
100
AcDbCircle
 10
349.782322348
 20
376.7678041755
 30
0.0
 40
70.0
  0
CIRCLE
  5
C1
330
1F
100
AcDbEntity
  8
0
  6
Continuous
 62
     7
370
    25
100
AcDbCircle
 10
349.782322348
 20
376.7678041755
 30
0.0
 40
58.94765075494627
  0
CIRCLE
  5
C2
330
1F
100
AcDbEntity
  8
0
  6
Continuous
 62
     7
370
    25
100
AcDbCircle
 10
349.782322348
 20
376.7678041755
 30
0.0
 40
57.5
  0
CIRCLE
  5
C3
330
1F
100
AcDbEntity
  8
0
  6
Continuous
 62
     7
370
    25
100
AcDbCircle
 10
349.782322348
 20
376.7678041755
 30
0.0
 40
56.58715574274765
  0
CIRCLE
  5
C4
330
1F
100
AcDbEntity
  8
0
  6
Continuous
 62
     7
370
    25
100
AcDbCircle
 10
349.782322348
 20
376.7678041755
 30
0.0
 40
45.0
  0
ARC
  5
C5
330
1F
100
AcDbEntity
  8
0
  6
Continuous
 62
     7
370
    25
100
AcDbCircle
 10
153.782322348
 20
574.7678041755
 30
0.0
 40
10.0
100
AcDbArc
 50
90.0
 51
180.0
  0
LINE
  5
C6
330
1F
100
AcDbEntity
  8
0
  6
Continuous
 62
     7
370
    25
100
AcDbLine
 10
749.782322348
 20
584.7678041755
 30
0.0
 11
153.782322348
 21
584.7678041755
 31
0.0
  0
ARC
  5
C7
330
1F
100
AcDbEntity
  8
0
  6
Continuous
 62
     7
370
    25
100
AcDbCircle
 10
749.782322348
 20
574.7678041755
 30
0.0
 40
10.0
100
AcDbArc
 50
0.0
 51
90.0
  0
LINE
  5
C8
330
1F
100
AcDbEntity
  8
0
  6
Continuous
 62
     7
370
    25
100
AcDbLine
 10
759.782322348
 20
74.7678041755
 30
0.0
 11
759.782322348
 21
574.7678041755
 31
0.0
  0
ARC
  5
C9
330
1F
100
AcDbEntity
  8
0
  6
Continuous
 62
     7
370
    25
100
AcDbCircle
 10
749.782322348
 20
74.7678041755
 30
0.0
 40
10.0
100
AcDbArc
 50
270.0
 51
0.0
  0
LINE
  5
CA
330
1F
100
AcDbEntity
  8
0
  6
Continuous
 62
     7
370
    25
100
AcDbLine
 10
153.782322348
 20
64.7678041755
 30
0.0
 11
749.782322348
 21
64.7678041755
 31
0.0
  0
ARC
  5
CB
330
1F
100
AcDbEntity
  8
0
  6
Continuous
 62
     7
370
    25
100
AcDbCircle
 10
153.782322348
 20
74.7678041755
 30
0.0
 40
10.0
100
AcDbArc
 50
180.0
 51
270.0
  0
LINE
  5
CC
330
1F
100
AcDbEntity
  8
0
  6
Continuous
 62
     7
370
    25
100
AcDbLine
 10
143.782322348
 20
574.7678041755
 30
0.0
 11
143.782322348
 21
74.7678041755
 31
0.0
  0
LINE
  5
CD
330
1F
100
AcDbEntity
  8
0
  6
Continuous
 62
     7
370
    25
100
AcDbLine
 10
741.782322348
 20
324.7678041755
 30
0.0
 11
741.782322348
 21
543.7678041755
 31
0.0
  0
ARC
  5
CE
330
1F
100
AcDbEntity
  8
0
  6
Continuous
 62
     7
370
    25
100
AcDbCircle
 10
718.782322348
 20
543.7678041755
 30
0.0
 40
23.0
100
AcDbArc
 50
0.0
 51
90.0
  0
LINE
  5
CF
330
1F
100
AcDbEntity
  8
0
  6
Continuous
 62
     7
370
    25
100
AcDbLine
 10
718.782322348
 20
566.7678041755
 30
0.0
 11
184.782322348
 21
566.7678041755
 31
0.0
  0
ARC
  5
D0
330
1F
100
AcDbEntity
  8
0
  6
Continuous
 62
     7
370
    25
100
AcDbCircle
 10
184.782322348
 20
543.7678041755
 30
0.0
 40
23.00000000000003
100
AcDbArc
 50
90.0
 51
180.0
  0
LINE
  5
D1
330
1F
100
AcDbEntity
  8
0
  6
Continuous
 62
     7
370
    25
100
AcDbLine
 10
161.782322348
 20
543.7678041755
 30
0.0
 11
161.782322348
 21
105.7678041755
 31
0.0
  0
ARC
  5
D2
330
1F
100
AcDbEntity
  8
0
  6
Continuous
 62
     7
370
    25
100
AcDbCircle
 10
184.782322348
 20
105.7678041755
 30
0.0
 40
23.00000000000003
100
AcDbArc
 50
180.0
 51
270.0
  0
LINE
  5
D3
330
1F
100
AcDbEntity
  8
0
  6
Continuous
 62
     7
370
    25
100
AcDbLine
 10
184.782322348
 20
82.7678041755
 30
0.0
 11
718.782322348
 21
82.7678041755
 31
0.0
  0
ARC
  5
D4
330
1F
100
AcDbEntity
  8
0
  6
Continuous
 62
     7
370
    25
100
AcDbCircle
 10
718.782322348
 20
105.7678041755
 30
0.0
 40
23.00000000000001
100
AcDbArc
 50
270.0
 51
0.0
  0
LINE
  5
D5
330
1F
100
AcDbEntity
  8
0
  6
Continuous
 62
     7
370
    25
100
AcDbLine
 10
741.782322348
 20
105.7678041755
 30
0.0
 11
741.782322348
 21
324.7678041755
 31
0.0
  0
LINE
  5
D6
330
1F
100
AcDbEntity
  8
0
  6
Continuous
 62
     7
370
    25
100
AcDbLine
 10
741.782322348
 20
105.7678041755
 30
0.0
 11
741.0161967586
 21
105.7678041755
 31
0.0
  0
LINE
  5
D7
330
1F
100
AcDbEntity
  8
0
  6
Continuous
 62
     7
370
    25
100
AcDbLine
 10
741.0161967586
 20
105.7678041755
 30
0.0
 11
741.0161967586
 21
324.7678041755
 31
0.0
  0
LINE
  5
D8
330
1F
100
AcDbEntity
  8
0
  6
Continuous
 62
     7
370
    25
100
AcDbLine
 10
741.782322348
 20
324.7678041755
 30
0.0
 11
741.0161967586
 21
324.7678041755
 31
0.0
  0
LINE
  5
D9
330
1F
100
AcDbEntity
  8
0
  6
Continuous
 62
     7
370
    25
100
AcDbLine
 10
741.782322348
 20
543.7678041755
 30
0.0
 11
741.0161967586
 21
543.7678041755
 31
0.0
  0
LINE
  5
DA
330
1F
100
AcDbEntity
  8
0
  6
Continuous
 62
     7
370
    25
100
AcDbLine
 10
741.0161967586
 20
324.7678041755
 30
0.0
 11
741.0161967586
 21
543.7678041755
 31
0.0
  0
LINE
  5
DB
330
1F
100
AcDbEntity
  8
0
  6
Continuous
 62
     7
370
    25
100
AcDbLine
 10
161.782322348
 20
543.7678041755
 30
0.0
 11
162.5484479373
 21
543.7678041755
 31
0.0
  0
LINE
  5
DC
330
1F
100
AcDbEntity
  8
0
  6
Continuous
 62
     7
370
    25
100
AcDbLine
 10
184.782322348
 20
566.7678041755
 30
0.0
 11
184.782322348
 21
566.0016785862
 31
0.0
  0
ARC
  5
DD
330
1F
100
AcDbEntity
  8
0
  6
Continuous
 62
     7
370
    25
100
AcDbCircle
 10
184.782322348
 20
543.7678041755
 30
0.0
 40
22.23387441067962
100
AcDbArc
 50
90.0
 51
180.0
  0
LINE
  5
DE
330
1F
100
AcDbEntity
  8
0
  6
Continuous
 62
     7
370
    25
100
AcDbLine
 10
718.782322348
 20
566.7678041755
 30
0.0
 11
718.782322348
 21
566.0016785862
 31
0.0
  0
LINE
  5
DF
330
1F
100
AcDbEntity
  8
0
  6
Continuous
 62
     7
370
    25
100
AcDbLine
 10
718.782322348
 20
566.0016785862
 30
0.0
 11
184.782322348
 21
566.0016785862
 31
0.0
  0
ARC
  5
E0
330
1F
100
AcDbEntity
  8
0
  6
Continuous
 62
     7
370
    25
100
AcDbCircle
 10
718.782322348
 20
543.7678041755
 30
0.0
 40
22.23387441067962
100
AcDbArc
 50
0.0
 51
90.0
  0
LINE
  5
E1
330
1F
100
AcDbEntity
  8
0
  6
Continuous
 62
     7
370
    25
100
AcDbLine
 10
161.782322348
 20
105.7678041755
 30
0.0
 11
162.5484479373
 21
105.7678041755
 31
0.0
  0
LINE
  5
E2
330
1F
100
AcDbEntity
  8
0
  6
Continuous
 62
     7
370
    25
100
AcDbLine
 10
162.5484479373
 20
543.7678041755
 30
0.0
 11
162.5484479373
 21
105.7678041755
 31
0.0
  0
LINE
  5
E3
330
1F
100
AcDbEntity
  8
0
  6
Continuous
 62
     7
370
    25
100
AcDbLine
 10
718.782322348
 20
82.7678041755
 30
0.0
 11
718.782322348
 21
83.5339297648
 31
0.0
  0
ARC
  5
E4
330
1F
100
AcDbEntity
  8
0
  6
Continuous
 62
     7
370
    25
100
AcDbCircle
 10
718.782322348
 20
105.7678041755
 30
0.0
 40
22.23387441067962
100
AcDbArc
 50
270.0
 51
0.0
  0
LINE
  5
E5
330
1F
100
AcDbEntity
  8
0
  6
Continuous
 62
     7
370
    25
100
AcDbLine
 10
184.782322348
 20
82.7678041755
 30
0.0
 11
184.782322348
 21
83.5339297648
 31
0.0
  0
LINE
  5
E6
330
1F
100
AcDbEntity
  8
0
  6
Continuous
 62
     7
370
    25
100
AcDbLine
 10
184.782322348
 20
83.5339297648
 30
0.0
 11
718.782322348
 21
83.5339297648
 31
0.0
  0
ARC
  5
E7
330
1F
100
AcDbEntity
  8
0
  6
Continuous
 62
     7
370
    25
100
AcDbCircle
 10
184.782322348
 20
105.7678041755
 30
0.0
 40
22.23387441067959
100
AcDbArc
 50
180.0
 51
270.0
  0
LINE
  5
E8
330
1F
100
AcDbEntity
  8
0
  6
Continuous
 62
     7
370
    25
100
AcDbLine
 10
162.5484479373
 20
105.7678041755
 30
0.0
 11
163.5060573649
 21
105.7678041755
 31
0.0
  0
LINE
  5
E9
330
1F
100
AcDbEntity
  8
0
  6
Continuous
 62
     7
370
    25
100
AcDbLine
 10
162.5484479373
 20
543.7678041755
 30
0.0
 11
163.5060573649
 21
543.7678041755
 31
0.0
  0
LINE
  5
EA
330
1F
100
AcDbEntity
  8
0
  6
Continuous
 62
     7
370
    25
100
AcDbLine
 10
163.5060573649
 20
543.7678041755
 30
0.0
 11
163.5060573649
 21
105.7678041755
 31
0.0
  0
LINE
  5
EB
330
1F
100
AcDbEntity
  8
0
  6
Continuous
 62
     7
370
    25
100
AcDbLine
 10
184.782322348
 20
566.0016785862
 30
0.0
 11
184.782322348
 21
565.0440691586
 31
0.0
  0
ARC
  5
EC
330
1F
100
AcDbEntity
  8
0
  6
Continuous
 62
     7
370
    25
100
AcDbCircle
 10
184.782322348
 20
543.7678041755
 30
0.0
 40
21.27626498307336
100
AcDbArc
 50
90.0
 51
180.0
  0
LINE
  5
ED
330
1F
100
AcDbEntity
  8
0
  6
Continuous
 62
     7
370
    25
100
AcDbLine
 10
741.0161967586
 20
105.7678041755
 30
0.0
 11
740.058587331
 21
105.7678041755
 31
0.0
  0
LINE
  5
EE
330
1F
100
AcDbEntity
  8
0
  6
Continuous
 62
     7
370
    25
100
AcDbLine
 10
718.782322348
 20
83.5339297648
 30
0.0
 11
718.782322348
 21
84.4915391924
 31
0.0
  0
ARC
  5
EF
330
1F
100
AcDbEntity
  8
0
  6
Continuous
 62
     7
370
    25
100
AcDbCircle
 10
718.782322348
 20
105.7678041755
 30
0.0
 40
21.27626498307336
100
AcDbArc
 50
270.0
 51
0.0
  0
LINE
  5
F0
330
1F
100
AcDbEntity
  8
0
  6
Continuous
 62
     7
370
    25
100
AcDbLine
 10
740.058587331
 20
105.7678041755
 30
0.0
 11
740.058587331
 21
324.7678041755
 31
0.0
  0
LINE
  5
F1
330
1F
100
AcDbEntity
  8
0
  6
Continuous
 62
     7
370
    25
100
AcDbLine
 10
741.0161967586
 20
324.7678041755
 30
0.0
 11
740.058587331
 21
324.7678041755
 31
0.0
  0
LINE
  5
F2
330
1F
100
AcDbEntity
  8
0
  6
Continuous
 62
     7
370
    25
100
AcDbLine
 10
718.782322348
 20
566.0016785862
 30
0.0
 11
718.782322348
 21
565.0440691586
 31
0.0
  0
LINE
  5
F3
330
1F
100
AcDbEntity
  8
0
  6
Continuous
 62
     7
370
    25
100
AcDbLine
 10
718.782322348
 20
565.0440691586
 30
0.0
 11
184.782322348
 21
565.0440691586
 31
0.0
  0
LINE
  5
F4
330
1F
100
AcDbEntity
  8
0
  6
Continuous
 62
     7
370
    25
100
AcDbLine
 10
741.0161967586
 20
543.7678041755
 30
0.0
 11
740.058587331
 21
543.7678041755
 31
0.0
  0
LINE
  5
F5
330
1F
100
AcDbEntity
  8
0
  6
Continuous
 62
     7
370
    25
100
AcDbLine
 10
740.058587331
 20
324.7678041755
 30
0.0
 11
740.058587331
 21
543.7678041755
 31
0.0
  0
ARC
  5
F6
330
1F
100
AcDbEntity
  8
0
  6
Continuous
 62
     7
370
    25
100
AcDbCircle
 10
718.782322348
 20
543.7678041755
 30
0.0
 40
21.27626498307336
100
AcDbArc
 50
0.0
 51
90.0
  0
LINE
  5
F7
330
1F
100
AcDbEntity
  8
0
  6
Continuous
 62
     7
370
    25
100
AcDbLine
 10
184.782322348
 20
83.5339297648
 30
0.0
 11
184.782322348
 21
84.4915391924
 31
0.0
  0
LINE
  5
F8
330
1F
100
AcDbEntity
  8
0
  6
Continuous
 62
     7
370
    25
100
AcDbLine
 10
184.782322348
 20
84.4915391924
 30
0.0
 11
718.782322348
 21
84.4915391924
 31
0.0
  0
ARC
  5
F9
330
1F
100
AcDbEntity
  8
0
  6
Continuous
 62
     7
370
    25
100
AcDbCircle
 10
184.782322348
 20
105.7678041755
 30
0.0
 40
21.27626498307333
100
AcDbArc
 50
180.0
 51
270.0
  0
LINE
  5
FA
330
1F
100
AcDbEntity
  8
0
  6
Continuous
 62
     7
370
    25
100
AcDbLine
 10
740.058587331
 20
543.7678041755
 30
0.0
 11
734.6957082058
 21
543.7678041755
 31
0.0
  0
LINE
  5
FB
330
1F
100
AcDbEntity
  8
0
  6
Continuous
 62
     7
370
    25
100
AcDbLine
 10
740.058587331
 20
324.7678041755
 30
0.0
 11
734.6957082058
 21
324.7678041755
 31
0.0
  0
LINE
  5
FC
330
1F
100
AcDbEntity
  8
0
  6
Continuous
 62
     7
370
    25
100
AcDbLine
 10
734.6957082058
 20
324.7678041755
 30
0.0
 11
734.6957082058
 21
543.7678041755
 31
0.0
  0
LINE
  5
FD
330
1F
100
AcDbEntity
  8
0
  6
Continuous
 62
     7
370
    25
100
AcDbLine
 10
718.782322348
 20
84.4915391924
 30
0.0
 11
718.782322348
 21
89.8544183177
 31
0.0
  0
LINE
  5
FE
330
1F
100
AcDbEntity
  8
0
  6
Continuous
 62
     7
370
    25
100
AcDbLine
 10
184.782322348
 20
84.4915391924
 30
0.0
 11
184.782322348
 21
89.8544183177
 31
0.0
  0
LINE
  5
FF
330
1F
100
AcDbEntity
  8
0
  6
Continuous
 62
     7
370
    25
100
AcDbLine
 10
184.782322348
 20
89.8544183177
 30
0.0
 11
718.782322348
 21
89.8544183177
 31
0.0
  0
LINE
  5
100
330
1F
100
AcDbEntity
  8
0
  6
Continuous
 62
     7
370
    25
100
AcDbLine
 10
740.058587331
 20
105.7678041755
 30
0.0
 11
734.6957082058
 21
105.7678041755
 31
0.0
  0
ARC
  5
101
330
1F
100
AcDbEntity
  8
0
  6
Continuous
 62
     7
370
    25
100
AcDbCircle
 10
718.782322348
 20
105.7678041755
 30
0.0
 40
15.91338585783046
100
AcDbArc
 50
270.0
 51
0.0
  0
LINE
  5
102
330
1F
100
AcDbEntity
  8
0
  6
Continuous
 62
     7
370
    25
100
AcDbLine
 10
163.5060573649
 20
105.7678041755
 30
0.0
 11
168.8689364901
 21
105.7678041755
 31
0.0
  0
ARC
  5
103
330
1F
100
AcDbEntity
  8
0
  6
Continuous
 62
     7
370
    25
100
AcDbCircle
 10
184.782322348
 20
105.7678041755
 30
0.0
 40
15.91338585783038
100
AcDbArc
 50
180.0
 51
270.0
  0
LINE
  5
104
330
1F
100
AcDbEntity
  8
0
  6
Continuous
 62
     7
370
    25
100
AcDbLine
 10
163.5060573649
 20
543.7678041755
 30
0.0
 11
168.8689364901
 21
543.7678041755
 31
0.0
  0
LINE
  5
105
330
1F
100
AcDbEntity
  8
0
  6
Continuous
 62
     7
370
    25
100
AcDbLine
 10
184.782322348
 20
565.0440691586
 30
0.0
 11
184.782322348
 21
559.6811900333
 31
0.0
  0
ARC
  5
106
330
1F
100
AcDbEntity
  8
0
  6
Continuous
 62
     7
370
    25
100
AcDbCircle
 10
184.782322348
 20
543.7678041755
 30
0.0
 40
15.91338585783046
100
AcDbArc
 50
90.0
 51
180.0
  0
LINE
  5
107
330
1F
100
AcDbEntity
  8
0
  6
Continuous
 62
     7
370
    25
100
AcDbLine
 10
168.8689364901
 20
543.7678041755
 30
0.0
 11
168.8689364901
 21
105.7678041755
 31
0.0
  0
LINE
  5
108
330
1F
100
AcDbEntity
  8
0
  6
Continuous
 62
     7
370
    25
100
AcDbLine
 10
718.782322348
 20
565.0440691586
 30
0.0
 11
718.782322348
 21
559.6811900333
 31
0.0
  0
ARC
  5
109
330
1F
100
AcDbEntity
  8
0
  6
Continuous
 62
     7
370
    25
100
AcDbCircle
 10
718.782322348
 20
543.7678041755
 30
0.0
 40
15.91338585783046
100
AcDbArc
 50
0.0
 51
90.0
  0
LINE
  5
10A
330
1F
100
AcDbEntity
  8
0
  6
Continuous
 62
     7
370
    25
100
AcDbLine
 10
718.782322348
 20
559.6811900333
 30
0.0
 11
184.782322348
 21
559.6811900333
 31
0.0
  0
LINE
  5
10B
330
1F
100
AcDbEntity
  8
0
  6
Continuous
 62
     7
370
    25
100
AcDbLine
 10
734.6957082058
 20
105.7678041755
 30
0.0
 11
734.6957082058
 21
324.7678041755
 31
0.0
  0
LINE
  5
10C
330
1F
100
AcDbEntity
  8
0
  6
Continuous
 62
     7
370
    25
100
AcDbLine
 10
525.782322348
 20
461.2678041755
 30
0.0
 11
525.782322348
 21
127.2678041755
 31
0.0
  0
ARC
  5
10D
330
1F
100
AcDbEntity
  8
0
  6
Continuous
 62
     7
370
    25
100
AcDbCircle
 10
494.282322348
 20
461.2678041755
 30
0.0
 40
31.50000000000006
100
AcDbArc
 50
0.0
 51
90.0
  0
LINE
  5
10E
330
1F
100
AcDbEntity
  8
0
  6
Continuous
 62
     7
370
    25
100
AcDbLine
 10
205.282322348
 20
492.7678041755
 30
0.0
 11
494.282322348
 21
492.7678041755
 31
0.0
  0
ARC
  5
10F
330
1F
100
AcDbEntity
  8
0
  6
Continuous
 62
     7
370
    25
100
AcDbCircle
 10
205.282322348
 20
461.2678041755
 30
0.0
 40
31.50000000000011
100
AcDbArc
 50
90.0
 51
180.0
  0
LINE
  5
110
330
1F
100
AcDbEntity
  8
0
  6
Continuous
 62
     7
370
    25
100
AcDbLine
 10
173.782322348
 20
127.2678041755
 30
0.0
 11
173.782322348
 21
461.2678041755
 31
0.0
  0
ARC
  5
111
330
1F
100
AcDbEntity
  8
0
  6
Continuous
 62
     7
370
    25
100
AcDbCircle
 10
205.282322348
 20
127.2678041755
 30
0.0
 40
31.50000000000009
100
AcDbArc
 50
180.0
 51
270.0
  0
LINE
  5
112
330
1F
100
AcDbEntity
  8
0
  6
Continuous
 62
     7
370
    25
100
AcDbLine
 10
494.282322348
 20
95.7678041755
 30
0.0
 11
205.282322348
 21
95.7678041755
 31
0.0
  0
ARC
  5
113
330
1F
100
AcDbEntity
  8
0
  6
Continuous
 62
     7
370
    25
100
AcDbCircle
 10
494.282322348
 20
127.2678041755
 30
0.0
 40
31.50000000000011
100
AcDbArc
 50
270.0
 51
0.0
  0
CIRCLE
  5
114
330
1F
100
AcDbEntity
  8
0
  6
Continuous
 62
     7
370
    25
100
AcDbCircle
 10
349.782322348
 20
528.7678041755
 30
0.0
 40
17.50000000000011
  0
LINE
  5
115
330
1F
100
AcDbEntity
  8
0
  6
Continuous
 62
     7
370
    25
100
AcDbLine
 10
525.782322348
 20
127.2678041755
 30
0.0
 11
520.782322348
 21
127.2678041755
 31
0.0
  0
LINE
  5
116
330
1F
100
AcDbEntity
  8
0
  6
Continuous
 62
     7
370
    25
100
AcDbLine
 10
520.782322348
 20
127.2678041755
 30
0.0
 11
520.782322348
 21
461.2678041755
 31
0.0
  0
LINE
  5
117
330
1F
100
AcDbEntity
  8
0
  6
Continuous
 62
     7
370
    25
100
AcDbLine
 10
525.782322348
 20
461.2678041755
 30
0.0
 11
520.782322348
 21
461.2678041755
 31
0.0
  0
LINE
  5
118
330
1F
100
AcDbEntity
  8
0
  6
Continuous
 62
     7
370
    25
100
AcDbLine
 10
494.282322348
 20
487.7678041755
 30
0.0
 11
205.282322348
 21
487.7678041755
 31
0.0
  0
LINE
  5
119
330
1F
100
AcDbEntity
  8
0
  6
Continuous
 62
     7
370
    25
100
AcDbLine
 10
205.282322348
 20
487.7678041755
 30
0.0
 11
205.282322348
 21
492.7678041755
 31
0.0
  0
LINE
  5
11A
330
1F
100
AcDbEntity
  8
0
  6
Continuous
 62
     7
370
    25
100
AcDbLine
 10
494.282322348
 20
492.7678041755
 30
0.0
 11
494.282322348
 21
487.7678041755
 31
0.0
  0
ARC
  5
11B
330
1F
100
AcDbEntity
  8
0
  6
Continuous
 62
     7
370
    25
100
AcDbCircle
 10
205.282322348
 20
461.2678041755
 30
0.0
 40
26.5
100
AcDbArc
 50
90.0
 51
180.0
  0
LINE
  5
11C
330
1F
100
AcDbEntity
  8
0
  6
Continuous
 62
     7
370
    25
100
AcDbLine
 10
178.782322348
 20
461.2678041755
 30
0.0
 11
173.782322348
 21
461.2678041755
 31
0.0
  0
ARC
  5
11D
330
1F
100
AcDbEntity
  8
0
  6
Continuous
 62
     7
370
    25
100
AcDbCircle
 10
494.282322348
 20
461.2678041755
 30
0.0
 40
26.50000000000006
100
AcDbArc
 50
0.0
 51
90.0
  0
LINE
  5
11E
330
1F
100
AcDbEntity
  8
0
  6
Continuous
 62
     7
370
    25
100
AcDbLine
 10
178.782322348
 20
461.2678041755
 30
0.0
 11
178.782322348
 21
127.2678041755
 31
0.0
  0
LINE
  5
11F
330
1F
100
AcDbEntity
  8
0
  6
Continuous
 62
     7
370
    25
100
AcDbLine
 10
178.782322348
 20
127.2678041755
 30
0.0
 11
173.782322348
 21
127.2678041755
 31
0.0
  0
LINE
  5
120
330
1F
100
AcDbEntity
  8
0
  6
Continuous
 62
     7
370
    25
100
AcDbLine
 10
494.282322348
 20
95.7678041755
 30
0.0
 11
494.282322348
 21
100.7678041755
 31
0.0
  0
ARC
  5
121
330
1F
100
AcDbEntity
  8
0
  6
Continuous
 62
     7
370
    25
100
AcDbCircle
 10
494.282322348
 20
127.2678041755
 30
0.0
 40
26.5
100
AcDbArc
 50
270.0
 51
0.0
  0
ARC
  5
122
330
1F
100
AcDbEntity
  8
0
  6
Continuous
 62
     7
370
    25
100
AcDbCircle
 10
205.282322348
 20
127.2678041755
 30
0.0
 40
26.49999999999997
100
AcDbArc
 50
180.0
 51
270.0
  0
LINE
  5
123
330
1F
100
AcDbEntity
  8
0
  6
Continuous
 62
     7
370
    25
100
AcDbLine
 10
205.282322348
 20
100.7678041755
 30
0.0
 11
205.282322348
 21
95.7678041755
 31
0.0
  0
LINE
  5
124
330
1F
100
AcDbEntity
  8
0
  6
Continuous
 62
     7
370
    25
100
AcDbLine
 10
205.282322348
 20
100.7678041755
 30
0.0
 11
494.282322348
 21
100.7678041755
 31
0.0
  0
ENDSEC
  0
SECTION
  2
OBJECTS
  0
DICTIONARY
  5
C
330
0
100
AcDbDictionary
281
     1
  3
ACAD_GROUP
350
D
  3
ACAD_LAYOUT
350
1A
  3
ACAD_MLINESTYLE
350
17
  3
ACAD_PLOTSETTINGS
350
19
  3
ACAD_PLOTSTYLENAME
350
E
  3
ACAD_SCALELIST
350
47
  3
DWGPROPS
350
125
  0
DICTIONARY
  5
D
102
{ACAD_REACTORS
330
C
102
}
330
C
100
AcDbDictionary
281
     1
  0
DICTIONARY
  5
1A
102
{ACAD_REACTORS
330
C
102
}
330
C
100
AcDbDictionary
281
     1
  3
Layout1
350
1E
  3
Layout2
350
26
  3
Model
350
22
  0
DICTIONARY
  5
17
102
{ACAD_REACTORS
330
C
102
}
330
C
100
AcDbDictionary
281
     1
  3
Standard
350
18
  0
DICTIONARY
  5
19
102
{ACAD_REACTORS
330
C
102
}
330
C
100
AcDbDictionary
281
     1
  0
ACDBDICTIONARYWDFLT
  5
E
102
{ACAD_REACTORS
330
C
102
}
330
C
100
AcDbDictionary
281
     1
  3
Normal
350
F
100
AcDbDictionaryWithDefault
340
F
  0
DICTIONARY
  5
47
102
{ACAD_REACTORS
330
C
102
}
330
C
100
AcDbDictionary
281
     1
  3
A0
350
48
  3
A1
350
49
  3
A2
350
4A
  3
A3
350
4B
  3
A4
350
4C
  3
A5
350
4D
  3
A6
350
4E
  3
A7
350
4F
  3
A8
350
50
  3
A9
350
51
  3
B0
350
52
  3
B1
350
53
  3
B2
350
54
  3
B3
350
55
  3
B4
350
56
  3
B5
350
57
  3
B6
350
58
  3
B7
350
59
  3
B8
350
5A
  3
B9
350
5B
  3
C0
350
5C
  3
C1
350
5D
  3
C2
350
5E
  3
C3
350
5F
  3
C4
350
60
  3
C5
350
61
  3
C6
350
62
  3
C7
350
63
  3
C8
350
64
  3
C9
350
65
  3
D0
350
66
  3
D1
350
67
  3
D2
350
68
  0
XRECORD
  5
125
102
{ACAD_REACTORS
330
C
102
}
330
C
100
AcDbXrecord
280
     1
  1
DWGPROPS COOKIE
  2

  3

  4

  6

  7

  8
KalleMourujärvi
  9

300
=
301
=
302
=
303
=
304
=
305
=
306
=
307
=
308
=
309
=
 40
0.0
 41
2460130.423330289
 42
2460130.42333059
  1

 90
        0
  0
LAYOUT
  5
1E
102
{ACAD_REACTORS
330
1A
102
}
330
1A
100
AcDbPlotSettings
  1

  2
none_device
  4

  6

 40
0.0
 41
0.0
 42
0.0
 43
0.0
 44
0.0
 45
0.0
 46
0.0
 47
0.0
 48
0.0
 49
0.0
140
0.0
141
0.0
142
1.0
143
1.0
 70
   688
 72
     1
 73
     0
 74
     5
  7

 75
    16
147
1.0
148
0.0
149
0.0
100
AcDbLayout
  1
Layout1
 70
     1
 71
     1
 10
0.0
 20
0.0
 11
420.0
 21
297.0
 12
0.0
 22
0.0
 32
0.0
 14
1.0000000000E+20
 24
1.0000000000E+20
 34
1.0000000000E+20
 15
-1.0000000000E+20
 25
-1.0000000000E+20
 35
-1.0000000000E+20
146
0.0
 13
0.0
 23
0.0
 33
0.0
 16
1.0
 26
0.0
 36
0.0
 17
0.0
 27
1.0
 37
0.0
 76
     0
330
1B
  0
LAYOUT
  5
26
102
{ACAD_REACTORS
330
1A
102
}
330
1A
100
AcDbPlotSettings
  1

  2
none_device
  4

  6

 40
0.0
 41
0.0
 42
0.0
 43
0.0
 44
0.0
 45
0.0
 46
0.0
 47
0.0
 48
0.0
 49
0.0
140
0.0
141
0.0
142
1.0
143
1.0
 70
   688
 72
     1
 73
     0
 74
     5
  7

 75
    16
147
1.0
148
0.0
149
0.0
100
AcDbLayout
  1
Layout2
 70
     1
 71
     2
 10
0.0
 20
0.0
 11
0.0
 21
0.0
 12
0.0
 22
0.0
 32
0.0
 14
0.0
 24
0.0
 34
0.0
 15
0.0
 25
0.0
 35
0.0
146
0.0
 13
0.0
 23
0.0
 33
0.0
 16
1.0
 26
0.0
 36
0.0
 17
0.0
 27
1.0
 37
0.0
 76
     0
330
23
  0
LAYOUT
  5
22
102
{ACAD_REACTORS
330
1A
102
}
330
1A
100
AcDbPlotSettings
  1

  2
none_device
  4
Letter_(8.50_x_11.00_Inches)
  6

 40
6.35
 41
6.35
 42
6.35000508
 43
6.35000508
 44
215.9
 45
279.4
 46
0.0
 47
0.0
 48
0.0
 49
0.0
140
0.0
141
0.0
142
1.0
143
1.0
 70
  1712
 72
     1
 73
     0
 74
     0
  7

 75
     0
147
1.0
148
0.0
149
0.0
100
AcDbLayout
  1
Model
 70
     1
 71
     0
 10
0.0
 20
0.0
 11
900.0
 21
650.0
 12
0.0
 22
0.0
 32
0.0
 14
0.0
 24
0.0
 34
0.0
 15
900.0
 25
650.0
 35
0.0
146
0.0
 13
0.0
 23
0.0
 33
0.0
 16
1.0
 26
0.0
 36
0.0
 17
0.0
 27
1.0
 37
0.0
 76
     0
330
1F
331
29
  0
MLINESTYLE
  5
18
102
{ACAD_REACTORS
330
17
102
}
330
17
100
AcDbMlineStyle
  2
Standard
 70
     0
  3

 62
   256
 51
90.0
 52
90.0
 71
     2
 49
0.5
 62
   256
  6
BYLAYER
 49
-0.5
 62
   256
  6
BYLAYER
  0
ACDBPLACEHOLDER
  5
F
102
{ACAD_REACTORS
330
E
102
}
330
E
  0
SCALE
  5
48
102
{ACAD_REACTORS
330
47
102
}
330
47
100
AcDbScale
 70
     0
300
1:1
140
1.0
141
1.0
290
     1
  0
SCALE
  5
49
102
{ACAD_REACTORS
330
47
102
}
330
47
100
AcDbScale
 70
     0
300
1:2
140
1.0
141
2.0
290
     0
  0
SCALE
  5
4A
102
{ACAD_REACTORS
330
47
102
}
330
47
100
AcDbScale
 70
     0
300
1:4
140
1.0
141
4.0
290
     0
  0
SCALE
  5
4B
102
{ACAD_REACTORS
330
47
102
}
330
47
100
AcDbScale
 70
     0
300
1:5
140
1.0
141
5.0
290
     0
  0
SCALE
  5
4C
102
{ACAD_REACTORS
330
47
102
}
330
47
100
AcDbScale
 70
     0
300
1:8
140
1.0
141
8.0
290
     0
  0
SCALE
  5
4D
102
{ACAD_REACTORS
330
47
102
}
330
47
100
AcDbScale
 70
     0
300
1:10
140
1.0
141
10.0
290
     0
  0
SCALE
  5
4E
102
{ACAD_REACTORS
330
47
102
}
330
47
100
AcDbScale
 70
     0
300
1:16
140
1.0
141
16.0
290
     0
  0
SCALE
  5
4F
102
{ACAD_REACTORS
330
47
102
}
330
47
100
AcDbScale
 70
     0
300
1:20
140
1.0
141
20.0
290
     0
  0
SCALE
  5
50
102
{ACAD_REACTORS
330
47
102
}
330
47
100
AcDbScale
 70
     0
300
1:30
140
1.0
141
30.0
290
     0
  0
SCALE
  5
51
102
{ACAD_REACTORS
330
47
102
}
330
47
100
AcDbScale
 70
     0
300
1:40
140
1.0
141
40.0
290
     0
  0
SCALE
  5
52
102
{ACAD_REACTORS
330
47
102
}
330
47
100
AcDbScale
 70
     0
300
1:50
140
1.0
141
50.0
290
     0
  0
SCALE
  5
53
102
{ACAD_REACTORS
330
47
102
}
330
47
100
AcDbScale
 70
     0
300
1:100
140
1.0
141
100.0
290
     0
  0
SCALE
  5
54
102
{ACAD_REACTORS
330
47
102
}
330
47
100
AcDbScale
 70
     0
300
2:1
140
2.0
141
1.0
290
     0
  0
SCALE
  5
55
102
{ACAD_REACTORS
330
47
102
}
330
47
100
AcDbScale
 70
     0
300
4:1
140
4.0
141
1.0
290
     0
  0
SCALE
  5
56
102
{ACAD_REACTORS
330
47
102
}
330
47
100
AcDbScale
 70
     0
300
8:1
140
8.0
141
1.0
290
     0
  0
SCALE
  5
57
102
{ACAD_REACTORS
330
47
102
}
330
47
100
AcDbScale
 70
     0
300
10:1
140
10.0
141
1.0
290
     0
  0
SCALE
  5
58
102
{ACAD_REACTORS
330
47
102
}
330
47
100
AcDbScale
 70
     0
300
100:1
140
100.0
141
1.0
290
     0
  0
SCALE
  5
59
102
{ACAD_REACTORS
330
47
102
}
330
47
100
AcDbScale
 70
     0
300
1/128" = 1'-0"
140
0.0078125
141
12.0
290
     0
  0
SCALE
  5
5A
102
{ACAD_REACTORS
330
47
102
}
330
47
100
AcDbScale
 70
     0
300
1/64" = 1'-0"
140
0.015625
141
12.0
290
     0
  0
SCALE
  5
5B
102
{ACAD_REACTORS
330
47
102
}
330
47
100
AcDbScale
 70
     0
300
1/32" = 1'-0"
140
0.03125
141
12.0
290
     0
  0
SCALE
  5
5C
102
{ACAD_REACTORS
330
47
102
}
330
47
100
AcDbScale
 70
     0
300
1/16" = 1'-0"
140
0.0625
141
12.0
290
     0
  0
SCALE
  5
5D
102
{ACAD_REACTORS
330
47
102
}
330
47
100
AcDbScale
 70
     0
300
3/32" = 1'-0"
140
0.09375
141
12.0
290
     0
  0
SCALE
  5
5E
102
{ACAD_REACTORS
330
47
102
}
330
47
100
AcDbScale
 70
     0
300
1/8" = 1'-0"
140
0.125
141
12.0
290
     0
  0
SCALE
  5
5F
102
{ACAD_REACTORS
330
47
102
}
330
47
100
AcDbScale
 70
     0
300
3/16" = 1'-0"
140
0.1875
141
12.0
290
     0
  0
SCALE
  5
60
102
{ACAD_REACTORS
330
47
102
}
330
47
100
AcDbScale
 70
     0
300
1/4" = 1'-0"
140
0.25
141
12.0
290
     0
  0
SCALE
  5
61
102
{ACAD_REACTORS
330
47
102
}
330
47
100
AcDbScale
 70
     0
300
3/8" = 1'-0"
140
0.375
141
12.0
290
     0
  0
SCALE
  5
62
102
{ACAD_REACTORS
330
47
102
}
330
47
100
AcDbScale
 70
     0
300
1/2" = 1'-0"
140
0.5
141
12.0
290
     0
  0
SCALE
  5
63
102
{ACAD_REACTORS
330
47
102
}
330
47
100
AcDbScale
 70
     0
300
3/4" = 1'-0"
140
0.75
141
12.0
290
     0
  0
SCALE
  5
64
102
{ACAD_REACTORS
330
47
102
}
330
47
100
AcDbScale
 70
     0
300
1" = 1'-0"
140
1.0
141
12.0
290
     0
  0
SCALE
  5
65
102
{ACAD_REACTORS
330
47
102
}
330
47
100
AcDbScale
 70
     0
300
1-1/2" = 1'-0"
140
1.5
141
12.0
290
     0
  0
SCALE
  5
66
102
{ACAD_REACTORS
330
47
102
}
330
47
100
AcDbScale
 70
     0
300
3" = 1'-0"
140
3.0
141
12.0
290
     0
  0
SCALE
  5
67
102
{ACAD_REACTORS
330
47
102
}
330
47
100
AcDbScale
 70
     0
300
6" = 1'-0"
140
6.0
141
12.0
290
     0
  0
SCALE
  5
68
102
{ACAD_REACTORS
330
47
102
}
330
47
100
AcDbScale
 70
     0
300
1'-0" = 1'-0"
140
12.0
141
12.0
290
     0
  0
ENDSEC
  0
EOF
