  0
SECTION
  2
HEADER
  9
$ACADVER
  1
AC1015
  9
$ACADMAINTVER
 70
     6
  9
$DWGCODEPAGE
  3
ANSI_1252
  9
$INSBASE
 10
0.0
 20
0.0
 30
0.0
  9
$EXTMIN
 10
0.0
 20
0.0
 30
0.0
  9
$EXTMAX
 10
950.0
 20
650.0
 30
0.0
  9
$LIMMIN
 10
0.0
 20
0.0
  9
$LIMMAX
 10
950.0
 20
650.0
  9
$ORTHOMODE
 70
     0
  9
$REGENMODE
 70
     1
  9
$FILLMODE
 70
     1
  9
$QTEXTMODE
 70
     0
  9
$MIRRTEXT
 70
     1
  9
$LTSCALE
 40
1.0
  9
$ATTMODE
 70
     1
  9
$TEXTSIZE
 40
3.5
  9
$TRACEWID
 40
1.0
  9
$TEXTSTYLE
  7
Standard
  9
$CLAYER
  8
0
  9
$CELTYPE
  6
ByLayer
  9
$CECOLOR
 62
   256
  9
$CELTSCALE
 40
1.0
  9
$DISPSILH
 70
     0
  9
$DIMSCALE
 40
1.0
  9
$DIMASZ
 40
3.302
  9
$DIMEXO
 40
1.0
  9
$DIMDLI
 40
3.75
  9
$DIMRND
 40
0.0
  9
$DIMDLE
 40
0.0
  9
$DIMEXE
 40
1.0
  9
$DIMTP
 40
0.0
  9
$DIMTM
 40
0.0
  9
$DIMTXT
 40
3.5
  9
$DIMCEN
 40
2.5
  9
$DIMTSZ
 40
0.0
  9
$DIMTOL
 70
     0
  9
$DIMLIM
 70
     0
  9
$DIMTIH
 70
     1
  9
$DIMTOH
 70
     1
  9
$DIMSE1
 70
     0
  9
$DIMSE2
 70
     0
  9
$DIMTAD
 70
     1
  9
$DIMZIN
 70
     1
  9
$DIMBLK
  1

  9
$DIMASO
 70
     1
  9
$DIMSHO
 70
     1
  9
$DIMPOST
  1

  9
$DIMAPOST
  1

  9
$DIMALT
 70
     0
  9
$DIMALTD
 70
     3
  9
$DIMALTF
 40
0.0393700787
  9
$DIMLFAC
 40
1.0
  9
$DIMTOFL
 70
     1
  9
$DIMTVP
 40
0.0
  9
$DIMTIX
 70
     0
  9
$DIMSOXD
 70
     0
  9
$DIMSAH
 70
     0
  9
$DIMBLK1
  1

  9
$DIMBLK2
  1

  9
$DIMSTYLE
  2
ISO-25
  9
$DIMCLRD
 70
     0
  9
$DIMCLRE
 70
     0
  9
$DIMCLRT
 70
     0
  9
$DIMTFAC
 40
1.0
  9
$DIMGAP
 40
1.524
  9
$DIMJUST
 70
     0
  9
$DIMSD1
 70
     0
  9
$DIMSD2
 70
     0
  9
$DIMTOLJ
 70
     0
  9
$DIMTZIN
 70
     1
  9
$DIMALTZ
 70
     0
  9
$DIMALTTZ
 70
     0
  9
$DIMUPT
 70
     0
  9
$DIMDEC
 70
     2
  9
$DIMTDEC
 70
     2
  9
$DIMALTU
 70
     2
  9
$DIMALTTD
 70
     3
  9
$DIMTXSTY
  7
Standard
  9
$DIMAUNIT
 70
     0
  9
$DIMADEC
 70
     2
  9
$DIMALTRND
 40
0.0
  9
$DIMAZIN
 70
     0
  9
$DIMDSEP
 70
    44
  9
$DIMATFIT
 70
     3
  9
$DIMFRAC
 70
     0
  9
$DIMLDRBLK
  1

  9
$DIMLUNIT
 70
     2
  9
$DIMLWD
 70
    -2
  9
$DIMLWE
 70
    -2
  9
$DIMTMOVE
 70
     0
  9
$LUNITS
 70
     2
  9
$LUPREC
 70
     1
  9
$SKETCHINC
 40
1.0
  9
$FILLETRAD
 40
10.0
  9
$AUNITS
 70
     0
  9
$AUPREC
 70
     1
  9
$MENU
  1
.
  9
$ELEVATION
 40
0.0
  9
$PELEVATION
 40
0.0
  9
$THICKNESS
 40
0.0
  9
$LIMCHECK
 70
     0
  9
$CHAMFERA
 40
0.0
  9
$CHAMFERB
 40
0.0
  9
$CHAMFERC
 40
0.0
  9
$CHAMFERD
 40
0.0
  9
$SKPOLY
 70
     0
  9
$TDCREATE
 40
2460130.543137188
  9
$TDUCREATE
 40
2460130.418137188
  9
$TDUPDATE
 40
2460130.543137488
  9
$TDUUPDATE
 40
2460130.418137488
  9
$TDINDWG
 40
0.0000000116
  9
$TDUSRTIMER
 40
0.0000000116
  9
$USRTIMER
 70
     1
  9
$ANGBASE
 50
0.0
  9
$ANGDIR
 70
     0
  9
$PDMODE
 70
     0
  9
$PDSIZE
 40
-1.0
  9
$PLINEWID
 40
0.0
  9
$SPLFRAME
 70
     0
  9
$SPLINETYPE
 70
     6
  9
$SPLINESEGS
 70
     8
  9
$HANDSEED
  5
127
  9
$SURFTAB1
 70
     6
  9
$SURFTAB2
 70
     6
  9
$SURFTYPE
 70
     6
  9
$SURFU
 70
     6
  9
$SURFV
 70
     6
  9
$UCSBASE
  2

  9
$UCSNAME
  2

  9
$UCSORG
 10
0.0
 20
0.0
 30
0.0
  9
$UCSXDIR
 10
1.0
 20
0.0
 30
0.0
  9
$UCSYDIR
 10
0.0
 20
1.0
 30
0.0
  9
$UCSORTHOREF
  2

  9
$UCSORTHOVIEW
 70
     0
  9
$UCSORGTOP
 10
0.0
 20
0.0
 30
0.0
  9
$UCSORGBOTTOM
 10
0.0
 20
0.0
 30
0.0
  9
$UCSORGLEFT
 10
0.0
 20
0.0
 30
0.0
  9
$UCSORGRIGHT
 10
0.0
 20
0.0
 30
0.0
  9
$UCSORGFRONT
 10
0.0
 20
0.0
 30
0.0
  9
$UCSORGBACK
 10
0.0
 20
0.0
 30
0.0
  9
$PUCSBASE
  2

  9
$PUCSNAME
  2

  9
$PUCSORG
 10
0.0
 20
0.0
 30
0.0
  9
$PUCSXDIR
 10
1.0
 20
0.0
 30
0.0
  9
$PUCSYDIR
 10
0.0
 20
1.0
 30
0.0
  9
$PUCSORTHOREF
  2

  9
$PUCSORTHOVIEW
 70
     0
  9
$PUCSORGTOP
 10
0.0
 20
0.0
 30
0.0
  9
$PUCSORGBOTTOM
 10
0.0
 20
0.0
 30
0.0
  9
$PUCSORGLEFT
 10
0.0
 20
0.0
 30
0.0
  9
$PUCSORGRIGHT
 10
0.0
 20
0.0
 30
0.0
  9
$PUCSORGFRONT
 10
0.0
 20
0.0
 30
0.0
  9
$PUCSORGBACK
 10
0.0
 20
0.0
 30
0.0
  9
$USERI1
 70
     0
  9
$USERI2
 70
     0
  9
$USERI3
 70
     0
  9
$USERI4
 70
     0
  9
$USERI5
 70
     0
  9
$USERR1
 40
0.0
  9
$USERR2
 40
0.0
  9
$USERR3
 40
0.0
  9
$USERR4
 40
0.0
  9
$USERR5
 40
0.0
  9
$WORLDVIEW
 70
     1
  9
$SHADEDGE
 70
     3
  9
$SHADEDIF
 70
    70
  9
$TILEMODE
 70
     1
  9
$MAXACTVP
 70
    64
  9
$PINSBASE
 10
0.0
 20
0.0
 30
0.0
  9
$PLIMCHECK
 70
     0
  9
$PEXTMIN
 10
1.0000000000E+20
 20
1.0000000000E+20
 30
1.0000000000E+20
  9
$PEXTMAX
 10
-1.0000000000E+20
 20
-1.0000000000E+20
 30
-1.0000000000E+20
  9
$PLIMMIN
 10
0.0
 20
0.0
  9
$PLIMMAX
 10
420.0
 20
297.0
  9
$UNITMODE
 70
     0
  9
$VISRETAIN
 70
     1
  9
$PLINEGEN
 70
     0
  9
$PSLTSCALE
 70
     1
  9
$TREEDEPTH
 70
  3020
  9
$CMLSTYLE
  2
Standard
  9
$CMLJUST
 70
     0
  9
$CMLSCALE
 40
20.0
  9
$PROXYGRAPHICS
 70
     1
  9
$MEASUREMENT
 70
     1
  9
$CELWEIGHT
370
    -1
  9
$ENDCAPS
280
     0
  9
$JOINSTYLE
280
     0
  9
$LWDISPLAY
290
     1
  9
$INSUNITS
 70
     4
  9
$HYPERLINKBASE
  1

  9
$STYLESHEET
  1

  9
$XEDIT
290
     1
  9
$CEPSNTYPE
380
     0
  9
$PSTYLEMODE
290
     1
  9
$FINGERPRINTGUID
  2
{a5e89433-8ce2-4237-ab44-1fab53676ab9}
  9
$VERSIONGUID
  2
{FAEB1C32-E019-11D5-929B-00C0DF256EC4}
  9
$EXTNAMES
290
     1
  9
$PSVPSCALE
 40
0.0
  9
$OLESTARTUP
290
     0
  0
ENDSEC
  0
SECTION
  2
CLASSES
  0
CLASS
  1
ACDBDICTIONARYWDFLT
  2
AcDbDictionaryWithDefault
  3
ObjectDBX Classes
 90
        0
280
     0
281
     0
  0
CLASS
  1
VISUALSTYLE
  2
AcDbVisualStyle
  3
ObjectDBX Classes
 90
     4095
280
     0
281
     0
  0
CLASS
  1
MATERIAL
  2
AcDbMaterial
  3
ObjectDBX Classes
 90
     1153
280
     0
281
     0
  0
CLASS
  1
SCALE
  2
AcDbScale
  3
ObjectDBX Classes
 90
     1153
280
     0
281
     0
  0
CLASS
  1
TABLESTYLE
  2
AcDbTableStyle
  3
ObjectDBX Classes
 90
     4095
280
     0
281
     0
  0
CLASS
  1
MLEADERSTYLE
  2
AcDbMLeaderStyle
  3
ACDB_MLEADERSTYLE_CLASS
 90
     4095
280
     0
281
     0
  0
CLASS
  1
SUN
  2
AcDbSun
  3
SCENEOE
 90
     1153
280
     0
281
     0
  0
CLASS
  1
ACDBPLACEHOLDER
  2
AcDbPlaceHolder
  3
ObjectDBX Classes
 90
        0
280
     0
281
     0
  0
CLASS
  1
LAYOUT
  2
AcDbLayout
  3
ObjectDBX Classes
 90
        0
280
     0
281
     0
  0
ENDSEC
  0
SECTION
  2
TABLES
  0
TABLE
  2
VPORT
  5
8
330
0
100
AcDbSymbolTable
 70
     1
  0
VPORT
  5
29
330
8
100
AcDbSymbolTableRecord
100
AcDbViewportTableRecord
  2
*Active
 70
     0
 10
0.0
 20
0.0
 11
1.0
 21
1.0
 12
475.0
 22
325.0
 13
0.0
 23
0.0
 14
10.0
 24
10.0
 15
10.0
 25
10.0
 16
0.0
 26
0.0
 36
1.0
 17
0.0
 27
0.0
 37
0.0
 40
650.0
 41
1.4615384615
 42
50.0
 43
0.0
 44
0.0
 50
0.0
 51
0.0
 71
     0
 72
  2000
 73
     1
 74
     3
 75
     0
 76
     0
 77
     0
 78
     0
281
     0
 65
     1
110
0.0
120
0.0
130
0.0
111
1.0
121
0.0
131
0.0
112
0.0
122
1.0
132
0.0
 79
     0
146
0.0
  0
ENDTAB
  0
TABLE
  2
LTYPE
  5
5
330
0
100
AcDbSymbolTable
 70
     6
  0
LTYPE
  5
14
330
5
100
AcDbSymbolTableRecord
100
AcDbLinetypeTableRecord
  2
ByBlock
 70
     0
  3

 72
    65
 73
     0
 40
0.0
  0
LTYPE
  5
15
330
5
100
AcDbSymbolTableRecord
100
AcDbLinetypeTableRecord
  2
ByLayer
 70
     0
  3

 72
    65
 73
     0
 40
0.0
  0
LTYPE
  5
16
330
5
100
AcDbSymbolTableRecord
100
AcDbLinetypeTableRecord
  2
Continuous
 70
     0
  3
Solid line
 72
    65
 73
     0
 40
0.0
  0
LTYPE
  5
6E
330
5
100
AcDbSymbolTableRecord
100
AcDbLinetypeTableRecord
  2
HIDDEN
 70
     0
  3
Hidden __ __ __ __ __ __ __ __ __ __ __ __ __ __
 72
    65
 73
     2
 40
1.905
 49
1.27
 74
     0
 49
-0.635
 74
     0
  0
LTYPE
  5
6F
330
5
100
AcDbSymbolTableRecord
100
AcDbLinetypeTableRecord
  2
PHANTOM
 70
     0
  3
Phantom ______  __  __  ______  __  __  ______
 72
    65
 73
     6
 40
12.7
 49
6.35
 74
     0
 49
-1.27
 74
     0
 49
1.27
 74
     0
 49
-1.27
 74
     0
 49
1.27
 74
     0
 49
-1.27
 74
     0
  0
LTYPE
  5
70
330
5
100
AcDbSymbolTableRecord
100
AcDbLinetypeTableRecord
  2
CENTER
 70
     0
  3
Center ____ _ ____ _ ____ _ ____ _ ____ _ ____
 72
    65
 73
     4
 40
10.16
 49
6.35
 74
     0
 49
-1.27
 74
     0
 49
1.27
 74
     0
 49
-1.27
 74
     0
  0
LTYPE
  5
71
330
5
100
AcDbSymbolTableRecord
100
AcDbLinetypeTableRecord
  2
CENTERX2
 70
     0
  3
Center (2x) ________  __  ________  __  _____
 72
    65
 73
     4
 40
20.32
 49
12.7
 74
     0
 49
-2.54
 74
     0
 49
2.54
 74
     0
 49
-2.54
 74
     0
  0
LTYPE
  5
72
330
5
100
AcDbSymbolTableRecord
100
AcDbLinetypeTableRecord
  2
DOT2
 70
     0
  3
Dot (.5x) ........................................
 72
    65
 73
     2
 40
0.635
 49
0.0
 74
     0
 49
-0.635
 74
     0
  0
ENDTAB
  0
TABLE
  2
LAYER
  5
2
330
0
100
AcDbSymbolTable
 70
     1
  0
LAYER
  5
10
330
2
100
AcDbSymbolTableRecord
100
AcDbLayerTableRecord
  2
0
 70
     0
 62
     7
  6
Continuous
370
    -3
390
F
  0
ENDTAB
  0
TABLE
  2
STYLE
  5
3
330
0
100
AcDbSymbolTable
 70
     1
  0
STYLE
  5
11
330
3
100
AcDbSymbolTableRecord
100
AcDbTextStyleTableRecord
  2
Standard
 70
     0
 40
0.0
 41
1.0
 50
0.0
 71
     0
 42
3.5
  3
txt
  4

  0
ENDTAB
  0
TABLE
  2
VIEW
  5
6
330
0
100
AcDbSymbolTable
 70
     0
  0
ENDTAB
  0
TABLE
  2
UCS
  5
7
330
0
100
AcDbSymbolTable
 70
     0
  0
ENDTAB
  0
TABLE
  2
APPID
  5
9
330
0
100
AcDbSymbolTable
 70
     1
  0
APPID
  5
12
330
9
100
AcDbSymbolTableRecord
100
AcDbRegAppTableRecord
  2
ACAD
 70
     0
  0
ENDTAB
  0
TABLE
  2
DIMSTYLE
  5
A
330
0
100
AcDbSymbolTable
 70
     1
100
AcDbDimStyleTable
  0
DIMSTYLE
105
27
330
A
100
AcDbSymbolTableRecord
100
AcDbDimStyleTableRecord
  2
ISO-25
 70
     0
 41
2.5
 42
0.625
 43
3.75
 44
1.25
 73
     0
 74
     0
 77
     1
 78
     8
140
2.5
141
2.5
143
0.0393700787
147
0.625
171
     3
172
     1
178
     0
271
     2
272
     2
274
     3
278
    44
283
     0
284
     8
340
11
  0
ENDTAB
  0
TABLE
  2
BLOCK_RECORD
  5
1
330
0
100
AcDbSymbolTable
 70
     1
  0
BLOCK_RECORD
  5
1F
330
1
100
AcDbSymbolTableRecord
100
AcDbBlockTableRecord
  2
*Model_Space
340
22
  0
BLOCK_RECORD
  5
1B
330
1
100
AcDbSymbolTableRecord
100
AcDbBlockTableRecord
  2
*Paper_Space
340
1E
  0
BLOCK_RECORD
  5
23
330
1
100
AcDbSymbolTableRecord
100
AcDbBlockTableRecord
  2
*Paper_Space0
340
26
  0
ENDTAB
  0
ENDSEC
  0
SECTION
  2
BLOCKS
  0
BLOCK
  5
20
330
1F
100
AcDbEntity
  8
0
100
AcDbBlockBegin
  2
*Model_Space
 70
     0
 10
0.0
 20
0.0
 30
0.0
  3
*Model_Space
  1

  0
ENDBLK
  5
21
330
1F
100
AcDbEntity
  8
0
100
AcDbBlockEnd
  0
BLOCK
  5
1C
330
1B
100
AcDbEntity
 67
     1
  8
0
100
AcDbBlockBegin
  2
*Paper_Space
 70
     0
 10
0.0
 20
0.0
 30
0.0
  3
*Paper_Space
  1

  0
ENDBLK
  5
1D
330
1B
100
AcDbEntity
 67
     1
  8
0
100
AcDbBlockEnd
  0
BLOCK
  5
24
330
23
100
AcDbEntity
  8
0
100
AcDbBlockBegin
  2
*Paper_Space0
 70
     0
 10
0.0
 20
0.0
 30
0.0
  3
*Paper_Space0
  1

  0
ENDBLK
  5
25
330
23
100
AcDbEntity
  8
0
100
AcDbBlockEnd
  0
ENDSEC
  0
SECTION
  2
ENTITIES
  0
ARC
  5
73
330
1F
100
AcDbEntity
  8
0
  6
Continuous
 62
     7
370
    25
100
AcDbCircle
 10
549.3918305598
 20
464.5645990923
 30
0.0
 40
26.42344685007231
100
AcDbArc
 50
0.0
 51
90.0
  0
LINE
  5
74
330
1F
100
AcDbEntity
  8
0
  6
Continuous
 62
     7
370
    25
100
AcDbLine
 10
199.3918305598
 20
490.9880459424
 30
0.0
 11
549.3918305598
 21
490.9880459424
 31
0.0
  0
ARC
  5
75
330
1F
100
AcDbEntity
  8
0
  6
Continuous
 62
     7
370
    25
100
AcDbCircle
 10
199.3918305598
 20
464.5645990923
 30
0.0
 40
26.42344685007225
100
AcDbArc
 50
90.0
 51
180.0
  0
LINE
  5
76
330
1F
100
AcDbEntity
  8
0
  6
Continuous
 62
     7
370
    25
100
AcDbLine
 10
172.9683837097
 20
129.5645990923
 30
0.0
 11
172.9683837097
 21
464.5645990923
 31
0.0
  0
ARC
  5
77
330
1F
100
AcDbEntity
  8
0
  6
Continuous
 62
     7
370
    25
100
AcDbCircle
 10
199.3918305598
 20
129.5645990923
 30
0.0
 40
26.42344685007235
100
AcDbArc
 50
180.0
 51
270.0
  0
LINE
  5
78
330
1F
100
AcDbEntity
  8
0
  6
Continuous
 62
     7
370
    25
100
AcDbLine
 10
549.3918305598
 20
103.1411522422
 30
0.0
 11
199.3918305598
 21
103.1411522422
 31
0.0
  0
ARC
  5
79
330
1F
100
AcDbEntity
  8
0
  6
Continuous
 62
     7
370
    25
100
AcDbCircle
 10
549.3918305598
 20
129.5645990923
 30
0.0
 40
26.42344685007235
100
AcDbArc
 50
270.0
 51
0.0
  0
LINE
  5
7A
330
1F
100
AcDbEntity
  8
0
  6
Continuous
 62
     7
370
    25
100
AcDbLine
 10
575.8152774098
 20
464.5645990923
 30
0.0
 11
575.8152774098
 21
129.5645990923
 31
0.0
  0
LINE
  5
7B
330
1F
100
AcDbEntity
  8
0
  6
Continuous
 62
     7
370
    25
100
AcDbLine
 10
575.8152774098
 20
464.5645990923
 30
0.0
 11
574.3173331077
 21
464.5645990923
 31
0.0
  0
ARC
  5
7C
330
1F
100
AcDbEntity
  8
0
  6
Continuous
 62
     7
370
    25
100
AcDbCircle
 10
549.3918305598
 20
464.5645990923
 30
0.0
 40
24.92550254794048
100
AcDbArc
 50
0.0
 51
90.0
  0
LINE
  5
7D
330
1F
100
AcDbEntity
  8
0
  6
Continuous
 62
     7
370
    25
100
AcDbLine
 10
549.3918305598
 20
490.9880459424
 30
0.0
 11
549.3918305598
 21
489.4901016402
 31
0.0
  0
ARC
  5
7E
330
1F
100
AcDbEntity
  8
0
  6
Continuous
 62
     7
370
    25
100
AcDbCircle
 10
199.3918305598
 20
464.5645990923
 30
0.0
 40
24.92550254794043
100
AcDbArc
 50
90.0
 51
180.0
  0
LINE
  5
7F
330
1F
100
AcDbEntity
  8
0
  6
Continuous
 62
     7
370
    25
100
AcDbLine
 10
174.4663280118
 20
464.5645990923
 30
0.0
 11
172.9683837097
 21
464.5645990923
 31
0.0
  0
LINE
  5
80
330
1F
100
AcDbEntity
  8
0
  6
Continuous
 62
     7
370
    25
100
AcDbLine
 10
199.3918305598
 20
490.9880459424
 30
0.0
 11
199.3918305598
 21
489.4901016402
 31
0.0
  0
LINE
  5
81
330
1F
100
AcDbEntity
  8
0
  6
Continuous
 62
     7
370
    25
100
AcDbLine
 10
174.4663280118
 20
464.5645990923
 30
0.0
 11
174.4663280118
 21
129.5645990923
 31
0.0
  0
LINE
  5
82
330
1F
100
AcDbEntity
  8
0
  6
Continuous
 62
     7
370
    25
100
AcDbLine
 10
174.4663280118
 20
129.5645990923
 30
0.0
 11
172.9683837097
 21
129.5645990923
 31
0.0
  0
LINE
  5
83
330
1F
100
AcDbEntity
  8
0
  6
Continuous
 62
     7
370
    25
100
AcDbLine
 10
549.3918305598
 20
489.4901016402
 30
0.0
 11
199.3918305598
 21
489.4901016402
 31
0.0
  0
ARC
  5
84
330
1F
100
AcDbEntity
  8
0
  6
Continuous
 62
     7
370
    25
100
AcDbCircle
 10
199.3918305598
 20
129.5645990923
 30
0.0
 40
24.92550254794045
100
AcDbArc
 50
180.0
 51
270.0
  0
LINE
  5
85
330
1F
100
AcDbEntity
  8
0
  6
Continuous
 62
     7
370
    25
100
AcDbLine
 10
199.3918305598
 20
104.6390965443
 30
0.0
 11
199.3918305598
 21
103.1411522422
 31
0.0
  0
LINE
  5
86
330
1F
100
AcDbEntity
  8
0
  6
Continuous
 62
     7
370
    25
100
AcDbLine
 10
199.3918305598
 20
104.6390965443
 30
0.0
 11
549.3918305598
 21
104.6390965443
 31
0.0
  0
LINE
  5
87
330
1F
100
AcDbEntity
  8
0
  6
Continuous
 62
     7
370
    25
100
AcDbLine
 10
549.3918305598
 20
104.6390965443
 30
0.0
 11
549.3918305598
 21
103.1411522422
 31
0.0
  0
ARC
  5
88
330
1F
100
AcDbEntity
  8
0
  6
Continuous
 62
     7
370
    25
100
AcDbCircle
 10
549.3918305598
 20
129.5645990923
 30
0.0
 40
24.92550254794045
100
AcDbArc
 50
270.0
 51
0.0
  0
LINE
  5
89
330
1F
100
AcDbEntity
  8
0
  6
Continuous
 62
     7
370
    25
100
AcDbLine
 10
575.8152774098
 20
129.5645990923
 30
0.0
 11
574.3173331077
 21
129.5645990923
 31
0.0
  0
LINE
  5
8A
330
1F
100
AcDbEntity
  8
0
  6
Continuous
 62
     7
370
    25
100
AcDbLine
 10
574.3173331077
 20
129.5645990923
 30
0.0
 11
574.3173331077
 21
464.5645990923
 31
0.0
  0
SPLINE
  5
8B
330
1F
100
AcDbEntity
  8
0
  6
Continuous
 62
     7
370
    25
100
AcDbSpline
210
0.0
220
0.0
230
1.0
 70
     8
 71
     3
 72
    15
 73
    11
 74
     0
 42
0.00000001
 43
0.00000001
 40
0.0
 40
0.0
 40
0.0
 40
0.0
 40
0.1277272151590566
 40
0.2500006214650742
 40
0.375816912057556
 40
0.5000000007394524
 40
0.6241812754042331
 40
0.7499993797227463
 40
0.8722718023273414
 40
1.0
 40
1.0
 40
1.0
 40
1.0
 10
549.3918305597579
 20
481.7354071826947
 30
0.0
 10
550.5384406332698
 20
481.6661017749639
 30
0.0
 10
552.7827018159719
 20
481.5304502226928
 30
0.0
 10
556.0239551965071
 20
480.4968839690387
 30
0.0
 10
558.9867526850301
 20
478.9176915521942
 30
0.0
 10
561.596064600508
 20
476.7688560811791
 30
0.0
 10
563.7449136042558
 20
474.1595352525864
 30
0.0
 10
565.324106367662
 20
471.1967470941383
 30
0.0
 10
566.3576797747135
 20
467.9554792833857
 30
0.0
 10
566.4933322416688
 20
465.7112180282817
 30
0.0
 10
566.5626386501682
 20
464.5645990922843
 30
0.0
  0
LINE
  5
8C
330
1F
100
AcDbEntity
  8
0
  6
Continuous
 62
     7
370
    25
100
AcDbLine
 10
549.3918305598
 20
489.4901016402
 30
0.0
 11
549.3918305598
 21
481.7354071827
 31
0.0
  0
LINE
  5
8D
330
1F
100
AcDbEntity
  8
0
  6
Continuous
 62
     7
370
    25
100
AcDbLine
 10
574.3173331077
 20
464.5645990923
 30
0.0
 11
566.5626386502
 21
464.5645990923
 31
0.0
  0
SPLINE
  5
8E
330
1F
100
AcDbEntity
  8
0
  6
Continuous
 62
     7
370
    25
100
AcDbSpline
210
0.0
220
0.0
230
1.0
 70
     8
 71
     3
 72
    15
 73
    11
 74
     0
 42
0.00000001
 43
0.00000001
 40
0.0
 40
0.0
 40
0.0
 40
0.0
 40
0.1277272144880672
 40
0.250000621465344
 40
0.375816911454839
 40
0.5000000007398325
 40
0.624181274784589
 40
0.7499993797230149
 40
0.872271801637495
 40
1.0
 40
1.0
 40
1.0
 40
1.0
 10
182.2210224693474
 20
464.5645990922843
 30
0.0
 10
182.2903278763981
 20
465.7112091597452
 30
0.0
 10
182.4259794280508
 20
467.9554703423958
 30
0.0
 10
183.4595456785163
 20
471.196723718534
 30
0.0
 10
185.0387380967281
 20
474.1595212128657
 30
0.0
 10
187.1875735631325
 20
476.7688331252825
 30
0.0
 10
189.796894394633
 20
478.9176821335751
 30
0.0
 10
192.7596825471095
 20
480.4968748955755
 30
0.0
 10
196.0009503623822
 20
481.5304483059049
 30
0.0
 10
198.2452116175392
 20
481.666100773496
 30
0.0
 10
199.3918305597577
 20
481.7354071826947
 30
0.0
  0
LINE
  5
8F
330
1F
100
AcDbEntity
  8
0
  6
Continuous
 62
     7
370
    25
100
AcDbLine
 10
174.4663280118
 20
464.5645990923
 30
0.0
 11
182.2210224693
 21
464.5645990923
 31
0.0
  0
LINE
  5
90
330
1F
100
AcDbEntity
  8
0
  6
Continuous
 62
     7
370
    25
100
AcDbLine
 10
199.3918305598
 20
489.4901016402
 30
0.0
 11
199.3918305598
 21
481.7354071827
 31
0.0
  0
SPLINE
  5
91
330
1F
100
AcDbEntity
  8
0
  6
Continuous
 62
     7
370
    25
100
AcDbSpline
210
0.0
220
0.0
230
1.0
 70
     8
 71
     3
 72
    15
 73
    11
 74
     0
 42
0.00000001
 43
0.00000001
 40
0.0
 40
0.0
 40
0.0
 40
0.0
 40
0.1400191845667821
 40
0.2800377847322005
 40
0.4202066507474475
 40
0.5603762640975251
 40
0.670256631647729
 40
0.7801372314471056
 40
0.8900685601095125
 40
1.0
 40
1.0
 40
1.0
 40
1.0
 10
566.5499193800982
 20
464.5607220806848
 30
0.0
 10
566.5294425815068
 20
448.9167412283699
 30
0.0
 10
566.4884890697881
 20
417.6288448173911
 30
0.0
 10
566.4774805054773
 20
370.6637671068106
 30
0.0
 10
566.505682062312
 20
323.686029458712
 30
0.0
 10
566.5692030335945
 20
280.0901418250782
 30
0.0
 10
566.6556245175238
 20
239.8973805122971
 30
0.0
 10
566.756508450056
 20
203.1008401717528
 30
0.0
 10
566.8763132102268
 20
166.3189164215467
 30
0.0
 10
566.9727552655796
 20
141.8160423340215
 30
0.0
 10
567.0209763176508
 20
129.5645990922843
 30
0.0
  0
LINE
  5
92
330
1F
100
AcDbEntity
  8
0
  6
Continuous
 62
     7
370
    25
100
AcDbLine
 10
566.5626386502
 20
464.5645990923
 30
0.0
 11
566.5499193801
 21
464.5607220807
 31
0.0
  0
LINE
  5
93
330
1F
100
AcDbEntity
  8
0
  6
Continuous
 62
     7
370
    25
100
AcDbLine
 10
574.3173331077
 20
129.5645990923
 30
0.0
 11
567.0209763177
 21
129.5645990923
 31
0.0
  0
LINE
  5
94
330
1F
100
AcDbEntity
  8
0
  6
Continuous
 62
     7
370
    25
100
AcDbLine
 10
182.2337417394
 20
464.5607221069
 30
0.0
 11
182.2210224693
 21
464.5645990923
 31
0.0
  0
SPLINE
  5
95
330
1F
100
AcDbEntity
  8
0
  6
Continuous
 62
     7
370
    25
100
AcDbSpline
210
0.0
220
0.0
230
1.0
 70
     8
 71
     3
 72
    13
 73
     9
 74
     0
 42
0.00000001
 43
0.00000001
 40
0.0
 40
0.0
 40
0.0
 40
0.0
 40
0.1664293762424088
 40
0.3328682573009775
 40
0.4992942274053385
 40
0.6661908465485263
 40
0.8331032776812829
 40
0.9999999999999999
 40
0.9999999999999999
 40
0.9999999999999999
 40
0.9999999999999999
 10
181.7626848018647
 20
129.5645990922842
 30
0.0
 10
181.8343457013631
 20
148.1145369506298
 30
0.0
 10
181.9776715929288
 20
185.2154720581156
 30
0.0
 10
182.1347469081909
 20
240.9389171356096
 30
0.0
 10
182.246533511968
 20
296.7537285783986
 30
0.0
 10
182.3016927162653
 20
352.6526208316081
 30
0.0
 10
182.3037112179333
 20
408.6164243804739
 30
0.0
 10
182.2570641671704
 20
445.9132079178514
 30
0.0
 10
182.2337417393769
 20
464.560722106895
 30
0.0
  0
LINE
  5
96
330
1F
100
AcDbEntity
  8
0
  6
Continuous
 62
     7
370
    25
100
AcDbLine
 10
174.4663280118
 20
129.5645990923
 30
0.0
 11
181.7626848019
 21
129.5645990923
 31
0.0
  0
LINE
  5
97
330
1F
100
AcDbEntity
  8
0
  6
Continuous
 62
     7
370
    25
100
AcDbLine
 10
199.3938974924
 20
111.9444709349
 30
0.0
 11
199.3918305598
 21
111.9354533344
 31
0.0
  0
SPLINE
  5
98
330
1F
100
AcDbEntity
  8
0
  6
Continuous
 62
     7
370
    25
100
AcDbSpline
210
0.0
220
0.0
230
1.0
 70
     8
 71
     3
 72
    14
 73
    10
 74
     0
 42
0.00000001
 43
0.00000001
 40
0.0
 40
0.0
 40
0.0
 40
0.0
 40
0.1427477635401105
 40
0.2855033727887371
 40
0.4282496237593007
 40
0.5713184191744886
 40
0.7143969006257627
 40
0.8574667056505875
 40
1.0
 40
1.0
 40
1.0
 40
1.0
 10
549.3897636270997
 20
111.9444709348706
 30
0.0
 10
532.7485905640797
 20
111.9885002142077
 30
0.0
 10
499.4653298051935
 20
112.0765611928214
 30
0.0
 10
449.4998748854487
 20
112.1586201927007
 30
0.0
 10
399.4805208009093
 20
112.2021283429111
 30
0.0
 10
349.4156871106863
 20
112.201906076507
 30
0.0
 10
299.3208482268557
 20
112.1586324134879
 30
0.0
 10
249.3048716658139
 20
112.0766133360498
 30
0.0
 10
216.0100405660029
 20
111.988463204716
 30
0.0
 10
199.393897492412
 20
111.9444709348706
 30
0.0
  0
LINE
  5
99
330
1F
100
AcDbEntity
  8
0
  6
Continuous
 62
     7
370
    25
100
AcDbLine
 10
549.3918305598
 20
111.9354533344
 30
0.0
 11
549.3897636271
 21
111.9444709349
 31
0.0
  0
LINE
  5
9A
330
1F
100
AcDbEntity
  8
0
  6
Continuous
 62
     7
370
    25
100
AcDbLine
 10
549.3918305598
 20
104.6390965443
 30
0.0
 11
549.3918305598
 21
111.9354533344
 31
0.0
  0
LINE
  5
9B
330
1F
100
AcDbEntity
  8
0
  6
Continuous
 62
     7
370
    25
100
AcDbLine
 10
199.3918305598
 20
104.6390965443
 30
0.0
 11
199.3918305598
 21
111.9354533344
 31
0.0
  0
SPLINE
  5
9C
330
1F
100
AcDbEntity
  8
0
  6
Continuous
 62
     7
370
    25
100
AcDbSpline
210
0.0
220
0.0
230
1.0
 70
     8
 71
     3
 72
    15
 73
    11
 74
     0
 42
0.00000001
 43
0.00000001
 40
0.0
 40
0.0
 40
0.0
 40
0.0
 40
0.1277272276677287
 40
0.250000621460286
 40
0.3758169348150585
 40
0.5000000007319627
 40
0.6241812975144801
 40
0.7499993797180391
 40
0.8722718141150912
 40
1.0
 40
1.0
 40
1.0
 40
1.0
 10
199.3918305597577
 20
111.9354533343913
 30
0.0
 10
198.214614088869
 20
112.0066087135002
 30
0.0
 10
195.9104471959564
 20
112.1458812031824
 30
0.0
 10
192.5826753652262
 20
113.2070363702102
 30
0.0
 10
189.54079251304
 20
114.8283819244981
 30
0.0
 10
186.8618305366823
 20
117.0345760918829
 30
0.0
 10
184.6556228192049
 20
119.7135469929162
 30
0.0
 10
183.0342769181598
 20
122.7554205027613
 30
0.0
 10
181.973114588593
 20
126.0832067821284
 30
0.0
 10
181.8338411830465
 20
128.387373747354
 30
0.0
 10
181.7626848018647
 20
129.5645990922843
 30
0.0
  0
SPLINE
  5
9D
330
1F
100
AcDbEntity
  8
0
  6
Continuous
 62
     7
370
    25
100
AcDbSpline
210
0.0
220
0.0
230
1.0
 70
     8
 71
     3
 72
    15
 73
    11
 74
     0
 42
0.00000001
 43
0.00000001
 40
0.0
 40
0.0
 40
0.0
 40
0.0
 40
0.127727228332672
 40
0.2500006214601156
 40
0.3758169354124244
 40
0.5000000007317801
 40
0.6241812975162021
 40
0.7499993797179499
 40
0.8722718141171237
 40
1.0
 40
1.0
 40
1.0
 40
1.0
 10
567.0209763176508
 20
129.5645990922843
 30
0.0
 10
566.9498209378502
 20
128.3873826152393
 30
0.0
 10
566.8105484475392
 20
126.0832157222742
 30
0.0
 10
565.749393277265
 20
122.7554438870709
 30
0.0
 10
564.128047724378
 20
119.7135610407961
 30
0.0
 10
561.9218535558758
 20
117.0345990657012
 30
0.0
 10
559.2428826591091
 20
114.8283913517136
 30
0.0
 10
556.2010091492481
 20
113.2070454506741
 30
0.0
 10
552.873222869894
 20
112.1458831211151
 30
0.0
 10
550.5690559046687
 20
112.0066097155706
 30
0.0
 10
549.3918305597579
 20
111.9354533343913
 30
0.0
  0
LINE
  5
9E
330
1F
100
AcDbEntity
  8
0
  6
Continuous
 62
     7
370
    25
100
AcDbLine
 10
350.1418305598
 20
487.8414114317
 30
0.0
 11
350.1418305598
 21
486.6900203943
 31
0.0
  0
ARC
  5
9F
330
1F
100
AcDbEntity
  8
0
  6
Continuous
 62
     7
370
    25
100
AcDbCircle
 10
350.8925153228
 20
491.4537670576
 30
0.0
 40
4.822531481009335
100
AcDbArc
 50
261.0448095014
 51
272.9633983002
  0
LINE
  5
A0
330
1F
100
AcDbEntity
  8
0
  6
Continuous
 62
     7
370
    25
100
AcDbLine
 10
351.1418305598
 20
486.6376844381
 30
0.0
 11
397.6418305598
 21
486.6376844381
 31
0.0
  0
ARC
  5
A1
330
1F
100
AcDbEntity
  8
0
  6
Continuous
 62
     7
370
    25
100
AcDbCircle
 10
397.8911457967
 20
491.4537670576
 30
0.0
 40
4.822531481000616
100
AcDbArc
 50
267.0366016998
 51
278.9551904986
  0
LINE
  5
A2
330
1F
100
AcDbEntity
  8
0
  6
Continuous
 62
     7
370
    25
100
AcDbLine
 10
398.6418305598
 20
486.6900203943
 30
0.0
 11
398.6418305598
 21
487.8414114317
 31
0.0
  0
ARC
  5
A3
330
1F
100
AcDbEntity
  8
0
  6
Continuous
 62
     7
370
    25
100
AcDbCircle
 10
397.8911457967
 20
483.0776647684
 30
0.0
 40
4.822531481017996
100
AcDbArc
 50
81.0448095014
 51
92.9633983002
  0
LINE
  5
A4
330
1F
100
AcDbEntity
  8
0
  6
Continuous
 62
     7
370
    25
100
AcDbLine
 10
397.6418305598
 20
487.8937473879
 30
0.0
 11
351.1418305598
 21
487.8937473879
 31
0.0
  0
ARC
  5
A5
330
1F
100
AcDbEntity
  8
0
  6
Continuous
 62
     7
370
    25
100
AcDbCircle
 10
350.8925153228
 20
483.0776647684
 30
0.0
 40
4.822531481017047
100
AcDbArc
 50
87.0366016998
 51
98.9551904986
  0
SPLINE
  5
A6
330
1F
100
AcDbEntity
  8
0
  6
Continuous
 62
     7
370
    25
100
AcDbSpline
210
0.0
220
0.0
230
1.0
 70
     8
 71
     3
 72
    15
 73
    11
 74
     0
 42
0.00000001
 43
0.00000001
 40
0.0
 40
0.0
 40
0.0
 40
0.0
 40
0.1366918975466712
 40
0.2733829199233769
 40
0.4102156772962545
 40
0.5470446163326573
 40
0.6602418527899317
 40
0.773440961014893
 40
0.8867203157131229
 40
1.0
 40
1.0
 40
1.0
 40
1.0
 10
199.3918305597577
 20
481.7354071826947
 30
0.0
 10
215.3249726634147
 20
481.6881031101694
 30
0.0
 10
247.1911548587754
 20
481.5934952679833
 30
0.0
 10
295.0477796427037
 20
481.4941904416618
 30
0.0
 10
342.9429805126314
 20
481.4316669681469
 30
0.0
 10
388.1118760050363
 20
481.4220999586059
 30
0.0
 10
430.5136485058825
 20
481.4601995716586
 30
0.0
 10
470.1506317071439
 20
481.5267953121016
 30
0.0
 10
509.7809225777012
 20
481.6165687584442
 30
0.0
 10
536.1881817603456
 20
481.6957943361931
 30
0.0
 10
549.3918305597579
 20
481.7354071826947
 30
0.0
  0
LINE
  5
A7
330
1F
100
AcDbEntity
  8
0
  6
Continuous
 62
     7
370
    25
100
AcDbLine
 10
397.6418305598
 20
486.6376844381
 30
0.0
 11
397.6418305598
 21
487.4365880659
 31
0.0
  0
ARC
  5
A8
330
1F
100
AcDbEntity
  8
0
  6
Continuous
 62
     7
370
    25
100
AcDbCircle
 10
397.8911457967
 20
492.2526706854
 30
0.0
 40
4.822531481000954
100
AcDbArc
 50
267.0366016998
 51
278.9551904986
  0
LINE
  5
A9
330
1F
100
AcDbEntity
  8
0
  6
Continuous
 62
     7
370
    25
100
AcDbLine
 10
351.1418305598
 20
486.6376844381
 30
0.0
 11
351.1418305598
 21
487.4365880659
 31
0.0
  0
ARC
  5
AA
330
1F
100
AcDbEntity
  8
0
  6
Continuous
 62
     7
370
    25
100
AcDbCircle
 10
350.8925153228
 20
492.2526706854
 30
0.0
 40
4.822531481009222
100
AcDbArc
 50
261.0448095014
 51
272.9633983002
  0
LINE
  5
AB
330
1F
100
AcDbEntity
  8
0
  6
Continuous
 62
     7
370
    25
100
AcDbLine
 10
351.1418305598
 20
487.4365880659
 30
0.0
 11
397.6418305598
 21
487.4365880659
 31
0.0
  0
LINE
  5
AC
330
1F
100
AcDbEntity
  8
0
  6
Continuous
 62
     7
370
    25
100
AcDbLine
 10
181.7626848019
 20
129.5645990923
 30
0.0
 11
181.8000372444
 21
129.5325562807
 31
0.0
  0
SPLINE
  5
AD
330
1F
100
AcDbEntity
  8
0
  6
Continuous
 62
     7
370
    25
100
AcDbSpline
210
0.0
220
0.0
230
1.0
 70
     8
 71
     3
 72
    20
 73
    16
 74
     0
 42
0.00000001
 43
0.00000001
 40
0.0
 40
0.0
 40
0.0
 40
0.0
 40
0.12389196000058
 40
0.2498681434631592
 40
0.3327189248945756
 40
0.4158479371667609
 40
0.5003172045298676
 40
0.561073235190371
 40
0.6245083158154235
 40
0.6852665893870166
 40
0.7501918228547227
 40
0.8087873499023254
 40
0.8744868432483354
 40
0.926154029147923
 40
1.0
 40
1.0
 40
1.0
 40
1.0
 10
182.2337417393768
 20
464.5607221068964
 30
0.0
 10
182.3981925804383
 20
464.5492751739151
 30
0.0
 10
182.7298608044844
 20
464.5261887372137
 30
0.0
 10
184.1366151721719
 20
464.1751082604562
 30
0.0
 10
185.8228742805157
 20
463.7084261019717
 30
0.0
 10
187.5921616172391
 20
463.1938257326365
 30
0.0
 10
189.4618295247156
 20
462.6311289774002
 30
0.0
 10
191.3477386926533
 20
462.0505720795364
 30
0.0
 10
193.1394681814114
 20
461.4907473207559
 30
0.0
 10
195.0776482497104
 20
460.8768956282728
 30
0.0
 10
197.0562208654701
 20
460.2442492295822
 30
0.0
 10
199.1611195895507
 20
459.5649030625269
 30
0.0
 10
201.1749276306943
 20
458.9118673651202
 30
0.0
 10
203.4023671891113
 20
458.1850259495196
 30
0.0
 10
204.8880501153377
 20
457.6997846647036
 30
0.0
 10
205.7621552761425
 20
457.4142917753353
 30
0.0
  0
SPLINE
  5
AE
330
1F
100
AcDbEntity
  8
0
  6
Continuous
 62
     7
370
    25
100
AcDbSpline
210
0.0
220
0.0
230
1.0
 70
     8
 71
     3
 72
    14
 73
    10
 74
     0
 42
0.00000001
 43
0.00000001
 40
0.0
 40
0.0
 40
0.0
 40
0.0
 40
0.1305386821119892
 40
0.2855450758276148
 40
0.4405517676476695
 40
0.5957333888823362
 40
0.7509159503646693
 40
0.875450078513384
 40
1.0
 40
1.0
 40
1.0
 40
1.0
 10
205.7621552761424
 20
457.4142917753353
 30
0.0
 10
205.7671398784376
 20
443.3791828867465
 30
0.0
 10
205.7780433793564
 20
412.6782736466585
 30
0.0
 10
205.7792988887508
 20
365.296676646536
 30
0.0
 10
205.7720079206142
 20
315.2708755946368
 30
0.0
 10
205.7409307746707
 20
265.24466780424
 30
0.0
 10
205.674613772554
 20
218.523285284962
 30
0.0
 10
205.5790359097167
 20
175.1207064423109
 30
0.0
 10
205.49636703735
 20
148.4039875066725
 30
0.0
 10
205.4550299803295
 20
135.0447810432901
 30
0.0
  0
SPLINE
  5
AF
330
1F
100
AcDbEntity
  8
0
  6
Continuous
 62
     7
370
    25
100
AcDbSpline
210
0.0
220
0.0
230
1.0
 70
     8
 71
     3
 72
    17
 73
    13
 74
     0
 42
0.00000001
 43
0.00000001
 40
0.0
 40
0.0
 40
0.0
 40
0.0
 40
0.1266162836058794
 40
0.2500884703055958
 40
0.3750000705476598
 40
0.5003513362776641
 40
0.6244908277863395
 40
0.7500881973979512
 40
0.8087128132756742
 40
0.8744281464957985
 40
0.9261277671239695
 40
1.0
 40
1.0
 40
1.0
 40
1.0
 10
181.8000372443854
 20
129.5325562806976
 30
0.0
 10
182.0023695354186
 20
129.4732467838471
 30
0.0
 10
182.4020098637941
 20
129.3561005454682
 30
0.0
 10
184.0521943498562
 20
129.5223652632575
 30
0.0
 10
186.3760329559051
 20
129.9291960480455
 30
0.0
 10
189.3698660850124
 20
130.587777137529
 30
0.0
 10
192.8968400288776
 20
131.4640080412491
 30
0.0
 10
196.1382485267428
 20
132.3368649894632
 30
0.0
 10
198.901270464057
 20
133.1143205806408
 30
0.0
 10
200.9022094102151
 20
133.6906275576857
 30
0.0
 10
203.1138541584672
 20
134.3411139024084
 30
0.0
 10
204.5878802510233
 20
134.7841492850773
 30
0.0
 10
205.4550299803295
 20
135.04478104329
 30
0.0
  0
SPLINE
  5
B0
330
1F
100
AcDbEntity
  8
0
  6
Continuous
 62
     7
370
    25
100
AcDbSpline
210
0.0
220
0.0
230
1.0
 70
     8
 71
     3
 72
    20
 73
    16
 74
     0
 42
0.00000001
 43
0.00000001
 40
0.0
 40
0.0
 40
0.0
 40
0.0
 40
0.1265636594548467
 40
0.2499829629111612
 40
0.3327638616203942
 40
0.4158857241727338
 40
0.5003332294284643
 40
0.5611090712417971
 40
0.6245380711181816
 40
0.6853005982887608
 40
0.7501986628187065
 40
0.8087961342916329
 40
0.8744834833273748
 40
0.9260963211903245
 40
1.0
 40
1.0
 40
1.0
 40
1.0
 10
199.393897492412
 20
111.9444709348706
 30
0.0
 10
199.3705580760272
 20
112.1103669366177
 30
0.0
 10
199.3244590892751
 20
112.4380374087777
 30
0.0
 10
199.5627224053718
 20
113.8155766936791
 30
0.0
 10
199.9165110601538
 20
115.4450353435283
 30
0.0
 10
200.3323658884812
 20
117.1714685216291
 30
0.0
 10
200.802816964318
 20
118.999231660196
 30
0.0
 10
201.2987609404147
 20
120.8457824985344
 30
0.0
 10
201.7841086209893
 20
122.6027916866296
 30
0.0
 10
202.3228596502273
 20
124.5057047291911
 30
0.0
 10
202.8842522280659
 20
126.4512059610684
 30
0.0
 10
203.49290688937
 20
128.5238020269129
 30
0.0
 10
204.0832074787001
 20
130.5093232443876
 30
0.0
 10
204.7453084709764
 20
132.7090373453698
 30
0.0
 10
205.1920123338735
 20
134.1791713611044
 30
0.0
 10
205.4550299803295
 20
135.0447810432901
 30
0.0
  0
SPLINE
  5
B1
330
1F
100
AcDbEntity
  8
0
  6
Continuous
 62
     7
370
    25
100
AcDbSpline
210
0.0
220
0.0
230
1.0
 70
     8
 71
     3
 72
    14
 73
    10
 74
     0
 42
0.00000001
 43
0.00000001
 40
0.0
 40
0.0
 40
0.0
 40
0.0
 40
0.1267700191743646
 40
0.2721478071983585
 40
0.4175339142062409
 40
0.5629107601800596
 40
0.7086036766050685
 40
0.8543057145572768
 40
0.9999999999999999
 40
0.9999999999999999
 40
0.9999999999999999
 40
0.9999999999999999
 10
205.4550299803295
 20
135.0447810432901
 30
0.0
 10
219.7221910085667
 20
135.0714773106204
 30
0.0
 10
250.3506993425453
 20
135.1287884214152
 30
0.0
 10
297.3762473037991
 20
135.1787327345773
 30
0.0
 10
346.51351027203
 20
135.2046198102346
 30
0.0
 10
395.6942528821094
 20
135.2053198740142
 30
0.0
 10
444.9042422662098
 20
135.1832322355737
 30
0.0
 10
494.1353450340864
 20
135.1354137981917
 30
0.0
 10
526.9311599450064
 20
135.074991425751
 30
0.0
 10
543.3286311391861
 20
135.0447810432901
 30
0.0
  0
SPLINE
  5
B2
330
1F
100
AcDbEntity
  8
0
  6
Continuous
 62
     7
370
    25
100
AcDbSpline
210
0.0
220
0.0
230
1.0
 70
     8
 71
     3
 72
    17
 73
    13
 74
     0
 42
0.00000001
 43
0.00000001
 40
0.0
 40
0.0
 40
0.0
 40
0.0
 40
0.1266190959654413
 40
0.2500924586643482
 40
0.3750040151227864
 40
0.5003544613468006
 40
0.6244928536890849
 40
0.7500892113057148
 40
0.8087123699602026
 40
0.8744284701874958
 40
0.9261190108075703
 40
1.0
 40
1.0
 40
1.0
 40
1.0
 10
549.3897636270997
 20
111.9444709348706
 30
0.0
 10
549.4130361728229
 20
112.1105997897252
 30
0.0
 10
549.4590030795906
 20
112.4387301830825
 30
0.0
 10
549.1915882977179
 20
113.9870541716217
 30
0.0
 10
548.6924109626088
 20
116.2177620802968
 30
0.0
 10
547.9529302755009
 20
119.1298678577755
 30
0.0
 10
547.0095423477214
 20
122.5888666052423
 30
0.0
 10
546.0943137748728
 20
125.7872469818618
 30
0.0
 10
545.2907966783685
 20
128.523715705689
 30
0.0
 10
544.7002572090262
 20
130.5099621240585
 30
0.0
 10
544.0381702573588
 20
132.7096770633507
 30
0.0
 10
543.5914578619714
 20
134.1798143195515
 30
0.0
 10
543.3286311391861
 20
135.0447810432901
 30
0.0
  0
SPLINE
  5
B3
330
1F
100
AcDbEntity
  8
0
  6
Continuous
 62
     7
370
    25
100
AcDbSpline
210
0.0
220
0.0
230
1.0
 70
     8
 71
     3
 72
    19
 73
    15
 74
     0
 42
0.00000001
 43
0.00000001
 40
0.0
 40
0.0
 40
0.0
 40
0.0
 40
0.0609176379875119
 40
0.1075781157532509
 40
0.1526959205540141
 40
0.2035613434400747
 40
0.2498889345086525
 40
0.3354981931962926
 40
0.418128915002451
 40
0.4997520450948374
 40
0.6250774110533414
 40
0.7499632023624951
 40
0.8734098775417941
 40
1.0
 40
1.0
 40
1.0
 40
1.0
 10
543.3286311391861
 20
135.0447810432901
 30
0.0
 10
544.0439213248022
 20
134.8295726454253
 30
0.0
 10
545.3070952252934
 20
134.4495232098036
 30
0.0
 10
547.0795734316954
 20
133.9259712159436
 30
0.0
 10
548.7153893467873
 20
133.4496670456211
 30
0.0
 10
550.3196842832839
 20
132.9909787749859
 30
0.0
 10
552.3342375297342
 20
132.4256155555175
 30
0.0
 10
554.6140084663812
 20
131.8056630777551
 30
0.0
 10
557.1014032005528
 20
131.1606636742785
 30
0.0
 10
559.7528377806639
 20
130.5132349964994
 30
0.0
 10
562.4078773224929
 20
129.9291286474764
 30
0.0
 10
564.7314013344196
 20
129.522382964323
 30
0.0
 10
566.3816680201583
 20
129.3560960104567
 30
0.0
 10
566.7812972188839
 20
129.4732452595607
 30
0.0
 10
566.9836238751301
 20
129.5325562806989
 30
0.0
  0
SPLINE
  5
B4
330
1F
100
AcDbEntity
  8
0
  6
Continuous
 62
     7
370
    25
100
AcDbSpline
210
0.0
220
0.0
230
1.0
 70
     8
 71
     3
 72
    15
 73
    11
 74
     0
 42
0.00000001
 43
0.00000001
 40
0.0
 40
0.0
 40
0.0
 40
0.0
 40
0.1092517198271472
 40
0.2185033398094575
 40
0.3277992585761256
 40
0.4370949807603249
 40
0.5777532765137604
 40
0.7184109269810959
 40
0.8592052444633318
 40
1.0
 40
1.0
 40
1.0
 40
1.0
 10
543.328631139186
 20
135.0447810432901
 30
0.0
 10
543.2920860360648
 20
146.7627611583651
 30
0.0
 10
543.2189958632209
 20
170.198710679486
 30
0.0
 10
543.1367809844565
 20
205.3870292509954
 30
0.0
 10
543.0755588368177
 20
240.5982736278647
 30
0.0
 10
543.0321146817689
 20
279.2019449424826
 30
0.0
 10
543.0103833250388
 20
321.1947488895875
 30
0.0
 10
543.0061570391757
 20
366.5878209160517
 30
0.0
 10
543.0047797874099
 20
412.0003410239512
 30
0.0
 10
543.015930485603
 20
442.2762924919321
 30
0.0
 10
543.021505843373
 20
457.4142917753353
 30
0.0
  0
SPLINE
  5
B5
330
1F
100
AcDbEntity
  8
0
  6
Continuous
 62
     7
370
    25
100
AcDbSpline
210
0.0
220
0.0
230
1.0
 70
     8
 71
     3
 72
    19
 73
    15
 74
     0
 42
0.00000001
 43
0.00000001
 40
0.0
 40
0.0
 40
0.0
 40
0.0
 40
0.0608871502769505
 40
0.107556377263345
 40
0.1527021865234763
 40
0.2035752014047573
 40
0.2498967934772917
 40
0.3355369131302522
 40
0.4181676040491434
 40
0.499767572610189
 40
0.6250964989721163
 40
0.7500719731428102
 40
0.8734795134526293
 40
1.0
 40
1.0
 40
1.0
 40
1.0
 10
543.0215058433729
 20
457.4142917753353
 30
0.0
 10
543.7421314107653
 20
457.649693325028
 30
0.0
 10
545.0151073184817
 20
458.0655271712822
 30
0.0
 10
546.8005226889517
 20
458.6482339274602
 30
0.0
 10
548.4479633099737
 20
459.1841830019463
 30
0.0
 10
550.0625529883076
 20
459.7070311420462
 30
0.0
 10
552.0886121082925
 20
460.3603282661439
 30
0.0
 10
554.3788974606214
 20
461.0917124649353
 30
0.0
 10
556.8730137276129
 20
461.8765692124235
 30
0.0
 10
559.5247154300141
 20
462.6950184603135
 30
0.0
 10
562.168409333285
 20
463.4851096558341
 30
0.0
 10
564.4558666980913
 20
464.1268466049929
 30
0.0
 10
566.0448868728529
 20
464.5248549130165
 30
0.0
 10
566.380183131279
 20
464.5486674932901
 30
0.0
 10
566.5499193800982
 20
464.5607220806849
 30
0.0
  0
LINE
  5
B6
330
1F
100
AcDbEntity
  8
0
  6
Continuous
 62
     7
370
    25
100
AcDbLine
 10
566.9836238751
 20
129.5325562807
 30
0.0
 11
567.0209763177
 21
129.5645990923
 31
0.0
  0
SPLINE
  5
B7
330
1F
100
AcDbEntity
  8
0
  6
Continuous
 62
     7
370
    25
100
AcDbSpline
210
0.0
220
0.0
230
1.0
 70
     8
 71
     3
 72
    15
 73
    11
 74
     0
 42
0.00000001
 43
0.00000001
 40
0.0
 40
0.0
 40
0.0
 40
0.0
 40
0.1250345603200254
 40
0.2500398914115249
 40
0.375025080544564
 40
0.5000000004212124
 40
0.6249749202877961
 40
0.7499601093833865
 40
0.8749654402860938
 40
1.0
 40
1.0
 40
1.0
 40
1.0
 10
199.393897492412
 20
111.9444709348706
 30
0.0
 10
198.2461461742879
 20
112.0139807842543
 30
0.0
 10
195.9509118469416
 20
112.1529842337605
 30
0.0
 10
192.639378435579
 20
113.2050114033153
 30
0.0
 10
189.5855379009108
 20
114.8330707790839
 30
0.0
 10
186.9071638504784
 20
117.0364577403483
 30
0.0
 10
184.702189466839
 20
119.7148163387789
 30
0.0
 10
183.0709991758448
 20
122.770250007569
 30
0.0
 10
182.0145110928104
 20
126.0848105992609
 30
0.0
 10
181.8715340983682
 20
128.3832181615482
 30
0.0
 10
181.8000372443854
 20
129.5325562806976
 30
0.0
  0
SPLINE
  5
B8
330
1F
100
AcDbEntity
  8
0
  6
Continuous
 62
     7
370
    25
100
AcDbSpline
210
0.0
220
0.0
230
1.0
 70
     8
 71
     3
 72
    15
 73
    11
 74
     0
 42
0.00000001
 43
0.00000001
 40
0.0
 40
0.0
 40
0.0
 40
0.0
 40
0.1250345613511667
 40
0.2500398906185334
 40
0.3750250796996372
 40
0.4999999995595752
 40
0.6249749194428682
 40
0.7499601085903916
 40
0.8749654413172298
 40
1.0
 40
1.0
 40
1.0
 40
1.0
 10
549.3897636271021
 20
111.9444709348706
 30
0.0
 10
550.5375149547456
 20
112.0139807852802
 30
0.0
 10
552.832749274921
 20
112.1529842352504
 30
0.0
 10
556.1442826778842
 20
113.2050114026206
 30
0.0
 10
559.19812319929
 20
114.8330707662109
 30
0.0
 10
561.8764972522621
 20
117.0364577235791
 30
0.0
 10
564.0814716397872
 20
119.7148163194597
 30
0.0
 10
565.7126619429655
 20
122.7702500015109
 30
0.0
 10
566.7691500281971
 20
126.0848106016108
 30
0.0
 10
566.912127022189
 20
128.3832181710808
 30
0.0
 10
566.9836238751301
 20
129.5325562806989
 30
0.0
  0
LINE
  5
B9
330
1F
100
AcDbEntity
  8
0
  6
Continuous
 62
     7
370
    25
100
AcDbLine
 10
199.3597979459
 20
481.6827645745
 30
0.0
 11
199.3918305598
 21
481.7354071827
 31
0.0
  0
LINE
  5
BA
330
1F
100
AcDbEntity
  8
0
  6
Continuous
 62
     7
370
    25
100
AcDbLine
 10
549.4238631475
 20
481.6827645744
 30
0.0
 11
549.3918305598
 21
481.7354071827
 31
0.0
  0
SPLINE
  5
BB
330
1F
100
AcDbEntity
  8
0
  6
Continuous
 62
     7
370
    25
100
AcDbSpline
210
0.0
220
0.0
230
1.0
 70
     8
 71
     3
 72
    19
 73
    15
 74
     0
 42
0.00000001
 43
0.00000001
 40
0.0
 40
0.0
 40
0.0
 40
0.0
 40
0.0608996912117072
 40
0.1075653419132977
 40
0.1527019747678855
 40
0.2035749477058413
 40
0.2498997942566274
 40
0.3355398313614913
 40
0.4181724959524203
 40
0.4997764757391174
 40
0.6251078145529215
 40
0.7500835747419853
 40
0.8760828359566345
 40
1.0
 40
1.0
 40
1.0
 40
1.0
 10
543.0215058433728
 20
457.4142917753353
 30
0.0
 10
543.2546048459304
 20
458.1371401512158
 30
0.0
 10
543.6663207908045
 20
459.4138860781001
 30
0.0
 10
544.2375880685574
 20
461.2100728102444
 30
0.0
 10
544.7597299681744
 20
462.8705275697111
 30
0.0
 10
545.265307264232
 20
464.5017376043289
 30
0.0
 10
545.8920973587753
 20
466.5536759392769
 30
0.0
 10
546.5854764229961
 20
468.8813323706581
 30
0.0
 10
547.3163781306271
 20
471.4288136826205
 30
0.0
 10
548.062035689221
 20
474.1528497784567
 30
0.0
 10
548.7547659613791
 20
476.8935438285863
 30
0.0
 10
549.2752575362703
 20
479.3230058836433
 30
0.0
 10
549.5327503014266
 20
481.0416623792132
 30
0.0
 10
549.4599567134431
 20
481.4702540666357
 30
0.0
 10
549.4238631474674
 20
481.682764574431
 30
0.0
  0
SPLINE
  5
BC
330
1F
100
AcDbEntity
  8
0
  6
Continuous
 62
     7
370
    25
100
AcDbSpline
210
0.0
220
0.0
230
1.0
 70
     8
 71
     3
 72
    15
 73
    11
 74
     0
 42
0.00000001
 43
0.00000001
 40
0.0
 40
0.0
 40
0.0
 40
0.0
 40
0.1126172601883328
 40
0.2252341933575136
 40
0.3379162108340202
 40
0.4505966466880155
 40
0.5878661913652037
 40
0.7251389957543473
 40
0.8625690457730377
 40
1.0
 40
1.0
 40
1.0
 40
1.0
 10
543.0215058433728
 20
457.4142917753353
 30
0.0
 10
530.3721057197477
 20
457.3901553565932
 30
0.0
 10
505.0733422039547
 20
457.3418825891965
 30
0.0
 10
467.0923108526057
 20
457.314283933029
 30
0.0
 10
429.0895409970614
 20
457.3372521225354
 30
0.0
 10
388.2999728767015
 20
457.3912754214301
 30
0.0
 10
344.7368941507473
 20
457.3691706881988
 30
0.0
 10
298.4039917479887
 20
457.3127400356709
 30
0.0
 10
252.0733849131679
 20
457.328553792152
 30
0.0
 10
221.1992656772737
 20
457.3857123849294
 30
0.0
 10
205.7621552761424
 20
457.4142917753353
 30
0.0
  0
SPLINE
  5
BD
330
1F
100
AcDbEntity
  8
0
  6
Continuous
 62
     7
370
    25
100
AcDbSpline
210
0.0
220
0.0
230
1.0
 70
     8
 71
     3
 72
    19
 73
    15
 74
     0
 42
0.00000001
 43
0.00000001
 40
0.0
 40
0.0
 40
0.0
 40
0.0
 40
0.0609030040794684
 40
0.1075675297788104
 40
0.1527025322486888
 40
0.2035757928182566
 40
0.2498997143052837
 40
0.3355407252805467
 40
0.418173419452595
 40
0.4997763169969325
 40
0.6251076162756437
 40
0.7500833378325071
 40
0.8734876168708441
 40
1.0
 40
1.0
 40
1.0
 40
1.0
 10
205.7621552761424
 20
457.4142917753353
 30
0.0
 10
205.5290438126651
 20
458.1371797912183
 30
0.0
 10
205.1173198810072
 20
459.4139522485142
 30
0.0
 10
204.5460500815903
 20
461.2101447596738
 30
0.0
 10
204.0239178153516
 20
462.8705706963185
 30
0.0
 10
203.5183481776465
 20
464.5017546675882
 30
0.0
 10
202.8915572572278
 20
466.5536970551485
 30
0.0
 10
202.1981779016907
 20
468.8813540799824
 30
0.0
 10
201.4672755567737
 20
471.4288343664028
 30
0.0
 10
200.7216320603094
 20
474.1528550487577
 30
0.0
 10
200.0288384388307
 20
476.8935638180752
 30
0.0
 10
199.5121984820358
 20
479.3061797268604
 30
0.0
 10
199.2510352808838
 20
481.0324368258416
 30
0.0
 10
199.3232443798917
 20
481.4641987801705
 30
0.0
 10
199.359797945868
 20
481.6827645745154
 30
0.0
  0
SPLINE
  5
BE
330
1F
100
AcDbEntity
  8
0
  6
Continuous
 62
     7
370
    25
100
AcDbSpline
210
0.0
220
0.0
230
1.0
 70
     8
 71
     3
 72
    15
 73
    11
 74
     0
 42
0.00000001
 43
0.00000001
 40
0.0
 40
0.0
 40
0.0
 40
0.0
 40
0.1250394476639786
 40
0.2500455276998775
 40
0.3750286222876954
 40
0.5000000004164465
 40
0.6249713785386324
 40
0.7499544730936288
 40
0.8749605534571753
 40
0.9999999999999999
 40
0.9999999999999999
 40
0.9999999999999999
 40
0.9999999999999999
 10
182.2337417393768
 20
464.5607221069005
 30
0.0
 10
182.3018462745315
 20
465.6774169877646
 30
0.0
 10
182.438037170682
 20
467.9105087518594
 30
0.0
 10
183.463237401588
 20
471.1324049353164
 30
0.0
 10
185.0489294055284
 20
474.1036581938848
 30
0.0
 10
187.1944049182421
 20
476.7097993309413
 30
0.0
 10
189.8020208694858
 20
478.8556356959998
 30
0.0
 10
192.7765668438881
 20
480.4435516512765
 30
0.0
 10
196.0033336971103
 20
481.4726260403512
 30
0.0
 10
198.2408770033784
 20
481.6127121654105
 30
0.0
 10
199.359797945868
 20
481.6827645745155
 30
0.0
  0
SPLINE
  5
BF
330
1F
100
AcDbEntity
  8
0
  6
Continuous
 62
     7
370
    25
100
AcDbSpline
210
0.0
220
0.0
230
1.0
 70
     8
 71
     3
 72
    15
 73
    11
 74
     0
 42
0.00000001
 43
0.00000001
 40
0.0
 40
0.0
 40
0.0
 40
0.0
 40
0.1250394486909994
 40
0.2500455269100706
 40
0.3750286214461853
 40
0.499999999558314
 40
0.6249713776971406
 40
0.7499544723038478
 40
0.874960554484218
 40
1.0
 40
1.0
 40
1.0
 40
1.0
 10
566.5499193800982
 20
464.5607220806849
 30
0.0
 10
566.4818148438413
 20
465.6774169724775
 30
0.0
 10
566.3456239470357
 20
467.9105087330315
 30
0.0
 10
565.3204237166858
 20
471.1324049132671
 30
0.0
 10
563.7347317221347
 20
474.1036581635165
 30
0.0
 10
561.5892562099225
 20
476.7097993070095
 30
0.0
 10
558.9816402571696
 20
478.8556356791063
 30
0.0
 10
556.0070942653686
 20
480.4435516486157
 30
0.0
 10
552.7803273990701
 20
481.4726260413927
 30
0.0
 10
550.5427840824225
 20
481.6127121662326
 30
0.0
 10
549.4238631474674
 20
481.6827645744311
 30
0.0
  0
CIRCLE
  5
C0
330
1F
100
AcDbEntity
  8
0
  6
Continuous
 62
     7
370
    25
100
AcDbCircle
 10
374.3918305598
 20
379.5645990923
 30
0.0
 40
70.0
  0
CIRCLE
  5
C1
330
1F
100
AcDbEntity
  8
0
  6
Continuous
 62
     7
370
    25
100
AcDbCircle
 10
374.3918305598
 20
379.5645990923
 30
0.0
 40
58.94765075494627
  0
CIRCLE
  5
C2
330
1F
100
AcDbEntity
  8
0
  6
Continuous
 62
     7
370
    25
100
AcDbCircle
 10
374.3918305598
 20
379.5645990923
 30
0.0
 40
57.49999999999994
  0
CIRCLE
  5
C3
330
1F
100
AcDbEntity
  8
0
  6
Continuous
 62
     7
370
    25
100
AcDbCircle
 10
374.3918305598
 20
379.5645990923
 30
0.0
 40
56.5871557427476
  0
CIRCLE
  5
C4
330
1F
100
AcDbEntity
  8
0
  6
Continuous
 62
     7
370
    25
100
AcDbCircle
 10
374.3918305598
 20
379.5645990923
 30
0.0
 40
45.04349479983892
  0
CIRCLE
  5
C5
330
1F
100
AcDbEntity
  8
0
  6
Continuous
 62
     7
370
    25
100
AcDbCircle
 10
374.3918305598
 20
379.5645990923
 30
0.0
 40
44.95633905709127
  0
ARC
  5
C6
330
1F
100
AcDbEntity
  8
0
  6
Continuous
 62
     7
370
    25
100
AcDbCircle
 10
148.3918305598
 20
578.5645990923
 30
0.0
 40
10.00000000000003
100
AcDbArc
 50
90.0
 51
180.0
  0
LINE
  5
C7
330
1F
100
AcDbEntity
  8
0
  6
Continuous
 62
     7
370
    25
100
AcDbLine
 10
804.3918305598
 20
588.5645990923
 30
0.0
 11
148.3918305598
 21
588.5645990923
 31
0.0
  0
ARC
  5
C8
330
1F
100
AcDbEntity
  8
0
  6
Continuous
 62
     7
370
    25
100
AcDbCircle
 10
804.3918305598
 20
578.5645990923
 30
0.0
 40
10.0
100
AcDbArc
 50
0.0
 51
90.0
  0
LINE
  5
C9
330
1F
100
AcDbEntity
  8
0
  6
Continuous
 62
     7
370
    25
100
AcDbLine
 10
814.3918305598
 20
78.5645990923
 30
0.0
 11
814.3918305598
 21
578.5645990923
 31
0.0
  0
ARC
  5
CA
330
1F
100
AcDbEntity
  8
0
  6
Continuous
 62
     7
370
    25
100
AcDbCircle
 10
804.3918305598
 20
78.5645990923
 30
0.0
 40
10.00000000000001
100
AcDbArc
 50
270.0
 51
0.0
  0
LINE
  5
CB
330
1F
100
AcDbEntity
  8
0
  6
Continuous
 62
     7
370
    25
100
AcDbLine
 10
148.3918305598
 20
68.5645990923
 30
0.0
 11
804.3918305598
 21
68.5645990923
 31
0.0
  0
ARC
  5
CC
330
1F
100
AcDbEntity
  8
0
  6
Continuous
 62
     7
370
    25
100
AcDbCircle
 10
148.3918305598
 20
78.5645990923
 30
0.0
 40
10.00000000000003
100
AcDbArc
 50
180.0
 51
270.0
  0
LINE
  5
CD
330
1F
100
AcDbEntity
  8
0
  6
Continuous
 62
     7
370
    25
100
AcDbLine
 10
138.3918305598
 20
578.5645990923
 30
0.0
 11
138.3918305598
 21
78.5645990923
 31
0.0
  0
LINE
  5
CE
330
1F
100
AcDbEntity
  8
0
  6
Continuous
 62
     7
370
    25
100
AcDbLine
 10
796.3918305598
 20
328.5645990923
 30
0.0
 11
796.3918305598
 21
547.5645990923
 31
0.0
  0
ARC
  5
CF
330
1F
100
AcDbEntity
  8
0
  6
Continuous
 62
     7
370
    25
100
AcDbCircle
 10
773.3918305598
 20
547.5645990923
 30
0.0
 40
23.00000000000011
100
AcDbArc
 50
0.0
 51
90.0
  0
LINE
  5
D0
330
1F
100
AcDbEntity
  8
0
  6
Continuous
 62
     7
370
    25
100
AcDbLine
 10
773.3918305598
 20
570.5645990923
 30
0.0
 11
179.3918305598
 21
570.5645990923
 31
0.0
  0
ARC
  5
D1
330
1F
100
AcDbEntity
  8
0
  6
Continuous
 62
     7
370
    25
100
AcDbCircle
 10
179.3918305598
 20
547.5645990923
 30
0.0
 40
23.00000000000003
100
AcDbArc
 50
90.0
 51
180.0
  0
LINE
  5
D2
330
1F
100
AcDbEntity
  8
0
  6
Continuous
 62
     7
370
    25
100
AcDbLine
 10
156.3918305598
 20
547.5645990923
 30
0.0
 11
156.3918305598
 21
109.5645990923
 31
0.0
  0
ARC
  5
D3
330
1F
100
AcDbEntity
  8
0
  6
Continuous
 62
     7
370
    25
100
AcDbCircle
 10
179.3918305598
 20
109.5645990923
 30
0.0
 40
23.00000000000003
100
AcDbArc
 50
180.0
 51
270.0
  0
LINE
  5
D4
330
1F
100
AcDbEntity
  8
0
  6
Continuous
 62
     7
370
    25
100
AcDbLine
 10
179.3918305598
 20
86.5645990923
 30
0.0
 11
773.3918305598
 21
86.5645990923
 31
0.0
  0
ARC
  5
D5
330
1F
100
AcDbEntity
  8
0
  6
Continuous
 62
     7
370
    25
100
AcDbCircle
 10
773.3918305598
 20
109.5645990923
 30
0.0
 40
23.00000000000011
100
AcDbArc
 50
270.0
 51
0.0
  0
LINE
  5
D6
330
1F
100
AcDbEntity
  8
0
  6
Continuous
 62
     7
370
    25
100
AcDbLine
 10
796.3918305598
 20
109.5645990923
 30
0.0
 11
796.3918305598
 21
328.5645990923
 31
0.0
  0
LINE
  5
D7
330
1F
100
AcDbEntity
  8
0
  6
Continuous
 62
     7
370
    25
100
AcDbLine
 10
796.3918305598
 20
109.5645990923
 30
0.0
 11
795.6257049704
 21
109.5645990923
 31
0.0
  0
LINE
  5
D8
330
1F
100
AcDbEntity
  8
0
  6
Continuous
 62
     7
370
    25
100
AcDbLine
 10
795.6257049704
 20
109.5645990923
 30
0.0
 11
795.6257049704
 21
328.5645990923
 31
0.0
  0
LINE
  5
D9
330
1F
100
AcDbEntity
  8
0
  6
Continuous
 62
     7
370
    25
100
AcDbLine
 10
796.3918305598
 20
328.5645990923
 30
0.0
 11
795.6257049704
 21
328.5645990923
 31
0.0
  0
LINE
  5
DA
330
1F
100
AcDbEntity
  8
0
  6
Continuous
 62
     7
370
    25
100
AcDbLine
 10
796.3918305598
 20
547.5645990923
 30
0.0
 11
795.6257049704
 21
547.5645990923
 31
0.0
  0
LINE
  5
DB
330
1F
100
AcDbEntity
  8
0
  6
Continuous
 62
     7
370
    25
100
AcDbLine
 10
795.6257049704
 20
328.5645990923
 30
0.0
 11
795.6257049704
 21
547.5645990923
 31
0.0
  0
LINE
  5
DC
330
1F
100
AcDbEntity
  8
0
  6
Continuous
 62
     7
370
    25
100
AcDbLine
 10
156.3918305598
 20
547.5645990923
 30
0.0
 11
157.1579561491
 21
547.5645990923
 31
0.0
  0
LINE
  5
DD
330
1F
100
AcDbEntity
  8
0
  6
Continuous
 62
     7
370
    25
100
AcDbLine
 10
179.3918305598
 20
570.5645990923
 30
0.0
 11
179.3918305598
 21
569.798473503
 31
0.0
  0
ARC
  5
DE
330
1F
100
AcDbEntity
  8
0
  6
Continuous
 62
     7
370
    25
100
AcDbCircle
 10
179.3918305598
 20
547.5645990923
 30
0.0
 40
22.23387441067959
100
AcDbArc
 50
90.0
 51
180.0
  0
LINE
  5
DF
330
1F
100
AcDbEntity
  8
0
  6
Continuous
 62
     7
370
    25
100
AcDbLine
 10
156.3918305598
 20
109.5645990923
 30
0.0
 11
157.1579561491
 21
109.5645990923
 31
0.0
  0
LINE
  5
E0
330
1F
100
AcDbEntity
  8
0
  6
Continuous
 62
     7
370
    25
100
AcDbLine
 10
157.1579561491
 20
547.5645990923
 30
0.0
 11
157.1579561491
 21
109.5645990923
 31
0.0
  0
LINE
  5
E1
330
1F
100
AcDbEntity
  8
0
  6
Continuous
 62
     7
370
    25
100
AcDbLine
 10
773.3918305598
 20
86.5645990923
 30
0.0
 11
773.3918305598
 21
87.3307246816
 31
0.0
  0
ARC
  5
E2
330
1F
100
AcDbEntity
  8
0
  6
Continuous
 62
     7
370
    25
100
AcDbCircle
 10
773.3918305598
 20
109.5645990923
 30
0.0
 40
22.23387441067962
100
AcDbArc
 50
270.0
 51
0.0
  0
LINE
  5
E3
330
1F
100
AcDbEntity
  8
0
  6
Continuous
 62
     7
370
    25
100
AcDbLine
 10
773.3918305598
 20
570.5645990923
 30
0.0
 11
773.3918305598
 21
569.798473503
 31
0.0
  0
ARC
  5
E4
330
1F
100
AcDbEntity
  8
0
  6
Continuous
 62
     7
370
    25
100
AcDbCircle
 10
773.3918305598
 20
547.5645990923
 30
0.0
 40
22.23387441067962
100
AcDbArc
 50
0.0
 51
90.0
  0
LINE
  5
E5
330
1F
100
AcDbEntity
  8
0
  6
Continuous
 62
     7
370
    25
100
AcDbLine
 10
773.3918305598
 20
569.798473503
 30
0.0
 11
179.3918305598
 21
569.798473503
 31
0.0
  0
LINE
  5
E6
330
1F
100
AcDbEntity
  8
0
  6
Continuous
 62
     7
370
    25
100
AcDbLine
 10
179.3918305598
 20
86.5645990923
 30
0.0
 11
179.3918305598
 21
87.3307246816
 31
0.0
  0
LINE
  5
E7
330
1F
100
AcDbEntity
  8
0
  6
Continuous
 62
     7
370
    25
100
AcDbLine
 10
179.3918305598
 20
87.3307246816
 30
0.0
 11
773.3918305598
 21
87.3307246816
 31
0.0
  0
ARC
  5
E8
330
1F
100
AcDbEntity
  8
0
  6
Continuous
 62
     7
370
    25
100
AcDbCircle
 10
179.3918305598
 20
109.5645990923
 30
0.0
 40
22.23387441067959
100
AcDbArc
 50
180.0
 51
270.0
  0
LINE
  5
E9
330
1F
100
AcDbEntity
  8
0
  6
Continuous
 62
     7
370
    25
100
AcDbLine
 10
773.3918305598
 20
569.798473503
 30
0.0
 11
773.3918305598
 21
568.8408640754
 31
0.0
  0
LINE
  5
EA
330
1F
100
AcDbEntity
  8
0
  6
Continuous
 62
     7
370
    25
100
AcDbLine
 10
795.6257049704
 20
547.5645990923
 30
0.0
 11
794.6680955428
 21
547.5645990923
 31
0.0
  0
ARC
  5
EB
330
1F
100
AcDbEntity
  8
0
  6
Continuous
 62
     7
370
    25
100
AcDbCircle
 10
773.3918305598
 20
547.5645990923
 30
0.0
 40
21.27626498307336
100
AcDbArc
 50
0.0
 51
90.0
  0
LINE
  5
EC
330
1F
100
AcDbEntity
  8
0
  6
Continuous
 62
     7
370
    25
100
AcDbLine
 10
157.1579561491
 20
109.5645990923
 30
0.0
 11
158.1155655767
 21
109.5645990923
 31
0.0
  0
LINE
  5
ED
330
1F
100
AcDbEntity
  8
0
  6
Continuous
 62
     7
370
    25
100
AcDbLine
 10
157.1579561491
 20
547.5645990923
 30
0.0
 11
158.1155655767
 21
547.5645990923
 31
0.0
  0
LINE
  5
EE
330
1F
100
AcDbEntity
  8
0
  6
Continuous
 62
     7
370
    25
100
AcDbLine
 10
158.1155655767
 20
547.5645990923
 30
0.0
 11
158.1155655767
 21
109.5645990923
 31
0.0
  0
LINE
  5
EF
330
1F
100
AcDbEntity
  8
0
  6
Continuous
 62
     7
370
    25
100
AcDbLine
 10
179.3918305598
 20
569.798473503
 30
0.0
 11
179.3918305598
 21
568.8408640754
 31
0.0
  0
ARC
  5
F0
330
1F
100
AcDbEntity
  8
0
  6
Continuous
 62
     7
370
    25
100
AcDbCircle
 10
179.3918305598
 20
547.5645990923
 30
0.0
 40
21.27626498307333
100
AcDbArc
 50
90.0
 51
180.0
  0
LINE
  5
F1
330
1F
100
AcDbEntity
  8
0
  6
Continuous
 62
     7
370
    25
100
AcDbLine
 10
773.3918305598
 20
87.3307246816
 30
0.0
 11
773.3918305598
 21
88.2883341092
 31
0.0
  0
LINE
  5
F2
330
1F
100
AcDbEntity
  8
0
  6
Continuous
 62
     7
370
    25
100
AcDbLine
 10
179.3918305598
 20
87.3307246816
 30
0.0
 11
179.3918305598
 21
88.2883341092
 31
0.0
  0
LINE
  5
F3
330
1F
100
AcDbEntity
  8
0
  6
Continuous
 62
     7
370
    25
100
AcDbLine
 10
179.3918305598
 20
88.2883341092
 30
0.0
 11
773.3918305598
 21
88.2883341092
 31
0.0
  0
LINE
  5
F4
330
1F
100
AcDbEntity
  8
0
  6
Continuous
 62
     7
370
    25
100
AcDbLine
 10
795.6257049704
 20
109.5645990923
 30
0.0
 11
794.6680955428
 21
109.5645990923
 31
0.0
  0
LINE
  5
F5
330
1F
100
AcDbEntity
  8
0
  6
Continuous
 62
     7
370
    25
100
AcDbLine
 10
794.6680955428
 20
109.5645990923
 30
0.0
 11
794.6680955428
 21
328.5645990923
 31
0.0
  0
LINE
  5
F6
330
1F
100
AcDbEntity
  8
0
  6
Continuous
 62
     7
370
    25
100
AcDbLine
 10
795.6257049704
 20
328.5645990923
 30
0.0
 11
794.6680955428
 21
328.5645990923
 31
0.0
  0
LINE
  5
F7
330
1F
100
AcDbEntity
  8
0
  6
Continuous
 62
     7
370
    25
100
AcDbLine
 10
773.3918305598
 20
568.8408640754
 30
0.0
 11
179.3918305598
 21
568.8408640754
 31
0.0
  0
ARC
  5
F8
330
1F
100
AcDbEntity
  8
0
  6
Continuous
 62
     7
370
    25
100
AcDbCircle
 10
773.3918305598
 20
109.5645990923
 30
0.0
 40
21.27626498307336
100
AcDbArc
 50
270.0
 51
0.0
  0
LINE
  5
F9
330
1F
100
AcDbEntity
  8
0
  6
Continuous
 62
     7
370
    25
100
AcDbLine
 10
794.6680955428
 20
328.5645990923
 30
0.0
 11
794.6680955428
 21
547.5645990923
 31
0.0
  0
ARC
  5
FA
330
1F
100
AcDbEntity
  8
0
  6
Continuous
 62
     7
370
    25
100
AcDbCircle
 10
179.3918305598
 20
109.5645990923
 30
0.0
 40
21.27626498307333
100
AcDbArc
 50
180.0
 51
270.0
  0
LINE
  5
FB
330
1F
100
AcDbEntity
  8
0
  6
Continuous
 62
     7
370
    25
100
AcDbLine
 10
158.1155655767
 20
547.5645990923
 30
0.0
 11
163.4784447019
 21
547.5645990923
 31
0.0
  0
LINE
  5
FC
330
1F
100
AcDbEntity
  8
0
  6
Continuous
 62
     7
370
    25
100
AcDbLine
 10
179.3918305598
 20
568.8408640754
 30
0.0
 11
179.3918305598
 21
563.4779849501
 31
0.0
  0
ARC
  5
FD
330
1F
100
AcDbEntity
  8
0
  6
Continuous
 62
     7
370
    25
100
AcDbCircle
 10
179.3918305598
 20
547.5645990923
 30
0.0
 40
15.91338585783026
100
AcDbArc
 50
90.0
 51
180.0
  0
LINE
  5
FE
330
1F
100
AcDbEntity
  8
0
  6
Continuous
 62
     7
370
    25
100
AcDbLine
 10
794.6680955428
 20
109.5645990923
 30
0.0
 11
789.3052164176
 21
109.5645990923
 31
0.0
  0
LINE
  5
FF
330
1F
100
AcDbEntity
  8
0
  6
Continuous
 62
     7
370
    25
100
AcDbLine
 10
789.3052164176
 20
109.5645990923
 30
0.0
 11
789.3052164176
 21
328.5645990923
 31
0.0
  0
LINE
  5
100
330
1F
100
AcDbEntity
  8
0
  6
Continuous
 62
     7
370
    25
100
AcDbLine
 10
794.6680955428
 20
328.5645990923
 30
0.0
 11
789.3052164176
 21
328.5645990923
 31
0.0
  0
LINE
  5
101
330
1F
100
AcDbEntity
  8
0
  6
Continuous
 62
     7
370
    25
100
AcDbLine
 10
773.3918305598
 20
568.8408640754
 30
0.0
 11
773.3918305598
 21
563.4779849501
 31
0.0
  0
LINE
  5
102
330
1F
100
AcDbEntity
  8
0
  6
Continuous
 62
     7
370
    25
100
AcDbLine
 10
794.6680955428
 20
547.5645990923
 30
0.0
 11
789.3052164176
 21
547.5645990923
 31
0.0
  0
ARC
  5
103
330
1F
100
AcDbEntity
  8
0
  6
Continuous
 62
     7
370
    25
100
AcDbCircle
 10
773.3918305598
 20
547.5645990923
 30
0.0
 40
15.91338585783035
100
AcDbArc
 50
0.0
 51
90.0
  0
LINE
  5
104
330
1F
100
AcDbEntity
  8
0
  6
Continuous
 62
     7
370
    25
100
AcDbLine
 10
773.3918305598
 20
563.4779849501
 30
0.0
 11
179.3918305598
 21
563.4779849501
 31
0.0
  0
LINE
  5
105
330
1F
100
AcDbEntity
  8
0
  6
Continuous
 62
     7
370
    25
100
AcDbLine
 10
773.3918305598
 20
88.2883341092
 30
0.0
 11
773.3918305598
 21
93.6512132345
 31
0.0
  0
ARC
  5
106
330
1F
100
AcDbEntity
  8
0
  6
Continuous
 62
     7
370
    25
100
AcDbCircle
 10
773.3918305598
 20
109.5645990923
 30
0.0
 40
15.91338585783031
100
AcDbArc
 50
270.0
 51
0.0
  0
LINE
  5
107
330
1F
100
AcDbEntity
  8
0
  6
Continuous
 62
     7
370
    25
100
AcDbLine
 10
158.1155655767
 20
109.5645990923
 30
0.0
 11
163.4784447019
 21
109.5645990923
 31
0.0
  0
LINE
  5
108
330
1F
100
AcDbEntity
  8
0
  6
Continuous
 62
     7
370
    25
100
AcDbLine
 10
163.4784447019
 20
547.5645990923
 30
0.0
 11
163.4784447019
 21
109.5645990923
 31
0.0
  0
LINE
  5
109
330
1F
100
AcDbEntity
  8
0
  6
Continuous
 62
     7
370
    25
100
AcDbLine
 10
789.3052164176
 20
328.5645990923
 30
0.0
 11
789.3052164176
 21
547.5645990923
 31
0.0
  0
LINE
  5
10A
330
1F
100
AcDbEntity
  8
0
  6
Continuous
 62
     7
370
    25
100
AcDbLine
 10
179.3918305598
 20
88.2883341092
 30
0.0
 11
179.3918305598
 21
93.6512132345
 31
0.0
  0
ARC
  5
10B
330
1F
100
AcDbEntity
  8
0
  6
Continuous
 62
     7
370
    25
100
AcDbCircle
 10
179.3918305598
 20
109.5645990923
 30
0.0
 40
15.91338585783031
100
AcDbArc
 50
180.0
 51
270.0
  0
LINE
  5
10C
330
1F
100
AcDbEntity
  8
0
  6
Continuous
 62
     7
370
    25
100
AcDbLine
 10
179.3918305598
 20
93.6512132345
 30
0.0
 11
773.3918305598
 21
93.6512132345
 31
0.0
  0
LINE
  5
10D
330
1F
100
AcDbEntity
  8
0
  6
Continuous
 62
     7
370
    25
100
AcDbLine
 10
580.3918305598
 20
464.0645990923
 30
0.0
 11
580.3918305598
 21
130.0645990923
 31
0.0
  0
ARC
  5
10E
330
1F
100
AcDbEntity
  8
0
  6
Continuous
 62
     7
370
    25
100
AcDbCircle
 10
548.8918305598
 20
464.0645990923
 30
0.0
 40
31.50000000000006
100
AcDbArc
 50
0.0
 51
90.0
  0
LINE
  5
10F
330
1F
100
AcDbEntity
  8
0
  6
Continuous
 62
     7
370
    25
100
AcDbLine
 10
199.8918305598
 20
495.5645990923
 30
0.0
 11
548.8918305598
 21
495.5645990923
 31
0.0
  0
ARC
  5
110
330
1F
100
AcDbEntity
  8
0
  6
Continuous
 62
     7
370
    25
100
AcDbCircle
 10
199.8918305598
 20
464.0645990923
 30
0.0
 40
31.50000000000006
100
AcDbArc
 50
90.0
 51
180.0
  0
LINE
  5
111
330
1F
100
AcDbEntity
  8
0
  6
Continuous
 62
     7
370
    25
100
AcDbLine
 10
168.3918305598
 20
130.0645990923
 30
0.0
 11
168.3918305598
 21
464.0645990923
 31
0.0
  0
ARC
  5
112
330
1F
100
AcDbEntity
  8
0
  6
Continuous
 62
     7
370
    25
100
AcDbCircle
 10
199.8918305598
 20
130.0645990923
 30
0.0
 40
31.50000000000003
100
AcDbArc
 50
180.0
 51
270.0
  0
LINE
  5
113
330
1F
100
AcDbEntity
  8
0
  6
Continuous
 62
     7
370
    25
100
AcDbLine
 10
548.8918305598
 20
98.5645990923
 30
0.0
 11
199.8918305598
 21
98.5645990923
 31
0.0
  0
ARC
  5
114
330
1F
100
AcDbEntity
  8
0
  6
Continuous
 62
     7
370
    25
100
AcDbCircle
 10
548.8918305598
 20
130.0645990923
 30
0.0
 40
31.50000000000007
100
AcDbArc
 50
270.0
 51
0.0
  0
CIRCLE
  5
115
330
1F
100
AcDbEntity
  8
0
  6
Continuous
 62
     7
370
    25
100
AcDbCircle
 10
374.3918305598
 20
532.5645990923
 30
0.0
 40
17.5
  0
LINE
  5
116
330
1F
100
AcDbEntity
  8
0
  6
Continuous
 62
     7
370
    25
100
AcDbLine
 10
580.3918305598
 20
130.0645990923
 30
0.0
 11
575.3918305598
 21
130.0645990923
 31
0.0
  0
LINE
  5
117
330
1F
100
AcDbEntity
  8
0
  6
Continuous
 62
     7
370
    25
100
AcDbLine
 10
575.3918305598
 20
130.0645990923
 30
0.0
 11
575.3918305598
 21
464.0645990923
 31
0.0
  0
LINE
  5
118
330
1F
100
AcDbEntity
  8
0
  6
Continuous
 62
     7
370
    25
100
AcDbLine
 10
580.3918305598
 20
464.0645990923
 30
0.0
 11
575.3918305598
 21
464.0645990923
 31
0.0
  0
LINE
  5
119
330
1F
100
AcDbEntity
  8
0
  6
Continuous
 62
     7
370
    25
100
AcDbLine
 10
548.8918305598
 20
490.5645990923
 30
0.0
 11
199.8918305598
 21
490.5645990923
 31
0.0
  0
LINE
  5
11A
330
1F
100
AcDbEntity
  8
0
  6
Continuous
 62
     7
370
    25
100
AcDbLine
 10
199.8918305598
 20
490.5645990923
 30
0.0
 11
199.8918305598
 21
495.5645990923
 31
0.0
  0
LINE
  5
11B
330
1F
100
AcDbEntity
  8
0
  6
Continuous
 62
     7
370
    25
100
AcDbLine
 10
548.8918305598
 20
495.5645990923
 30
0.0
 11
548.8918305598
 21
490.5645990923
 31
0.0
  0
ARC
  5
11C
330
1F
100
AcDbEntity
  8
0
  6
Continuous
 62
     7
370
    25
100
AcDbCircle
 10
199.8918305598
 20
464.0645990923
 30
0.0
 40
26.5
100
AcDbArc
 50
90.0
 51
180.0
  0
LINE
  5
11D
330
1F
100
AcDbEntity
  8
0
  6
Continuous
 62
     7
370
    25
100
AcDbLine
 10
173.3918305598
 20
464.0645990923
 30
0.0
 11
168.3918305598
 21
464.0645990923
 31
0.0
  0
ARC
  5
11E
330
1F
100
AcDbEntity
  8
0
  6
Continuous
 62
     7
370
    25
100
AcDbCircle
 10
548.8918305598
 20
464.0645990923
 30
0.0
 40
26.5
100
AcDbArc
 50
0.0
 51
90.0
  0
LINE
  5
11F
330
1F
100
AcDbEntity
  8
0
  6
Continuous
 62
     7
370
    25
100
AcDbLine
 10
173.3918305598
 20
464.0645990923
 30
0.0
 11
173.3918305598
 21
130.0645990923
 31
0.0
  0
LINE
  5
120
330
1F
100
AcDbEntity
  8
0
  6
Continuous
 62
     7
370
    25
100
AcDbLine
 10
173.3918305598
 20
130.0645990923
 30
0.0
 11
168.3918305598
 21
130.0645990923
 31
0.0
  0
LINE
  5
121
330
1F
100
AcDbEntity
  8
0
  6
Continuous
 62
     7
370
    25
100
AcDbLine
 10
548.8918305598
 20
98.5645990923
 30
0.0
 11
548.8918305598
 21
103.5645990923
 31
0.0
  0
ARC
  5
122
330
1F
100
AcDbEntity
  8
0
  6
Continuous
 62
     7
370
    25
100
AcDbCircle
 10
548.8918305598
 20
130.0645990923
 30
0.0
 40
26.50000000000011
100
AcDbArc
 50
270.0
 51
0.0
  0
ARC
  5
123
330
1F
100
AcDbEntity
  8
0
  6
Continuous
 62
     7
370
    25
100
AcDbCircle
 10
199.8918305598
 20
130.0645990923
 30
0.0
 40
26.5
100
AcDbArc
 50
180.0
 51
270.0
  0
LINE
  5
124
330
1F
100
AcDbEntity
  8
0
  6
Continuous
 62
     7
370
    25
100
AcDbLine
 10
199.8918305598
 20
103.5645990923
 30
0.0
 11
199.8918305598
 21
98.5645990923
 31
0.0
  0
LINE
  5
125
330
1F
100
AcDbEntity
  8
0
  6
Continuous
 62
     7
370
    25
100
AcDbLine
 10
199.8918305598
 20
103.5645990923
 30
0.0
 11
548.8918305598
 21
103.5645990923
 31
0.0
  0
ENDSEC
  0
SECTION
  2
OBJECTS
  0
DICTIONARY
  5
C
330
0
100
AcDbDictionary
281
     1
  3
ACAD_GROUP
350
D
  3
ACAD_LAYOUT
350
1A
  3
ACAD_MLINESTYLE
350
17
  3
ACAD_PLOTSETTINGS
350
19
  3
ACAD_PLOTSTYLENAME
350
E
  3
ACAD_SCALELIST
350
47
  3
DWGPROPS
350
126
  0
DICTIONARY
  5
D
102
{ACAD_REACTORS
330
C
102
}
330
C
100
AcDbDictionary
281
     1
  0
DICTIONARY
  5
1A
102
{ACAD_REACTORS
330
C
102
}
330
C
100
AcDbDictionary
281
     1
  3
Layout1
350
1E
  3
Layout2
350
26
  3
Model
350
22
  0
DICTIONARY
  5
17
102
{ACAD_REACTORS
330
C
102
}
330
C
100
AcDbDictionary
281
     1
  3
Standard
350
18
  0
DICTIONARY
  5
19
102
{ACAD_REACTORS
330
C
102
}
330
C
100
AcDbDictionary
281
     1
  0
ACDBDICTIONARYWDFLT
  5
E
102
{ACAD_REACTORS
330
C
102
}
330
C
100
AcDbDictionary
281
     1
  3
Normal
350
F
100
AcDbDictionaryWithDefault
340
F
  0
DICTIONARY
  5
47
102
{ACAD_REACTORS
330
C
102
}
330
C
100
AcDbDictionary
281
     1
  3
A0
350
48
  3
A1
350
49
  3
A2
350
4A
  3
A3
350
4B
  3
A4
350
4C
  3
A5
350
4D
  3
A6
350
4E
  3
A7
350
4F
  3
A8
350
50
  3
A9
350
51
  3
B0
350
52
  3
B1
350
53
  3
B2
350
54
  3
B3
350
55
  3
B4
350
56
  3
B5
350
57
  3
B6
350
58
  3
B7
350
59
  3
B8
350
5A
  3
B9
350
5B
  3
C0
350
5C
  3
C1
350
5D
  3
C2
350
5E
  3
C3
350
5F
  3
C4
350
60
  3
C5
350
61
  3
C6
350
62
  3
C7
350
63
  3
C8
350
64
  3
C9
350
65
  3
D0
350
66
  3
D1
350
67
  3
D2
350
68
  0
XRECORD
  5
126
102
{ACAD_REACTORS
330
C
102
}
330
C
100
AcDbXrecord
280
     1
  1
DWGPROPS COOKIE
  2

  3

  4

  6

  7

  8
KalleMourujärvi
  9

300
=
301
=
302
=
303
=
304
=
305
=
306
=
307
=
308
=
309
=
 40
0.0
 41
2460130.418137188
 42
2460130.418137488
  1

 90
        0
  0
LAYOUT
  5
1E
102
{ACAD_REACTORS
330
1A
102
}
330
1A
100
AcDbPlotSettings
  1

  2
none_device
  4

  6

 40
0.0
 41
0.0
 42
0.0
 43
0.0
 44
0.0
 45
0.0
 46
0.0
 47
0.0
 48
0.0
 49
0.0
140
0.0
141
0.0
142
1.0
143
1.0
 70
   688
 72
     1
 73
     0
 74
     5
  7

 75
    16
147
1.0
148
0.0
149
0.0
100
AcDbLayout
  1
Layout1
 70
     1
 71
     1
 10
0.0
 20
0.0
 11
420.0
 21
297.0
 12
0.0
 22
0.0
 32
0.0
 14
1.0000000000E+20
 24
1.0000000000E+20
 34
1.0000000000E+20
 15
-1.0000000000E+20
 25
-1.0000000000E+20
 35
-1.0000000000E+20
146
0.0
 13
0.0
 23
0.0
 33
0.0
 16
1.0
 26
0.0
 36
0.0
 17
0.0
 27
1.0
 37
0.0
 76
     0
330
1B
  0
LAYOUT
  5
26
102
{ACAD_REACTORS
330
1A
102
}
330
1A
100
AcDbPlotSettings
  1

  2
none_device
  4

  6

 40
0.0
 41
0.0
 42
0.0
 43
0.0
 44
0.0
 45
0.0
 46
0.0
 47
0.0
 48
0.0
 49
0.0
140
0.0
141
0.0
142
1.0
143
1.0
 70
   688
 72
     1
 73
     0
 74
     5
  7

 75
    16
147
1.0
148
0.0
149
0.0
100
AcDbLayout
  1
Layout2
 70
     1
 71
     2
 10
0.0
 20
0.0
 11
0.0
 21
0.0
 12
0.0
 22
0.0
 32
0.0
 14
0.0
 24
0.0
 34
0.0
 15
0.0
 25
0.0
 35
0.0
146
0.0
 13
0.0
 23
0.0
 33
0.0
 16
1.0
 26
0.0
 36
0.0
 17
0.0
 27
1.0
 37
0.0
 76
     0
330
23
  0
LAYOUT
  5
22
102
{ACAD_REACTORS
330
1A
102
}
330
1A
100
AcDbPlotSettings
  1

  2
none_device
  4
Letter_(8.50_x_11.00_Inches)
  6

 40
6.35
 41
6.35
 42
6.35000508
 43
6.35000508
 44
215.9
 45
279.4
 46
0.0
 47
0.0
 48
0.0
 49
0.0
140
0.0
141
0.0
142
1.0
143
1.0
 70
  1712
 72
     1
 73
     0
 74
     0
  7

 75
     0
147
1.0
148
0.0
149
0.0
100
AcDbLayout
  1
Model
 70
     1
 71
     0
 10
0.0
 20
0.0
 11
950.0
 21
650.0
 12
0.0
 22
0.0
 32
0.0
 14
0.0
 24
0.0
 34
0.0
 15
950.0
 25
650.0
 35
0.0
146
0.0
 13
0.0
 23
0.0
 33
0.0
 16
1.0
 26
0.0
 36
0.0
 17
0.0
 27
1.0
 37
0.0
 76
     0
330
1F
331
29
  0
MLINESTYLE
  5
18
102
{ACAD_REACTORS
330
17
102
}
330
17
100
AcDbMlineStyle
  2
Standard
 70
     0
  3

 62
   256
 51
90.0
 52
90.0
 71
     2
 49
0.5
 62
   256
  6
BYLAYER
 49
-0.5
 62
   256
  6
BYLAYER
  0
ACDBPLACEHOLDER
  5
F
102
{ACAD_REACTORS
330
E
102
}
330
E
  0
SCALE
  5
48
102
{ACAD_REACTORS
330
47
102
}
330
47
100
AcDbScale
 70
     0
300
1:1
140
1.0
141
1.0
290
     1
  0
SCALE
  5
49
102
{ACAD_REACTORS
330
47
102
}
330
47
100
AcDbScale
 70
     0
300
1:2
140
1.0
141
2.0
290
     0
  0
SCALE
  5
4A
102
{ACAD_REACTORS
330
47
102
}
330
47
100
AcDbScale
 70
     0
300
1:4
140
1.0
141
4.0
290
     0
  0
SCALE
  5
4B
102
{ACAD_REACTORS
330
47
102
}
330
47
100
AcDbScale
 70
     0
300
1:5
140
1.0
141
5.0
290
     0
  0
SCALE
  5
4C
102
{ACAD_REACTORS
330
47
102
}
330
47
100
AcDbScale
 70
     0
300
1:8
140
1.0
141
8.0
290
     0
  0
SCALE
  5
4D
102
{ACAD_REACTORS
330
47
102
}
330
47
100
AcDbScale
 70
     0
300
1:10
140
1.0
141
10.0
290
     0
  0
SCALE
  5
4E
102
{ACAD_REACTORS
330
47
102
}
330
47
100
AcDbScale
 70
     0
300
1:16
140
1.0
141
16.0
290
     0
  0
SCALE
  5
4F
102
{ACAD_REACTORS
330
47
102
}
330
47
100
AcDbScale
 70
     0
300
1:20
140
1.0
141
20.0
290
     0
  0
SCALE
  5
50
102
{ACAD_REACTORS
330
47
102
}
330
47
100
AcDbScale
 70
     0
300
1:30
140
1.0
141
30.0
290
     0
  0
SCALE
  5
51
102
{ACAD_REACTORS
330
47
102
}
330
47
100
AcDbScale
 70
     0
300
1:40
140
1.0
141
40.0
290
     0
  0
SCALE
  5
52
102
{ACAD_REACTORS
330
47
102
}
330
47
100
AcDbScale
 70
     0
300
1:50
140
1.0
141
50.0
290
     0
  0
SCALE
  5
53
102
{ACAD_REACTORS
330
47
102
}
330
47
100
AcDbScale
 70
     0
300
1:100
140
1.0
141
100.0
290
     0
  0
SCALE
  5
54
102
{ACAD_REACTORS
330
47
102
}
330
47
100
AcDbScale
 70
     0
300
2:1
140
2.0
141
1.0
290
     0
  0
SCALE
  5
55
102
{ACAD_REACTORS
330
47
102
}
330
47
100
AcDbScale
 70
     0
300
4:1
140
4.0
141
1.0
290
     0
  0
SCALE
  5
56
102
{ACAD_REACTORS
330
47
102
}
330
47
100
AcDbScale
 70
     0
300
8:1
140
8.0
141
1.0
290
     0
  0
SCALE
  5
57
102
{ACAD_REACTORS
330
47
102
}
330
47
100
AcDbScale
 70
     0
300
10:1
140
10.0
141
1.0
290
     0
  0
SCALE
  5
58
102
{ACAD_REACTORS
330
47
102
}
330
47
100
AcDbScale
 70
     0
300
100:1
140
100.0
141
1.0
290
     0
  0
SCALE
  5
59
102
{ACAD_REACTORS
330
47
102
}
330
47
100
AcDbScale
 70
     0
300
1/128" = 1'-0"
140
0.0078125
141
12.0
290
     0
  0
SCALE
  5
5A
102
{ACAD_REACTORS
330
47
102
}
330
47
100
AcDbScale
 70
     0
300
1/64" = 1'-0"
140
0.015625
141
12.0
290
     0
  0
SCALE
  5
5B
102
{ACAD_REACTORS
330
47
102
}
330
47
100
AcDbScale
 70
     0
300
1/32" = 1'-0"
140
0.03125
141
12.0
290
     0
  0
SCALE
  5
5C
102
{ACAD_REACTORS
330
47
102
}
330
47
100
AcDbScale
 70
     0
300
1/16" = 1'-0"
140
0.0625
141
12.0
290
     0
  0
SCALE
  5
5D
102
{ACAD_REACTORS
330
47
102
}
330
47
100
AcDbScale
 70
     0
300
3/32" = 1'-0"
140
0.09375
141
12.0
290
     0
  0
SCALE
  5
5E
102
{ACAD_REACTORS
330
47
102
}
330
47
100
AcDbScale
 70
     0
300
1/8" = 1'-0"
140
0.125
141
12.0
290
     0
  0
SCALE
  5
5F
102
{ACAD_REACTORS
330
47
102
}
330
47
100
AcDbScale
 70
     0
300
3/16" = 1'-0"
140
0.1875
141
12.0
290
     0
  0
SCALE
  5
60
102
{ACAD_REACTORS
330
47
102
}
330
47
100
AcDbScale
 70
     0
300
1/4" = 1'-0"
140
0.25
141
12.0
290
     0
  0
SCALE
  5
61
102
{ACAD_REACTORS
330
47
102
}
330
47
100
AcDbScale
 70
     0
300
3/8" = 1'-0"
140
0.375
141
12.0
290
     0
  0
SCALE
  5
62
102
{ACAD_REACTORS
330
47
102
}
330
47
100
AcDbScale
 70
     0
300
1/2" = 1'-0"
140
0.5
141
12.0
290
     0
  0
SCALE
  5
63
102
{ACAD_REACTORS
330
47
102
}
330
47
100
AcDbScale
 70
     0
300
3/4" = 1'-0"
140
0.75
141
12.0
290
     0
  0
SCALE
  5
64
102
{ACAD_REACTORS
330
47
102
}
330
47
100
AcDbScale
 70
     0
300
1" = 1'-0"
140
1.0
141
12.0
290
     0
  0
SCALE
  5
65
102
{ACAD_REACTORS
330
47
102
}
330
47
100
AcDbScale
 70
     0
300
1-1/2" = 1'-0"
140
1.5
141
12.0
290
     0
  0
SCALE
  5
66
102
{ACAD_REACTORS
330
47
102
}
330
47
100
AcDbScale
 70
     0
300
3" = 1'-0"
140
3.0
141
12.0
290
     0
  0
SCALE
  5
67
102
{ACAD_REACTORS
330
47
102
}
330
47
100
AcDbScale
 70
     0
300
6" = 1'-0"
140
6.0
141
12.0
290
     0
  0
SCALE
  5
68
102
{ACAD_REACTORS
330
47
102
}
330
47
100
AcDbScale
 70
     0
300
1'-0" = 1'-0"
140
12.0
141
12.0
290
     0
  0
ENDSEC
  0
EOF
